ISO-10303-21;
HEADER;
FILE_DESCRIPTION (( 'STEP AP214' ),
    '1' );
FILE_NAME ('59538.STEP',
    '2023-07-24T15:09:46',
    ( '' ),
    ( '' ),
    'SwSTEP 2.0',
    'SolidWorks 2023',
    '' );
FILE_SCHEMA (( 'AUTOMOTIVE_DESIGN' ));
ENDSEC;

DATA;
#1 =( LENGTH_UNIT ( ) NAMED_UNIT ( * ) SI_UNIT ( .MILLI., .METRE. ) );
#2 = VERTEX_POINT ( 'NONE', #351 ) ;
#3 = CARTESIAN_POINT ( 'NONE',  ( 0.000000000000000000, 0.000000000000000000, 0.000000000000000000 ) ) ;
#4 = ORIENTED_EDGE ( 'NONE', *, *, #109, .T. ) ;
#5 = AXIS2_PLACEMENT_3D ( 'NONE', #20, #137, #79 ) ;
#6 = EDGE_LOOP ( 'NONE', ( #126, #346 ) ) ;
#7 = EDGE_CURVE ( 'NONE', #9, #31, #67, .T. ) ;
#8 = EDGE_LOOP ( 'NONE', ( #297, #236, #157, #209 ) ) ;
#9 = VERTEX_POINT ( 'NONE', #329 ) ;
#10 = MECHANICAL_DESIGN_GEOMETRIC_PRESENTATION_REPRESENTATION (  '', ( #237 ), #348 ) ;
#11 = AXIS2_PLACEMENT_3D ( 'NONE', #14, #44, #148 ) ;
#12 = AXIS2_PLACEMENT_3D ( 'NONE', #143, #177, #225 ) ;
#13 = DIRECTION ( 'NONE',  ( -0.000000000000000000, -1.000000000000000000, -0.000000000000000000 ) ) ;
#14 = CARTESIAN_POINT ( 'NONE',  ( 0.000000000000000000, 0.000000000000000000, 0.000000000000000000 ) ) ;
#15 = PLANE ( 'NONE',  #108 ) ;
#16 = AXIS2_PLACEMENT_3D ( 'NONE', #77, #54, #251 ) ;
#17 = CARTESIAN_POINT ( 'NONE',  ( 5.854691731421723944E-15, 16.00000000000000000, 0.000000000000000000 ) ) ;
#18 = AXIS2_PLACEMENT_3D ( 'NONE', #283, #173, #147 ) ;
#19 = LINE ( 'NONE', #219, #45 ) ;
#20 = CARTESIAN_POINT ( 'NONE',  ( 0.000000000000000000, 16.00000000000000000, 0.000000000000000000 ) ) ;
#21 = DIRECTION ( 'NONE',  ( -5.682149050294907483E-17, 1.000000000000000000, -0.000000000000000000 ) ) ;
#22 = VECTOR ( 'NONE', #128, 1000.000000000000000 ) ;
#23 = ADVANCED_FACE ( 'NONE', ( #135 ), #306, .T. ) ;
#24 = SURFACE_STYLE_FILL_AREA ( #196 ) ;
#25 = CARTESIAN_POINT ( 'NONE',  ( 0.000000000000000000, 0.000000000000000000, -3.500000000000000000 ) ) ;
#26 = DIRECTION ( 'NONE',  ( 0.000000000000000000, 0.000000000000000000, -1.000000000000000000 ) ) ;
#27 = PRESENTATION_LAYER_ASSIGNMENT (  '', '', ( #188 ) ) ;
#28 = DIRECTION ( 'NONE',  ( 1.000000000000000000, 0.000000000000000000, -1.224646799147353207E-16 ) ) ;
#29 = FACE_OUTER_BOUND ( 'NONE', #123, .T. ) ;
#30 = PRODUCT_DEFINITION_FORMATION_WITH_SPECIFIED_SOURCE ( 'ANY', '', #212, .NOT_KNOWN. ) ;
#31 = VERTEX_POINT ( 'NONE', #304 ) ;
#32 = ORIENTED_EDGE ( 'NONE', *, *, #142, .F. ) ;
#33 = DIRECTION ( 'NONE',  ( -0.000000000000000000, -1.000000000000000000, -0.000000000000000000 ) ) ;
#34 = DIRECTION ( 'NONE',  ( -5.682149050294907483E-17, 1.000000000000000000, 0.000000000000000000 ) ) ;
#35 = EDGE_LOOP ( 'NONE', ( #228, #290, #150, #257 ) ) ;
#36 = ADVANCED_FACE ( 'NONE', ( #238 ), #153, .T. ) ;
#37 = COLOUR_RGB ( '',0.7921568627450980005, 0.8196078431372548767, 0.9333333333333333481 ) ;
#38 = STYLED_ITEM ( 'NONE', ( #259 ), #314 ) ;
#39 = DIRECTION ( 'NONE',  ( 0.000000000000000000, 0.000000000000000000, -1.000000000000000000 ) ) ;
#40 = MANIFOLD_SOLID_BREP ( 'Revolve - Cutting Edge', #99 ) ;
#41 = ORIENTED_EDGE ( 'NONE', *, *, #103, .T. ) ;
#42 = DIRECTION ( 'NONE',  ( -5.682149050294907483E-17, 1.000000000000000000, -0.000000000000000000 ) ) ;
#43 = AXIS2_PLACEMENT_3D ( 'NONE', #363, #21, #249 ) ;
#44 = DIRECTION ( 'NONE',  ( 0.000000000000000000, -1.000000000000000000, -0.000000000000000000 ) ) ;
#45 = VECTOR ( 'NONE', #46, 1000.000000000000000 ) ;
#46 = DIRECTION ( 'NONE',  ( -5.682149050294907483E-17, 1.000000000000000000, -0.000000000000000000 ) ) ;
#47 = FILL_AREA_STYLE ('',( #155 ) ) ;
#48 = MECHANICAL_DESIGN_GEOMETRIC_PRESENTATION_REPRESENTATION (  '', ( #175 ), #242 ) ;
#49 = ADVANCED_FACE ( 'NONE', ( #205 ), #15, .F. ) ;
#50 = FILL_AREA_STYLE_COLOUR ( '', #246 ) ;
#51 =( NAMED_UNIT ( * ) PLANE_ANGLE_UNIT ( ) SI_UNIT ( $, .RADIAN. ) );
#52 = APPLICATION_CONTEXT ( 'automotive_design' ) ;
#53 = FACE_OUTER_BOUND ( 'NONE', #318, .T. ) ;
#54 = DIRECTION ( 'NONE',  ( -0.000000000000000000, -1.000000000000000000, -0.000000000000000000 ) ) ;
#55 = SURFACE_STYLE_USAGE ( .BOTH. , #291 ) ;
#56 = SURFACE_SIDE_STYLE ('',( #315 ) ) ;
#57 = MECHANICAL_DESIGN_GEOMETRIC_PRESENTATION_REPRESENTATION (  '', ( #188 ), #165 ) ;
#58 = CARTESIAN_POINT ( 'NONE',  ( 0.000000000000000000, 0.000000000000000000, -4.000000000000000000 ) ) ;
#59 =( NAMED_UNIT ( * ) SI_UNIT ( $, .STERADIAN. ) SOLID_ANGLE_UNIT ( ) );
#60 = CIRCLE ( 'NONE', #5, 4.000000000000000000 ) ;
#61 = EDGE_LOOP ( 'NONE', ( #41, #293, #260, #32 ) ) ;
#62 = COLOUR_RGB ( '',1.000000000000000000, 0.000000000000000000, 0.000000000000000000 ) ;
#63 = ORIENTED_EDGE ( 'NONE', *, *, #263, .F. ) ;
#64 = SURFACE_SIDE_STYLE ('',( #146 ) ) ;
#65 = ORIENTED_EDGE ( 'NONE', *, *, #218, .F. ) ;
#66 = EDGE_CURVE ( 'NONE', #341, #119, #154, .T. ) ;
#67 = CIRCLE ( 'NONE', #253, 3.999999999999994227 ) ;
#68 =( LENGTH_UNIT ( ) NAMED_UNIT ( * ) SI_UNIT ( .MILLI., .METRE. ) );
#69 = ORIENTED_EDGE ( 'NONE', *, *, #211, .T. ) ;
#70 = SURFACE_STYLE_FILL_AREA ( #47 ) ;
#71 =( NAMED_UNIT ( * ) SI_UNIT ( $, .STERADIAN. ) SOLID_ANGLE_UNIT ( ) );
#72 = UNCERTAINTY_MEASURE_WITH_UNIT (LENGTH_MEASURE( 1.000000000000000082E-05 ), #370, 'distance_accuracy_value', 'NONE');
#73 = APPLICATION_CONTEXT ( 'automotive_design' ) ;
#74 = SURFACE_STYLE_USAGE ( .BOTH. , #272 ) ;
#75 = ADVANCED_FACE ( 'NONE', ( #308 ), #164, .T. ) ;
#76 = PRESENTATION_LAYER_ASSIGNMENT (  '', '', ( #237 ) ) ;
#77 = CARTESIAN_POINT ( 'NONE',  ( 0.000000000000000000, 0.5000000000000000000, 0.000000000000000000 ) ) ;
#78 = FILL_AREA_STYLE_COLOUR ( '', #161 ) ;
#79 = DIRECTION ( 'NONE',  ( 0.000000000000000000, 0.000000000000000000, -1.000000000000000000 ) ) ;
#80 = PRESENTATION_STYLE_ASSIGNMENT (( #220 ) ) ;
#81 = FILL_AREA_STYLE_COLOUR ( '', #62 ) ;
#82 = DIRECTION ( 'NONE',  ( -0.000000000000000000, -1.000000000000000000, -0.000000000000000000 ) ) ;
#83 =( NAMED_UNIT ( * ) SI_UNIT ( $, .STERADIAN. ) SOLID_ANGLE_UNIT ( ) );
#84 = SURFACE_STYLE_USAGE ( .BOTH. , #64 ) ;
#85 = ORIENTED_EDGE ( 'NONE', *, *, #334, .T. ) ;
#86 = AXIS2_PLACEMENT_3D ( 'NONE', #309, #361, #222 ) ;
#87 = LINE ( 'NONE', #58, #22 ) ;
#88 = DIRECTION ( 'NONE',  ( 0.000000000000000000, 0.000000000000000000, -1.000000000000000000 ) ) ;
#89 = ORIENTED_EDGE ( 'NONE', *, *, #66, .F. ) ;
#90 = ADVANCED_FACE ( 'NONE', ( #53 ), #264, .T. ) ;
#91 = DIRECTION ( 'NONE',  ( -1.224646799147353454E-16, 0.000000000000000000, -1.000000000000000000 ) ) ;
#92 = PRODUCT_CONTEXT ( 'NONE', #73, 'mechanical' ) ;
#93 = EDGE_LOOP ( 'NONE', ( #232, #210 ) ) ;
#94 =( NAMED_UNIT ( * ) PLANE_ANGLE_UNIT ( ) SI_UNIT ( $, .RADIAN. ) );
#95 =( GEOMETRIC_REPRESENTATION_CONTEXT ( 3 ) GLOBAL_UNCERTAINTY_ASSIGNED_CONTEXT ( ( #327 ) ) GLOBAL_UNIT_ASSIGNED_CONTEXT ( ( #1, #94, #59 ) ) REPRESENTATION_CONTEXT ( 'NONE', 'WORKASPACE' ) );
#96 =( NAMED_UNIT ( * ) PLANE_ANGLE_UNIT ( ) SI_UNIT ( $, .RADIAN. ) );
#97 = PRESENTATION_STYLE_ASSIGNMENT (( #55 ) ) ;
#98 = SURFACE_STYLE_FILL_AREA ( #129 ) ;
#99 = CLOSED_SHELL ( 'NONE', ( #303, #314, #130, #90, #23, #36 ) ) ;
#100 = UNCERTAINTY_MEASURE_WITH_UNIT (LENGTH_MEASURE( 1.000000000000000082E-05 ), #171, 'distance_accuracy_value', 'NONE');
#101 = VECTOR ( 'NONE', #313, 1000.000000000000000 ) ;
#102 = AXIS2_PLACEMENT_3D ( 'NONE', #183, #231, #208 ) ;
#103 = EDGE_CURVE ( 'NONE', #120, #267, #60, .T. ) ;
#104 =( NAMED_UNIT ( * ) SI_UNIT ( $, .STERADIAN. ) SOLID_ANGLE_UNIT ( ) );
#105 = UNCERTAINTY_MEASURE_WITH_UNIT (LENGTH_MEASURE( 1.000000000000000082E-05 ), #192, 'distance_accuracy_value', 'NONE');
#106 = CARTESIAN_POINT ( 'NONE',  ( 0.000000000000000000, 0.5000000000000000000, 0.000000000000000000 ) ) ;
#107 = FILL_AREA_STYLE_COLOUR ( '', #279 ) ;
#108 = AXIS2_PLACEMENT_3D ( 'NONE', #110, #277, #282 ) ;
#109 = EDGE_CURVE ( 'NONE', #9, #119, #203, .T. ) ;
#110 = CARTESIAN_POINT ( 'NONE',  ( 4.000000000000000000, 63.00000000000000000, 0.000000000000000000 ) ) ;
#111 = EDGE_CURVE ( 'NONE', #267, #2, #199, .T. ) ;
#112 = UNCERTAINTY_MEASURE_WITH_UNIT (LENGTH_MEASURE( 1.000000000000000082E-05 ), #269, 'distance_accuracy_value', 'NONE');
#113 = CYLINDRICAL_SURFACE ( 'NONE', #18, 3.999999999999994671 ) ;
#114 = CARTESIAN_POINT ( 'NONE',  ( 5.854691731421723944E-15, 16.00000000000000000, 0.000000000000000000 ) ) ;
#115 = TOROIDAL_SURFACE ( 'NONE', #180, 3.500000000000000000, 0.5000000000000000000 ) ;
#116 = PRESENTATION_STYLE_ASSIGNMENT (( #369 ) ) ;
#117 =( NAMED_UNIT ( * ) PLANE_ANGLE_UNIT ( ) SI_UNIT ( $, .RADIAN. ) );
#118 = PLANE ( 'NONE',  #368 ) ;
#119 = VERTEX_POINT ( 'NONE', #280 ) ;
#120 = VERTEX_POINT ( 'NONE', #358 ) ;
#121 = SURFACE_SIDE_STYLE ('',( #24 ) ) ;
#122 = DIRECTION ( 'NONE',  ( 0.000000000000000000, 0.000000000000000000, 1.000000000000000000 ) ) ;
#123 = EDGE_LOOP ( 'NONE', ( #344, #322 ) ) ;
#124 =( LENGTH_UNIT ( ) NAMED_UNIT ( * ) SI_UNIT ( .MILLI., .METRE. ) );
#125 = ORIENTED_EDGE ( 'NONE', *, *, #200, .F. ) ;
#126 = ORIENTED_EDGE ( 'NONE', *, *, #103, .F. ) ;
#127 = SURFACE_SIDE_STYLE ('',( #70 ) ) ;
#128 = DIRECTION ( 'NONE',  ( -0.000000000000000000, -1.000000000000000000, -0.000000000000000000 ) ) ;
#129 = FILL_AREA_STYLE ('',( #214 ) ) ;
#130 = ADVANCED_FACE ( 'NONE', ( #332 ), #140, .T. ) ;
#131 = PRESENTATION_STYLE_ASSIGNMENT (( #74 ) ) ;
#132 = UNCERTAINTY_MEASURE_WITH_UNIT (LENGTH_MEASURE( 1.000000000000000082E-05 ), #172, 'distance_accuracy_value', 'NONE');
#133 =( GEOMETRIC_REPRESENTATION_CONTEXT ( 3 ) GLOBAL_UNCERTAINTY_ASSIGNED_CONTEXT ( ( #353 ) ) GLOBAL_UNIT_ASSIGNED_CONTEXT ( ( #311, #331, #333 ) ) REPRESENTATION_CONTEXT ( 'NONE', 'WORKASPACE' ) );
#134 = AXIS2_PLACEMENT_3D ( 'NONE', #338, #82, #292 ) ;
#135 = FACE_OUTER_BOUND ( 'NONE', #35, .T. ) ;
#136 = CARTESIAN_POINT ( 'NONE',  ( -3.999999999999991562, 63.00000000000000000, 0.000000000000000000 ) ) ;
#137 = DIRECTION ( 'NONE',  ( -0.000000000000000000, -1.000000000000000000, -0.000000000000000000 ) ) ;
#138 = PRESENTATION_LAYER_ASSIGNMENT (  '', '', ( #298 ) ) ;
#139 = AXIS2_PLACEMENT_3D ( 'NONE', #319, #345, #174 ) ;
#140 = PLANE ( 'NONE',  #11 ) ;
#141 = SURFACE_STYLE_FILL_AREA ( #163 ) ;
#142 = EDGE_CURVE ( 'NONE', #120, #296, #87, .T. ) ;
#143 = CARTESIAN_POINT ( 'NONE',  ( 0.000000000000000000, 0.5000000000000000000, 0.000000000000000000 ) ) ;
#144 = FILL_AREA_STYLE ('',( #81 ) ) ;
#145 = FILL_AREA_STYLE_COLOUR ( '', #37 ) ;
#146 = SURFACE_STYLE_FILL_AREA ( #234 ) ;
#147 = DIRECTION ( 'NONE',  ( -1.000000000000000000, 0.000000000000000000, 0.000000000000000000 ) ) ;
#148 = DIRECTION ( 'NONE',  ( 0.000000000000000000, 0.000000000000000000, -1.000000000000000000 ) ) ;
#149 = APPLICATION_PROTOCOL_DEFINITION ( 'draft international standard', 'automotive_design', 1998, #73 ) ;
#150 = ORIENTED_EDGE ( 'NONE', *, *, #142, .T. ) ;
#151 = CARTESIAN_POINT ( 'NONE',  ( 4.000000000000000000, 63.00000000000000000, 4.898587196589407898E-16 ) ) ;
#152 = PRESENTATION_LAYER_ASSIGNMENT (  '', '', ( #38 ) ) ;
#153 = PLANE ( 'NONE',  #194 ) ;
#154 = CIRCLE ( 'NONE', #43, 3.999999999999996447 ) ;
#155 = FILL_AREA_STYLE_COLOUR ( '', #305 ) ;
#156 = AXIS2_PLACEMENT_3D ( 'NONE', #3, #122, #343 ) ;
#157 = ORIENTED_EDGE ( 'NONE', *, *, #244, .F. ) ;
#158 = PRODUCT_DEFINITION_CONTEXT ( 'detailed design', #52, 'design' ) ;
#159 = EDGE_CURVE ( 'NONE', #2, #186, #230, .T. ) ;
#160 =( NAMED_UNIT ( * ) PLANE_ANGLE_UNIT ( ) SI_UNIT ( $, .RADIAN. ) );
#161 = COLOUR_RGB ( '',1.000000000000000000, 0.000000000000000000, 0.000000000000000000 ) ;
#162 = CIRCLE ( 'NONE', #102, 0.5000000000000000000 ) ;
#163 = FILL_AREA_STYLE ('',( #50 ) ) ;
#164 = CYLINDRICAL_SURFACE ( 'NONE', #86, 3.999999999999994671 ) ;
#165 =( GEOMETRIC_REPRESENTATION_CONTEXT ( 3 ) GLOBAL_UNCERTAINTY_ASSIGNED_CONTEXT ( ( #132 ) ) GLOBAL_UNIT_ASSIGNED_CONTEXT ( ( #172, #51, #337 ) ) REPRESENTATION_CONTEXT ( 'NONE', 'WORKASPACE' ) );
#166 = MANIFOLD_SOLID_BREP ( 'Revolve - Tool Body (Straight Shanked)', #201 ) ;
#167 = MECHANICAL_DESIGN_GEOMETRIC_PRESENTATION_REPRESENTATION (  '', ( #335 ), #295 ) ;
#168 = DIRECTION ( 'NONE',  ( 0.000000000000000000, 0.000000000000000000, -1.000000000000000000 ) ) ;
#169 = CIRCLE ( 'NONE', #216, 3.999999999999996447 ) ;
#170 = EDGE_CURVE ( 'NONE', #267, #120, #221, .T. ) ;
#171 =( LENGTH_UNIT ( ) NAMED_UNIT ( * ) SI_UNIT ( .MILLI., .METRE. ) );
#172 =( LENGTH_UNIT ( ) NAMED_UNIT ( * ) SI_UNIT ( .MILLI., .METRE. ) );
#173 = DIRECTION ( 'NONE',  ( -5.682149050294907483E-17, 1.000000000000000000, -0.000000000000000000 ) ) ;
#174 = DIRECTION ( 'NONE',  ( -1.000000000000000000, 0.000000000000000000, 0.000000000000000000 ) ) ;
#175 = STYLED_ITEM ( 'NONE', ( #131 ), #23 ) ;
#176 =( GEOMETRIC_REPRESENTATION_CONTEXT ( 3 ) GLOBAL_UNCERTAINTY_ASSIGNED_CONTEXT ( ( #241 ) ) GLOBAL_UNIT_ASSIGNED_CONTEXT ( ( #124, #289, #181 ) ) REPRESENTATION_CONTEXT ( 'NONE', 'WORKASPACE' ) );
#177 = DIRECTION ( 'NONE',  ( -0.000000000000000000, -1.000000000000000000, -0.000000000000000000 ) ) ;
#178 = AXIS2_PLACEMENT_3D ( 'NONE', #261, #28, #91 ) ;
#179 = EDGE_LOOP ( 'NONE', ( #125, #85, #4, #89 ) ) ;
#180 = AXIS2_PLACEMENT_3D ( 'NONE', #252, #286, #88 ) ;
#181 =( NAMED_UNIT ( * ) SI_UNIT ( $, .STERADIAN. ) SOLID_ANGLE_UNIT ( ) );
#182 = ORIENTED_EDGE ( 'NONE', *, *, #347, .T. ) ;
#183 = CARTESIAN_POINT ( 'NONE',  ( 0.000000000000000000, 0.5000000000000000000, -3.500000000000000000 ) ) ;
#184 = ORIENTED_EDGE ( 'NONE', *, *, #159, .T. ) ;
#185 =( GEOMETRIC_REPRESENTATION_CONTEXT ( 3 ) GLOBAL_UNCERTAINTY_ASSIGNED_CONTEXT ( ( #301 ) ) GLOBAL_UNIT_ASSIGNED_CONTEXT ( ( #68, #294, #256 ) ) REPRESENTATION_CONTEXT ( 'NONE', 'WORKASPACE' ) );
#186 = VERTEX_POINT ( 'NONE', #276 ) ;
#187 = PRESENTATION_STYLE_ASSIGNMENT (( #302 ) ) ;
#188 = STYLED_ITEM ( 'NONE', ( #217 ), #40 ) ;
#189 = CARTESIAN_POINT ( 'NONE',  ( 0.000000000000000000, 16.00000000000000000, 0.000000000000000000 ) ) ;
#190 = CIRCLE ( 'NONE', #307, 3.500000000000000000 ) ;
#191 = DIRECTION ( 'NONE',  ( -1.000000000000000000, 0.000000000000000000, 0.000000000000000000 ) ) ;
#192 =( LENGTH_UNIT ( ) NAMED_UNIT ( * ) SI_UNIT ( .MILLI., .METRE. ) );
#193 = SURFACE_STYLE_FILL_AREA ( #325 ) ;
#194 = AXIS2_PLACEMENT_3D ( 'NONE', #189, #299, #271 ) ;
#195 =( GEOMETRIC_REPRESENTATION_CONTEXT ( 3 ) GLOBAL_UNCERTAINTY_ASSIGNED_CONTEXT ( ( #100 ) ) GLOBAL_UNIT_ASSIGNED_CONTEXT ( ( #171, #287, #207 ) ) REPRESENTATION_CONTEXT ( 'NONE', 'WORKASPACE' ) );
#196 = FILL_AREA_STYLE ('',( #78 ) ) ;
#197 = SHAPE_DEFINITION_REPRESENTATION ( #356, #320 ) ;
#198 = CARTESIAN_POINT ( 'NONE',  ( 0.000000000000000000, 0.000000000000000000, 0.000000000000000000 ) ) ;
#199 = LINE ( 'NONE', #247, #101 ) ;
#200 = EDGE_CURVE ( 'NONE', #31, #341, #19, .T. ) ;
#201 = CLOSED_SHELL ( 'NONE', ( #75, #362, #233, #49 ) ) ;
#202 = PRESENTATION_LAYER_ASSIGNMENT (  '', '', ( #342 ) ) ;
#203 = LINE ( 'NONE', #136, #357 ) ;
#204 = DIRECTION ( 'NONE',  ( -5.682149050294907483E-17, 1.000000000000000000, -0.000000000000000000 ) ) ;
#205 = FACE_OUTER_BOUND ( 'NONE', #93, .T. ) ;
#206 = FACE_OUTER_BOUND ( 'NONE', #339, .T. ) ;
#207 =( NAMED_UNIT ( * ) SI_UNIT ( $, .STERADIAN. ) SOLID_ANGLE_UNIT ( ) );
#208 = DIRECTION ( 'NONE',  ( 0.000000000000000000, 0.000000000000000000, 1.000000000000000000 ) ) ;
#209 = ORIENTED_EDGE ( 'NONE', *, *, #109, .F. ) ;
#210 = ORIENTED_EDGE ( 'NONE', *, *, #66, .T. ) ;
#211 = EDGE_CURVE ( 'NONE', #2, #296, #350, .T. ) ;
#212 = PRODUCT ( '59538', '59538', '', ( #92 ) ) ;
#213 = CIRCLE ( 'NONE', #12, 4.000000000000000000 ) ;
#214 = FILL_AREA_STYLE_COLOUR ( '', #340 ) ;
#215 = CARTESIAN_POINT ( 'NONE',  ( 0.000000000000000000, 0.000000000000000000, 0.000000000000000000 ) ) ;
#216 = AXIS2_PLACEMENT_3D ( 'NONE', #250, #204, #223 ) ;
#217 = PRESENTATION_STYLE_ASSIGNMENT (( #273 ) ) ;
#218 = EDGE_CURVE ( 'NONE', #266, #186, #190, .T. ) ;
#219 = CARTESIAN_POINT ( 'NONE',  ( 3.999999999999998224, 63.00000000000000000, 4.898587196589406912E-16 ) ) ;
#220 = SURFACE_STYLE_USAGE ( .BOTH. , #366 ) ;
#221 = CIRCLE ( 'NONE', #275, 4.000000000000000000 ) ;
#222 = DIRECTION ( 'NONE',  ( -1.000000000000000000, 0.000000000000000000, 0.000000000000000000 ) ) ;
#223 = DIRECTION ( 'NONE',  ( -1.000000000000000000, 0.000000000000000000, 0.000000000000000000 ) ) ;
#224 = CIRCLE ( 'NONE', #248, 3.500000000000000000 ) ;
#225 = DIRECTION ( 'NONE',  ( 0.000000000000000000, 0.000000000000000000, -1.000000000000000000 ) ) ;
#226 = DIRECTION ( 'NONE',  ( -1.000000000000000000, -5.682149050294907483E-17, 0.000000000000000000 ) ) ;
#227 = ORIENTED_EDGE ( 'NONE', *, *, #347, .F. ) ;
#228 = ORIENTED_EDGE ( 'NONE', *, *, #111, .F. ) ;
#229 = MECHANICAL_DESIGN_GEOMETRIC_PRESENTATION_REPRESENTATION (  '', ( #298 ), #133 ) ;
#230 = CIRCLE ( 'NONE', #178, 0.5000000000000000000 ) ;
#231 = DIRECTION ( 'NONE',  ( -1.000000000000000000, 0.000000000000000000, 0.000000000000000000 ) ) ;
#232 = ORIENTED_EDGE ( 'NONE', *, *, #244, .T. ) ;
#233 = ADVANCED_FACE ( 'NONE', ( #281 ), #113, .T. ) ;
#234 = FILL_AREA_STYLE ('',( #316 ) ) ;
#235 = ORIENTED_EDGE ( 'NONE', *, *, #263, .T. ) ;
#236 = ORIENTED_EDGE ( 'NONE', *, *, #200, .T. ) ;
#237 = STYLED_ITEM ( 'NONE', ( #187 ), #36 ) ;
#238 = FACE_OUTER_BOUND ( 'NONE', #6, .T. ) ;
#239 = AXIS2_PLACEMENT_3D ( 'NONE', #106, #360, #330 ) ;
#240 = FILL_AREA_STYLE ('',( #145 ) ) ;
#241 = UNCERTAINTY_MEASURE_WITH_UNIT (LENGTH_MEASURE( 1.000000000000000082E-05 ), #124, 'distance_accuracy_value', 'NONE');
#242 =( GEOMETRIC_REPRESENTATION_CONTEXT ( 3 ) GLOBAL_UNCERTAINTY_ASSIGNED_CONTEXT ( ( #105 ) ) GLOBAL_UNIT_ASSIGNED_CONTEXT ( ( #192, #96, #104 ) ) REPRESENTATION_CONTEXT ( 'NONE', 'WORKASPACE' ) );
#243 = SURFACE_SIDE_STYLE ('',( #98 ) ) ;
#244 = EDGE_CURVE ( 'NONE', #119, #341, #169, .T. ) ;
#245 = DIRECTION ( 'NONE',  ( -5.682149050294907483E-17, 1.000000000000000000, -0.000000000000000000 ) ) ;
#246 = COLOUR_RGB ( '',1.000000000000000000, 0.000000000000000000, 0.000000000000000000 ) ;
#247 = CARTESIAN_POINT ( 'NONE',  ( 4.898587196589412829E-16, 0.000000000000000000, 4.000000000000000000 ) ) ;
#248 = AXIS2_PLACEMENT_3D ( 'NONE', #285, #258, #26 ) ;
#249 = DIRECTION ( 'NONE',  ( -1.000000000000000000, 0.000000000000000000, 0.000000000000000000 ) ) ;
#250 = CARTESIAN_POINT ( 'NONE',  ( 3.184081677783117402E-15, 63.00000000000000000, 0.000000000000000000 ) ) ;
#251 = DIRECTION ( 'NONE',  ( 0.000000000000000000, 0.000000000000000000, -1.000000000000000000 ) ) ;
#252 = CARTESIAN_POINT ( 'NONE',  ( 0.000000000000000000, 0.5000000000000000000, 0.000000000000000000 ) ) ;
#253 = AXIS2_PLACEMENT_3D ( 'NONE', #17, #42, #191 ) ;
#254 = CARTESIAN_POINT ( 'NONE',  ( 0.000000000000000000, 0.5000000000000000000, -4.000000000000000000 ) ) ;
#255 = CARTESIAN_POINT ( 'NONE',  ( 0.000000000000000000, 16.00000000000000000, 0.000000000000000000 ) ) ;
#256 =( NAMED_UNIT ( * ) SI_UNIT ( $, .STERADIAN. ) SOLID_ANGLE_UNIT ( ) );
#257 = ORIENTED_EDGE ( 'NONE', *, *, #211, .F. ) ;
#258 = DIRECTION ( 'NONE',  ( -0.000000000000000000, -1.000000000000000000, -0.000000000000000000 ) ) ;
#259 = PRESENTATION_STYLE_ASSIGNMENT (( #84 ) ) ;
#260 = ORIENTED_EDGE ( 'NONE', *, *, #284, .F. ) ;
#261 = CARTESIAN_POINT ( 'NONE',  ( 4.286263797015736595E-16, 0.5000000000000000000, 3.500000000000000000 ) ) ;
#262 = ORIENTED_EDGE ( 'NONE', *, *, #284, .T. ) ;
#263 = EDGE_CURVE ( 'NONE', #186, #266, #224, .T. ) ;
#264 = TOROIDAL_SURFACE ( 'NONE', #16, 3.500000000000000000, 0.5000000000000000000 ) ;
#265 = MECHANICAL_DESIGN_GEOMETRIC_PRESENTATION_REPRESENTATION (  '', ( #38 ), #185 ) ;
#266 = VERTEX_POINT ( 'NONE', #25 ) ;
#267 = VERTEX_POINT ( 'NONE', #312 ) ;
#268 = ORIENTED_EDGE ( 'NONE', *, *, #159, .F. ) ;
#269 =( LENGTH_UNIT ( ) NAMED_UNIT ( * ) SI_UNIT ( .MILLI., .METRE. ) );
#270 = PRESENTATION_STYLE_ASSIGNMENT (( #352 ) ) ;
#271 = DIRECTION ( 'NONE',  ( 0.000000000000000000, -0.000000000000000000, 1.000000000000000000 ) ) ;
#272 = SURFACE_SIDE_STYLE ('',( #193 ) ) ;
#273 = SURFACE_STYLE_USAGE ( .BOTH. , #243 ) ;
#274 = PRESENTATION_LAYER_ASSIGNMENT (  '', '', ( #335 ) ) ;
#275 = AXIS2_PLACEMENT_3D ( 'NONE', #255, #33, #39 ) ;
#276 = CARTESIAN_POINT ( 'NONE',  ( 4.592425496802573972E-16, 0.000000000000000000, 3.500000000000000000 ) ) ;
#277 = DIRECTION ( 'NONE',  ( 5.682149050294907483E-17, -1.000000000000000000, 0.000000000000000000 ) ) ;
#278 = PRODUCT_RELATED_PRODUCT_CATEGORY ( 'part', '', ( #212 ) ) ;
#279 = COLOUR_RGB ( '',1.000000000000000000, 0.000000000000000000, 0.000000000000000000 ) ;
#280 = CARTESIAN_POINT ( 'NONE',  ( -3.999999999999993339, 63.00000000000000000, 0.000000000000000000 ) ) ;
#281 = FACE_OUTER_BOUND ( 'NONE', #179, .T. ) ;
#282 = DIRECTION ( 'NONE',  ( 1.000000000000000000, 5.682149050294907483E-17, 0.000000000000000000 ) ) ;
#283 = CARTESIAN_POINT ( 'NONE',  ( 3.184081677783117402E-15, 63.00000000000000000, 0.000000000000000000 ) ) ;
#284 = EDGE_CURVE ( 'NONE', #296, #2, #213, .T. ) ;
#285 = CARTESIAN_POINT ( 'NONE',  ( 0.000000000000000000, 0.000000000000000000, 0.000000000000000000 ) ) ;
#286 = DIRECTION ( 'NONE',  ( -0.000000000000000000, -1.000000000000000000, -0.000000000000000000 ) ) ;
#287 =( NAMED_UNIT ( * ) PLANE_ANGLE_UNIT ( ) SI_UNIT ( $, .RADIAN. ) );
#288 = COLOUR_RGB ( '',1.000000000000000000, 0.000000000000000000, 0.000000000000000000 ) ;
#289 =( NAMED_UNIT ( * ) PLANE_ANGLE_UNIT ( ) SI_UNIT ( $, .RADIAN. ) );
#290 = ORIENTED_EDGE ( 'NONE', *, *, #170, .T. ) ;
#291 = SURFACE_SIDE_STYLE ('',( #354 ) ) ;
#292 = DIRECTION ( 'NONE',  ( 0.000000000000000000, 0.000000000000000000, -1.000000000000000000 ) ) ;
#293 = ORIENTED_EDGE ( 'NONE', *, *, #111, .T. ) ;
#294 =( NAMED_UNIT ( * ) PLANE_ANGLE_UNIT ( ) SI_UNIT ( $, .RADIAN. ) );
#295 =( GEOMETRIC_REPRESENTATION_CONTEXT ( 3 ) GLOBAL_UNCERTAINTY_ASSIGNED_CONTEXT ( ( #72 ) ) GLOBAL_UNIT_ASSIGNED_CONTEXT ( ( #370, #117, #83 ) ) REPRESENTATION_CONTEXT ( 'NONE', 'WORKASPACE' ) );
#296 = VERTEX_POINT ( 'NONE', #254 ) ;
#297 = ORIENTED_EDGE ( 'NONE', *, *, #7, .T. ) ;
#298 = STYLED_ITEM ( 'NONE', ( #80 ), #90 ) ;
#299 = DIRECTION ( 'NONE',  ( 0.000000000000000000, 1.000000000000000000, 0.000000000000000000 ) ) ;
#300 = PRODUCT_DEFINITION ( 'UNKNOWN', '', #30, #158 ) ;
#301 = UNCERTAINTY_MEASURE_WITH_UNIT (LENGTH_MEASURE( 1.000000000000000082E-05 ), #68, 'distance_accuracy_value', 'NONE');
#302 = SURFACE_STYLE_USAGE ( .BOTH. , #127 ) ;
#303 = ADVANCED_FACE ( 'NONE', ( #365 ), #336, .T. ) ;
#304 = CARTESIAN_POINT ( 'NONE',  ( 4.000000000000000000, 16.00000000000000000, 4.898587196589407898E-16 ) ) ;
#305 = COLOUR_RGB ( '',1.000000000000000000, 0.000000000000000000, 0.000000000000000000 ) ;
#306 = CYLINDRICAL_SURFACE ( 'NONE', #326, 4.000000000000000000 ) ;
#307 = AXIS2_PLACEMENT_3D ( 'NONE', #198, #310, #168 ) ;
#308 = FACE_OUTER_BOUND ( 'NONE', #8, .T. ) ;
#309 = CARTESIAN_POINT ( 'NONE',  ( 3.184081677783117402E-15, 63.00000000000000000, 0.000000000000000000 ) ) ;
#310 = DIRECTION ( 'NONE',  ( -0.000000000000000000, -1.000000000000000000, -0.000000000000000000 ) ) ;
#311 =( LENGTH_UNIT ( ) NAMED_UNIT ( * ) SI_UNIT ( .MILLI., .METRE. ) );
#312 = CARTESIAN_POINT ( 'NONE',  ( 4.898587196589412829E-16, 16.00000000000000000, 4.000000000000000000 ) ) ;
#313 = DIRECTION ( 'NONE',  ( -0.000000000000000000, -1.000000000000000000, -0.000000000000000000 ) ) ;
#314 = ADVANCED_FACE ( 'NONE', ( #206 ), #115, .T. ) ;
#315 = SURFACE_STYLE_FILL_AREA ( #144 ) ;
#316 = FILL_AREA_STYLE_COLOUR ( '', #288 ) ;
#317 = PRESENTATION_LAYER_ASSIGNMENT (  '', '', ( #175 ) ) ;
#318 = EDGE_LOOP ( 'NONE', ( #268, #69, #182, #63 ) ) ;
#319 = CARTESIAN_POINT ( 'NONE',  ( 5.854691731421723944E-15, 16.00000000000000000, 0.000000000000000000 ) ) ;
#320 = ADVANCED_BREP_SHAPE_REPRESENTATION ( '59538', ( #40, #166, #156 ), #95 ) ;
#321 = EDGE_LOOP ( 'NONE', ( #355, #235 ) ) ;
#322 = ORIENTED_EDGE ( 'NONE', *, *, #334, .F. ) ;
#323 = CIRCLE ( 'NONE', #139, 3.999999999999994227 ) ;
#324 = DIRECTION ( 'NONE',  ( 0.000000000000000000, 0.000000000000000000, -1.000000000000000000 ) ) ;
#325 = FILL_AREA_STYLE ('',( #107 ) ) ;
#326 = AXIS2_PLACEMENT_3D ( 'NONE', #215, #13, #324 ) ;
#327 = UNCERTAINTY_MEASURE_WITH_UNIT (LENGTH_MEASURE( 1.000000000000000082E-05 ), #1, 'distance_accuracy_value', 'NONE');
#328 = MECHANICAL_DESIGN_GEOMETRIC_PRESENTATION_REPRESENTATION (  '', ( #342 ), #195 ) ;
#329 = CARTESIAN_POINT ( 'NONE',  ( -3.999999999999988010, 16.00000000000000000, 0.000000000000000000 ) ) ;
#330 = DIRECTION ( 'NONE',  ( 0.000000000000000000, 0.000000000000000000, -1.000000000000000000 ) ) ;
#331 =( NAMED_UNIT ( * ) PLANE_ANGLE_UNIT ( ) SI_UNIT ( $, .RADIAN. ) );
#332 = FACE_OUTER_BOUND ( 'NONE', #321, .T. ) ;
#333 =( NAMED_UNIT ( * ) SI_UNIT ( $, .STERADIAN. ) SOLID_ANGLE_UNIT ( ) );
#334 = EDGE_CURVE ( 'NONE', #31, #9, #323, .T. ) ;
#335 = STYLED_ITEM ( 'NONE', ( #97 ), #166 ) ;
#336 = CYLINDRICAL_SURFACE ( 'NONE', #134, 4.000000000000000000 ) ;
#337 =( NAMED_UNIT ( * ) SI_UNIT ( $, .STERADIAN. ) SOLID_ANGLE_UNIT ( ) );
#338 = CARTESIAN_POINT ( 'NONE',  ( 0.000000000000000000, 0.000000000000000000, 0.000000000000000000 ) ) ;
#339 = EDGE_LOOP ( 'NONE', ( #262, #184, #65, #227 ) ) ;
#340 = COLOUR_RGB ( '',0.7921568627450980005, 0.8196078431372548767, 0.9333333333333333481 ) ;
#341 = VERTEX_POINT ( 'NONE', #151 ) ;
#342 = STYLED_ITEM ( 'NONE', ( #116 ), #303 ) ;
#343 = DIRECTION ( 'NONE',  ( 1.000000000000000000, 0.000000000000000000, 0.000000000000000000 ) ) ;
#344 = ORIENTED_EDGE ( 'NONE', *, *, #7, .F. ) ;
#345 = DIRECTION ( 'NONE',  ( -5.682149050294907483E-17, 1.000000000000000000, -0.000000000000000000 ) ) ;
#346 = ORIENTED_EDGE ( 'NONE', *, *, #170, .F. ) ;
#347 = EDGE_CURVE ( 'NONE', #296, #266, #162, .T. ) ;
#348 =( GEOMETRIC_REPRESENTATION_CONTEXT ( 3 ) GLOBAL_UNCERTAINTY_ASSIGNED_CONTEXT ( ( #112 ) ) GLOBAL_UNIT_ASSIGNED_CONTEXT ( ( #269, #160, #71 ) ) REPRESENTATION_CONTEXT ( 'NONE', 'WORKASPACE' ) );
#349 = PRESENTATION_LAYER_ASSIGNMENT (  '', '', ( #367 ) ) ;
#350 = CIRCLE ( 'NONE', #239, 4.000000000000000000 ) ;
#351 = CARTESIAN_POINT ( 'NONE',  ( 4.898587196589412829E-16, 0.5000000000000000000, 4.000000000000000000 ) ) ;
#352 = SURFACE_STYLE_USAGE ( .BOTH. , #121 ) ;
#353 = UNCERTAINTY_MEASURE_WITH_UNIT (LENGTH_MEASURE( 1.000000000000000082E-05 ), #311, 'distance_accuracy_value', 'NONE');
#354 = SURFACE_STYLE_FILL_AREA ( #240 ) ;
#355 = ORIENTED_EDGE ( 'NONE', *, *, #218, .T. ) ;
#356 = PRODUCT_DEFINITION_SHAPE ( 'NONE', 'NONE',  #300 ) ;
#357 = VECTOR ( 'NONE', #245, 1000.000000000000000 ) ;
#358 = CARTESIAN_POINT ( 'NONE',  ( 0.000000000000000000, 16.00000000000000000, -4.000000000000000000 ) ) ;
#359 = MECHANICAL_DESIGN_GEOMETRIC_PRESENTATION_REPRESENTATION (  '', ( #367 ), #176 ) ;
#360 = DIRECTION ( 'NONE',  ( -0.000000000000000000, -1.000000000000000000, -0.000000000000000000 ) ) ;
#361 = DIRECTION ( 'NONE',  ( -5.682149050294907483E-17, 1.000000000000000000, -0.000000000000000000 ) ) ;
#362 = ADVANCED_FACE ( 'NONE', ( #29 ), #118, .F. ) ;
#363 = CARTESIAN_POINT ( 'NONE',  ( 3.184081677783117402E-15, 63.00000000000000000, 0.000000000000000000 ) ) ;
#364 = APPLICATION_PROTOCOL_DEFINITION ( 'draft international standard', 'automotive_design', 1998, #52 ) ;
#365 = FACE_OUTER_BOUND ( 'NONE', #61, .T. ) ;
#366 = SURFACE_SIDE_STYLE ('',( #141 ) ) ;
#367 = STYLED_ITEM ( 'NONE', ( #270 ), #130 ) ;
#368 = AXIS2_PLACEMENT_3D ( 'NONE', #114, #34, #226 ) ;
#369 = SURFACE_STYLE_USAGE ( .BOTH. , #56 ) ;
#370 =( LENGTH_UNIT ( ) NAMED_UNIT ( * ) SI_UNIT ( .MILLI., .METRE. ) );
ENDSEC;
END-ISO-10303-21;
