ISO-10303-21;
HEADER;
FILE_DESCRIPTION (( 'STEP AP214' ),
    '1' );
FILE_NAME ('Micro_GEC-062-2-005.STEP',
    '2021-09-03T17:02:19',
    ( '' ),
    ( '' ),
    'SwSTEP 2.0',
    'SolidWorks 2020',
    '' );
FILE_SCHEMA (( 'AUTOMOTIVE_DESIGN' ));
ENDSEC;

DATA;
#1 = VERTEX_POINT ( 'NONE', #78 ) ;
#2 = CARTESIAN_POINT ( 'NONE',  ( -0.04750000000000064587, 0.0000000000000000000, 1.500000000000000222 ) ) ;
#3 = DIRECTION ( 'NONE',  ( -0.0000000000000000000, -0.0000000000000000000, -1.000000000000000000 ) ) ;
#4 = CARTESIAN_POINT ( 'NONE',  ( 6.123233995736768848E-19, 0.0000000000000000000, 0.005000000000000000104 ) ) ;
#5 = EDGE_CURVE ( 'NONE', #113, #1, #324, .T. ) ;
#6 = DIRECTION ( 'NONE',  ( -0.0000000000000000000, -0.0000000000000000000, -1.000000000000000000 ) ) ;
#7 = PRODUCT_RELATED_PRODUCT_CATEGORY ( 'part', '', ( #240 ) ) ;
#8 =( CONVERSION_BASED_UNIT ( 'INCH', #247 ) LENGTH_UNIT ( ) NAMED_UNIT ( #66 ) );
#9 = EDGE_CURVE ( 'NONE', #314, #317, #242, .T. ) ;
#10 = CONICAL_SURFACE ( 'NONE', #201, 0.03121875000000000691, 0.1745329251994338915 ) ;
#11 = CARTESIAN_POINT ( 'NONE',  ( 0.02621875000000000941, 0.0000000000000000000, 0.005000000000000000104 ) ) ;
#12 = CARTESIAN_POINT ( 'NONE',  ( 0.0000000000000000000, 0.0000000000000000000, 1.485000000000000764 ) ) ;
#13 = CIRCLE ( 'NONE', #75, 0.06250000000000002776 ) ;
#14 = ADVANCED_FACE ( 'NONE', ( #84 ), #69, .T. ) ;
#15 = PRESENTATION_LAYER_ASSIGNMENT (  '', '', ( #27 ) ) ;
#16 = SURFACE_SIDE_STYLE ('',( #283 ) ) ;
#17 = EDGE_CURVE ( 'NONE', #311, #259, #329, .T. ) ;
#18 = EDGE_LOOP ( 'NONE', ( #99, #341, #31, #182 ) ) ;
#19 = DIRECTION ( 'NONE',  ( 1.224646799147353700E-16, 0.0000000000000000000, 1.000000000000000000 ) ) ;
#20 = ORIENTED_EDGE ( 'NONE', *, *, #296, .T. ) ;
#21 = DIRECTION ( 'NONE',  ( 1.000000000000000000, 0.0000000000000000000, 0.0000000000000000000 ) ) ;
#22 = ORIENTED_EDGE ( 'NONE', *, *, #313, .T. ) ;
#23 = ORIENTED_EDGE ( 'NONE', *, *, #252, .T. ) ;
#24 =( NAMED_UNIT ( * ) SI_UNIT ( $, .STERADIAN. ) SOLID_ANGLE_UNIT ( ) );
#25 = ADVANCED_FACE ( 'NONE', ( #52 ), #276, .T. ) ;
#26 = PRODUCT_DEFINITION_SHAPE ( 'NONE', 'NONE',  #134 ) ;
#27 = STYLED_ITEM ( 'NONE', ( #271 ), #154 ) ;
#28 = LENGTH_MEASURE_WITH_UNIT ( LENGTH_MEASURE( 0.02539999999999999897 ), #202 );
#29 = ORIENTED_EDGE ( 'NONE', *, *, #167, .F. ) ;
#30 = DIRECTION ( 'NONE',  ( -1.224646799147353700E-16, -0.0000000000000000000, -1.000000000000000000 ) ) ;
#31 = ORIENTED_EDGE ( 'NONE', *, *, #197, .F. ) ;
#32 = ADVANCED_FACE ( 'NONE', ( #245 ), #330, .F. ) ;
#33 = CARTESIAN_POINT ( 'NONE',  ( 2.302335982397025094E-17, 0.0000000000000000000, 0.1880000000000000282 ) ) ;
#34 = AXIS2_PLACEMENT_3D ( 'NONE', #305, #258, #304 ) ;
#35 = MECHANICAL_DESIGN_GEOMETRIC_PRESENTATION_REPRESENTATION (  '', ( #27 ), #49 ) ;
#36 = DIRECTION ( 'NONE',  ( -1.224646799147353700E-16, -0.0000000000000000000, -1.000000000000000000 ) ) ;
#37 = ADVANCED_FACE ( 'NONE', ( #108 ), #327, .T. ) ;
#38 = AXIS2_PLACEMENT_3D ( 'NONE', #198, #121, #68 ) ;
#39 = ADVANCED_FACE ( 'NONE', ( #53 ), #157, .T. ) ;
#40 = CARTESIAN_POINT ( 'NONE',  ( 0.0000000000000000000, 0.0000000000000000000, 1.500000000000000222 ) ) ;
#41 = CARTESIAN_POINT ( 'NONE',  ( 2.302335982397025094E-17, 0.0000000000000000000, 0.1880000000000000282 ) ) ;
#42 = CARTESIAN_POINT ( 'NONE',  ( -0.06249999999999997918, 0.0000000000000000000, 0.3654047844199155848 ) ) ;
#43 = AXIS2_PLACEMENT_3D ( 'NONE', #131, #3, #83 ) ;
#44 = CIRCLE ( 'NONE', #267, 0.04750000000000064587 ) ;
#45 = ORIENTED_EDGE ( 'NONE', *, *, #135, .T. ) ;
#46 = CARTESIAN_POINT ( 'NONE',  ( 4.474917996329784544E-17, 0.0000000000000000000, 0.3654047844199155848 ) ) ;
#47 = DIRECTION ( 'NONE',  ( -1.000000000000000000, 0.0000000000000000000, 0.0000000000000000000 ) ) ;
#48 = ORIENTED_EDGE ( 'NONE', *, *, #17, .F. ) ;
#49 =( GEOMETRIC_REPRESENTATION_CONTEXT ( 3 ) GLOBAL_UNCERTAINTY_ASSIGNED_CONTEXT ( ( #219 ) ) GLOBAL_UNIT_ASSIGNED_CONTEXT ( ( #8, #142, #165 ) ) REPRESENTATION_CONTEXT ( 'NONE', 'WORKASPACE' ) );
#50 = VERTEX_POINT ( 'NONE', #57 ) ;
#51 = DIRECTION ( 'NONE',  ( -1.000000000000000000, 0.0000000000000000000, 0.0000000000000000000 ) ) ;
#52 = FACE_OUTER_BOUND ( 'NONE', #152, .T. ) ;
#53 = FACE_OUTER_BOUND ( 'NONE', #77, .T. ) ;
#54 = CARTESIAN_POINT ( 'NONE',  ( -0.06250000000000002776, 0.0000000000000000000, 1.500000000000000222 ) ) ;
#55 = ORIENTED_EDGE ( 'NONE', *, *, #64, .T. ) ;
#56 = FILL_AREA_STYLE ('',( #61 ) ) ;
#57 = CARTESIAN_POINT ( 'NONE',  ( -0.03121874999999998609, 5.738618360379552157E-18, 0.1880000000000000282 ) ) ;
#58 = PRODUCT_CONTEXT ( 'NONE', #161, 'mechanical' ) ;
#59 = ORIENTED_EDGE ( 'NONE', *, *, #212, .F. ) ;
#60 = AXIS2_PLACEMENT_3D ( 'NONE', #133, #275, #299 ) ;
#61 = FILL_AREA_STYLE_COLOUR ( '', #254 ) ;
#62 = CARTESIAN_POINT ( 'NONE',  ( -0.03121875000000000691, 0.0000000000000000000, 0.005000000000000000971 ) ) ;
#63 = AXIS2_PLACEMENT_3D ( 'NONE', #279, #225, #153 ) ;
#64 = EDGE_CURVE ( 'NONE', #314, #50, #318, .T. ) ;
#65 = CARTESIAN_POINT ( 'NONE',  ( -0.02621875000000000941, 3.517032526301306063E-18, 0.0000000000000000000 ) ) ;
#66 = DIMENSIONAL_EXPONENTS ( 1.000000000000000000, 0.0000000000000000000, 0.0000000000000000000, 0.0000000000000000000, 0.0000000000000000000, 0.0000000000000000000, 0.0000000000000000000 ) ;
#67 = CARTESIAN_POINT ( 'NONE',  ( 0.0000000000000000000, 0.0000000000000000000, 1.500000000000000222 ) ) ;
#68 = DIRECTION ( 'NONE',  ( 1.000000000000000000, 0.0000000000000000000, 0.0000000000000000000 ) ) ;
#69 = CONICAL_SURFACE ( 'NONE', #298, 0.03121875000000000691, 0.1745329251994338915 ) ;
#70 = CIRCLE ( 'NONE', #193, 0.03121875000000000691 ) ;
#71 = ADVANCED_FACE ( 'NONE', ( #218 ), #92, .T. ) ;
#72 = EDGE_LOOP ( 'NONE', ( #122, #80 ) ) ;
#73 = CARTESIAN_POINT ( 'NONE',  ( 0.0000000000000000000, 0.0000000000000000000, 1.500000000000000222 ) ) ;
#74 = CARTESIAN_POINT ( 'NONE',  ( -0.03121874999999998609, 3.823194226088144458E-18, 0.1880000000000000282 ) ) ;
#75 = AXIS2_PLACEMENT_3D ( 'NONE', #336, #119, #310 ) ;
#76 = ORIENTED_EDGE ( 'NONE', *, *, #313, .F. ) ;
#77 = EDGE_LOOP ( 'NONE', ( #48, #287, #348, #174 ) ) ;
#78 = CARTESIAN_POINT ( 'NONE',  ( 0.02621875000000000941, 0.0000000000000000000, 0.0000000000000000000 ) ) ;
#79 = LINE ( 'NONE', #2, #137 ) ;
#80 = ORIENTED_EDGE ( 'NONE', *, *, #5, .T. ) ;
#81 = UNCERTAINTY_MEASURE_WITH_UNIT (LENGTH_MEASURE( 1.000000000000000082E-05 ), #181, 'distance_accuracy_value', 'NONE');
#82 = SURFACE_STYLE_USAGE ( .BOTH. , #85 ) ;
#83 = DIRECTION ( 'NONE',  ( -1.000000000000000000, 0.0000000000000000000, 0.0000000000000000000 ) ) ;
#84 = FACE_OUTER_BOUND ( 'NONE', #177, .T. ) ;
#85 = SURFACE_SIDE_STYLE ('',( #112 ) ) ;
#86 = AXIS2_PLACEMENT_3D ( 'NONE', #171, #303, #280 ) ;
#87 = ADVANCED_FACE ( 'NONE', ( #180 ), #237, .T. ) ;
#88 = DIRECTION ( 'NONE',  ( 0.0000000000000000000, 0.0000000000000000000, -1.000000000000000000 ) ) ;
#89 = EDGE_CURVE ( 'NONE', #270, #311, #300, .T. ) ;
#90 = CARTESIAN_POINT ( 'NONE',  ( 0.04750000000000064587, 5.817072295950006528E-18, 1.500000000000000222 ) ) ;
#91 =( GEOMETRIC_REPRESENTATION_CONTEXT ( 3 ) GLOBAL_UNCERTAINTY_ASSIGNED_CONTEXT ( ( #81 ) ) GLOBAL_UNIT_ASSIGNED_CONTEXT ( ( #181, #238, #24 ) ) REPRESENTATION_CONTEXT ( 'NONE', 'WORKASPACE' ) );
#92 = CYLINDRICAL_SURFACE ( 'NONE', #63, 0.06250000000000002776 ) ;
#93 = DIRECTION ( 'NONE',  ( 0.7071067811865462405, 8.659560562354916834E-17, -0.7071067811865486830 ) ) ;
#94 = FACE_OUTER_BOUND ( 'NONE', #307, .T. ) ;
#95 = CARTESIAN_POINT ( 'NONE',  ( -0.02621875000000000941, 3.210870826514467669E-18, 0.005000000000000000104 ) ) ;
#96 = ORIENTED_EDGE ( 'NONE', *, *, #231, .F. ) ;
#97 = CARTESIAN_POINT ( 'NONE',  ( -0.06250000000000002776, 0.0000000000000000000, 1.485000000000000764 ) ) ;
#98 = ADVANCED_FACE ( 'NONE', ( #94 ), #175, .T. ) ;
#99 = ORIENTED_EDGE ( 'NONE', *, *, #335, .F. ) ;
#100 = ORIENTED_EDGE ( 'NONE', *, *, #332, .F. ) ;
#101 =( NAMED_UNIT ( * ) SI_UNIT ( $, .STERADIAN. ) SOLID_ANGLE_UNIT ( ) );
#102 = CIRCLE ( 'NONE', #334, 0.005000000000000000104 ) ;
#103 = ORIENTED_EDGE ( 'NONE', *, *, #114, .T. ) ;
#104 = CARTESIAN_POINT ( 'NONE',  ( 2.302335982397025094E-17, 0.0000000000000000000, 0.1880000000000000282 ) ) ;
#105 = ORIENTED_EDGE ( 'NONE', *, *, #296, .F. ) ;
#106 = CYLINDRICAL_SURFACE ( 'NONE', #301, 0.03121875000000000691 ) ;
#107 = EDGE_LOOP ( 'NONE', ( #284, #55, #262, #22 ) ) ;
#108 = FACE_OUTER_BOUND ( 'NONE', #233, .T. ) ;
#109 = AXIS2_PLACEMENT_3D ( 'NONE', #277, #338, #170 ) ;
#110 = EDGE_CURVE ( 'NONE', #311, #325, #13, .T. ) ;
#111 = CARTESIAN_POINT ( 'NONE',  ( 2.302335982397025094E-17, 0.0000000000000000000, 0.1880000000000000282 ) ) ;
#112 = SURFACE_STYLE_FILL_AREA ( #56 ) ;
#113 = VERTEX_POINT ( 'NONE', #65 ) ;
#114 = EDGE_CURVE ( 'NONE', #259, #215, #253, .T. ) ;
#115 = AXIS2_PLACEMENT_3D ( 'NONE', #295, #191, #246 ) ;
#116 = CONICAL_SURFACE ( 'NONE', #308, 0.04750000000000064587, 0.7853981633974466137 ) ;
#117 = DIRECTION ( 'NONE',  ( -1.224646799147353700E-16, -0.0000000000000000000, -1.000000000000000000 ) ) ;
#118 = AXIS2_PLACEMENT_3D ( 'NONE', #95, #199, #285 ) ;
#119 = DIRECTION ( 'NONE',  ( 0.0000000000000000000, 0.0000000000000000000, -1.000000000000000000 ) ) ;
#120 = DIRECTION ( 'NONE',  ( 1.000000000000000000, 0.0000000000000000000, -0.0000000000000000000 ) ) ;
#121 = DIRECTION ( 'NONE',  ( 0.0000000000000000000, 0.0000000000000000000, 1.000000000000000000 ) ) ;
#122 = ORIENTED_EDGE ( 'NONE', *, *, #212, .T. ) ;
#123 = LINE ( 'NONE', #249, #179 ) ;
#124 = ORIENTED_EDGE ( 'NONE', *, *, #164, .T. ) ;
#125 = CARTESIAN_POINT ( 'NONE',  ( 6.123233995736769811E-19, 0.0000000000000000000, 0.005000000000000000971 ) ) ;
#126 = ORIENTED_EDGE ( 'NONE', *, *, #5, .F. ) ;
#127 = DIRECTION ( 'NONE',  ( 0.0000000000000000000, 0.0000000000000000000, 1.000000000000000000 ) ) ;
#128 = AXIS2_PLACEMENT_3D ( 'NONE', #46, #256, #146 ) ;
#129 = DIRECTION ( 'NONE',  ( 1.000000000000000000, 0.0000000000000000000, 0.0000000000000000000 ) ) ;
#130 = FACE_OUTER_BOUND ( 'NONE', #322, .T. ) ;
#131 = CARTESIAN_POINT ( 'NONE',  ( 0.0000000000000000000, 0.0000000000000000000, 1.500000000000000222 ) ) ;
#132 = ORIENTED_EDGE ( 'NONE', *, *, #335, .T. ) ;
#133 = CARTESIAN_POINT ( 'NONE',  ( 0.0000000000000000000, 0.0000000000000000000, 0.0000000000000000000 ) ) ;
#134 = PRODUCT_DEFINITION ( 'UNKNOWN', '', #229, #217 ) ;
#135 = EDGE_CURVE ( 'NONE', #1, #317, #102, .T. ) ;
#136 = EDGE_LOOP ( 'NONE', ( #151, #349, #96, #200 ) ) ;
#137 = VECTOR ( 'NONE', #291, 39.37007874015748854 ) ;
#138 = CIRCLE ( 'NONE', #38, 0.04750000000000064587 ) ;
#139 = AXIS2_PLACEMENT_3D ( 'NONE', #125, #127, #234 ) ;
#140 = SHAPE_DEFINITION_REPRESENTATION ( #26, #154 ) ;
#141 = ORIENTED_EDGE ( 'NONE', *, *, #9, .T. ) ;
#142 =( NAMED_UNIT ( * ) PLANE_ANGLE_UNIT ( ) SI_UNIT ( $, .RADIAN. ) );
#143 = COLOUR_RGB ( '',0.7921568627450980005, 0.8196078431372548767, 0.9333333333333333481 ) ;
#144 = CARTESIAN_POINT ( 'NONE',  ( 4.474917996329784544E-17, 0.0000000000000000000, 0.3654047844199155848 ) ) ;
#145 = FILL_AREA_STYLE_COLOUR ( '', #143 ) ;
#146 = DIRECTION ( 'NONE',  ( 1.000000000000000000, 0.0000000000000000000, 0.0000000000000000000 ) ) ;
#147 = ORIENTED_EDGE ( 'NONE', *, *, #160, .F. ) ;
#148 = CARTESIAN_POINT ( 'NONE',  ( 0.06250000000000006939, 7.654042494670963708E-18, 0.3654047844199155848 ) ) ;
#149 =( LENGTH_UNIT ( ) NAMED_UNIT ( * ) SI_UNIT ( $, .METRE. ) );
#150 = CONICAL_SURFACE ( 'NONE', #306, 0.04750000000000064587, 0.7853981633974466137 ) ;
#151 = ORIENTED_EDGE ( 'NONE', *, *, #197, .T. ) ;
#152 = EDGE_LOOP ( 'NONE', ( #126, #189, #293, #203 ) ) ;
#153 = DIRECTION ( 'NONE',  ( -1.000000000000000000, 0.0000000000000000000, 0.0000000000000000000 ) ) ;
#154 = ADVANCED_BREP_SHAPE_REPRESENTATION ( 'Micro_GEC-062-2-005', ( #251, #60 ), #156 ) ;
#155 = AXIS2_PLACEMENT_3D ( 'NONE', #331, #290, #297 ) ;
#156 =( GEOMETRIC_REPRESENTATION_CONTEXT ( 3 ) GLOBAL_UNCERTAINTY_ASSIGNED_CONTEXT ( ( #346 ) ) GLOBAL_UNIT_ASSIGNED_CONTEXT ( ( #320, #263, #101 ) ) REPRESENTATION_CONTEXT ( 'NONE', 'WORKASPACE' ) );
#157 = CYLINDRICAL_SURFACE ( 'NONE', #43, 0.06250000000000002776 ) ;
#158 = DIRECTION ( 'NONE',  ( -0.0000000000000000000, -0.0000000000000000000, -1.000000000000000000 ) ) ;
#159 = EDGE_LOOP ( 'NONE', ( #176, #236, #23, #208 ) ) ;
#160 = EDGE_CURVE ( 'NONE', #50, #226, #123, .T. ) ;
#161 = APPLICATION_CONTEXT ( 'automotive_design' ) ;
#162 = ORIENTED_EDGE ( 'NONE', *, *, #169, .T. ) ;
#163 = CARTESIAN_POINT ( 'NONE',  ( 6.123233995736768848E-19, 0.0000000000000000000, 0.0000000000000000000 ) ) ;
#164 = EDGE_CURVE ( 'NONE', #317, #226, #235, .T. ) ;
#165 =( NAMED_UNIT ( * ) SI_UNIT ( $, .STERADIAN. ) SOLID_ANGLE_UNIT ( ) );
#166 = AXIS2_PLACEMENT_3D ( 'NONE', #163, #274, #129 ) ;
#167 = EDGE_CURVE ( 'NONE', #113, #226, #273, .T. ) ;
#168 = FACE_OUTER_BOUND ( 'NONE', #257, .T. ) ;
#169 = EDGE_CURVE ( 'NONE', #337, #270, #138, .T. ) ;
#170 = DIRECTION ( 'NONE',  ( -1.000000000000000000, 0.0000000000000000000, 1.224646799147353700E-16 ) ) ;
#171 = CARTESIAN_POINT ( 'NONE',  ( 6.123233995736768848E-19, 0.0000000000000000000, 0.0000000000000000000 ) ) ;
#172 = STYLED_ITEM ( 'NONE', ( #222 ), #251 ) ;
#173 = DIRECTION ( 'NONE',  ( 0.0000000000000000000, 0.0000000000000000000, 1.000000000000000000 ) ) ;
#174 = ORIENTED_EDGE ( 'NONE', *, *, #114, .F. ) ;
#175 = PLANE ( 'NONE',  #350 ) ;
#176 = ORIENTED_EDGE ( 'NONE', *, *, #89, .F. ) ;
#177 = EDGE_LOOP ( 'NONE', ( #213, #188, #20, #103 ) ) ;
#178 = CARTESIAN_POINT ( 'NONE',  ( 0.03121875000000002773, 0.0000000000000000000, 0.1880000000000000282 ) ) ;
#179 = VECTOR ( 'NONE', #278, 39.37007874015748143 ) ;
#180 = FACE_OUTER_BOUND ( 'NONE', #107, .T. ) ;
#181 =( CONVERSION_BASED_UNIT ( 'INCH', #28 ) LENGTH_UNIT ( ) NAMED_UNIT ( #302 ) );
#182 = ORIENTED_EDGE ( 'NONE', *, *, #252, .F. ) ;
#183 = CARTESIAN_POINT ( 'NONE',  ( 0.0000000000000000000, 0.0000000000000000000, 0.0000000000000000000 ) ) ;
#184 = CARTESIAN_POINT ( 'NONE',  ( 0.06250000000000002776, 7.654042494670959086E-18, 1.500000000000000222 ) ) ;
#185 = LINE ( 'NONE', #54, #319 ) ;
#186 = VECTOR ( 'NONE', #93, 39.37007874015748854 ) ;
#187 = VECTOR ( 'NONE', #260, 39.37007874015747433 ) ;
#188 = ORIENTED_EDGE ( 'NONE', *, *, #64, .F. ) ;
#189 = ORIENTED_EDGE ( 'NONE', *, *, #167, .T. ) ;
#190 = ADVANCED_FACE ( 'NONE', ( #196 ), #150, .T. ) ;
#191 = DIRECTION ( 'NONE',  ( 0.0000000000000000000, 0.0000000000000000000, 1.000000000000000000 ) ) ;
#192 = AXIS2_PLACEMENT_3D ( 'NONE', #12, #88, #221 ) ;
#193 = AXIS2_PLACEMENT_3D ( 'NONE', #104, #30, #51 ) ;
#194 = DIRECTION ( 'NONE',  ( 0.0000000000000000000, 0.0000000000000000000, -1.000000000000000000 ) ) ;
#195 = CIRCLE ( 'NONE', #86, 0.02621875000000000941 ) ;
#196 = FACE_OUTER_BOUND ( 'NONE', #159, .T. ) ;
#197 = EDGE_CURVE ( 'NONE', #325, #311, #248, .T. ) ;
#198 = CARTESIAN_POINT ( 'NONE',  ( 0.0000000000000000000, 0.0000000000000000000, 1.500000000000000222 ) ) ;
#199 = DIRECTION ( 'NONE',  ( 1.224646799147353207E-16, 1.000000000000000000, -0.0000000000000000000 ) ) ;
#200 = ORIENTED_EDGE ( 'NONE', *, *, #321, .F. ) ;
#201 = AXIS2_PLACEMENT_3D ( 'NONE', #41, #19, #21 ) ;
#202 =( LENGTH_UNIT ( ) NAMED_UNIT ( * ) SI_UNIT ( $, .METRE. ) );
#203 = ORIENTED_EDGE ( 'NONE', *, *, #135, .F. ) ;
#204 = CARTESIAN_POINT ( 'NONE',  ( 0.0000000000000000000, 0.0000000000000000000, 1.500000000000000222 ) ) ;
#205 = ORIENTED_EDGE ( 'NONE', *, *, #332, .T. ) ;
#206 = CARTESIAN_POINT ( 'NONE',  ( -0.04750000000000064587, 0.0000000000000000000, 1.500000000000000222 ) ) ;
#207 = AXIS2_PLACEMENT_3D ( 'NONE', #4, #210, #216 ) ;
#208 = ORIENTED_EDGE ( 'NONE', *, *, #110, .F. ) ;
#209 = DIRECTION ( 'NONE',  ( 0.0000000000000000000, 0.0000000000000000000, -1.000000000000000000 ) ) ;
#210 = DIRECTION ( 'NONE',  ( 0.0000000000000000000, 0.0000000000000000000, 1.000000000000000000 ) ) ;
#211 = CARTESIAN_POINT ( 'NONE',  ( 0.04750000000000064587, 6.735557395310483192E-18, 1.500000000000000222 ) ) ;
#212 = EDGE_CURVE ( 'NONE', #1, #113, #195, .T. ) ;
#213 = ORIENTED_EDGE ( 'NONE', *, *, #328, .F. ) ;
#214 = VECTOR ( 'NONE', #6, 39.37007874015748143 ) ;
#215 = VERTEX_POINT ( 'NONE', #42 ) ;
#216 = DIRECTION ( 'NONE',  ( 1.000000000000000000, 0.0000000000000000000, 0.0000000000000000000 ) ) ;
#217 = PRODUCT_DEFINITION_CONTEXT ( 'detailed design', #309, 'design' ) ;
#218 = FACE_OUTER_BOUND ( 'NONE', #136, .T. ) ;
#219 = UNCERTAINTY_MEASURE_WITH_UNIT (LENGTH_MEASURE( 1.000000000000000082E-05 ), #8, 'distance_accuracy_value', 'NONE');
#220 = DIRECTION ( 'NONE',  ( 0.0000000000000000000, 0.0000000000000000000, -1.000000000000000000 ) ) ;
#221 = DIRECTION ( 'NONE',  ( 1.000000000000000000, 0.0000000000000000000, 0.0000000000000000000 ) ) ;
#222 = PRESENTATION_STYLE_ASSIGNMENT (( #224 ) ) ;
#223 = CLOSED_SHELL ( 'NONE', ( #25, #261, #243, #339, #71, #39, #98, #190, #14, #87, #32, #37 ) ) ;
#224 = SURFACE_STYLE_USAGE ( .BOTH. , #16 ) ;
#225 = DIRECTION ( 'NONE',  ( -0.0000000000000000000, -0.0000000000000000000, -1.000000000000000000 ) ) ;
#226 = VERTEX_POINT ( 'NONE', #62 ) ;
#227 = MECHANICAL_DESIGN_GEOMETRIC_PRESENTATION_REPRESENTATION (  '', ( #172 ), #91 ) ;
#228 = DIRECTION ( 'NONE',  ( 0.0000000000000000000, -1.000000000000000000, 0.0000000000000000000 ) ) ;
#229 = PRODUCT_DEFINITION_FORMATION_WITH_SPECIFIED_SOURCE ( 'ANY', '', #240, .NOT_KNOWN. ) ;
#230 = DIRECTION ( 'NONE',  ( 0.0000000000000000000, 0.0000000000000000000, 1.000000000000000000 ) ) ;
#231 = EDGE_CURVE ( 'NONE', #215, #259, #292, .T. ) ;
#232 = DIRECTION ( 'NONE',  ( -1.000000000000000000, 0.0000000000000000000, 1.224646799147353700E-16 ) ) ;
#233 = EDGE_LOOP ( 'NONE', ( #29, #59, #45, #76 ) ) ;
#234 = DIRECTION ( 'NONE',  ( 1.000000000000000000, 0.0000000000000000000, 0.0000000000000000000 ) ) ;
#235 = CIRCLE ( 'NONE', #34, 0.03121875000000000691 ) ;
#236 = ORIENTED_EDGE ( 'NONE', *, *, #169, .F. ) ;
#237 = CYLINDRICAL_SURFACE ( 'NONE', #109, 0.03121875000000000691 ) ;
#238 =( NAMED_UNIT ( * ) PLANE_ANGLE_UNIT ( ) SI_UNIT ( $, .RADIAN. ) );
#239 = DIRECTION ( 'NONE',  ( -1.224646799147353700E-16, -0.0000000000000000000, -1.000000000000000000 ) ) ;
#240 = PRODUCT ( 'Micro_GEC-062-2-005', 'Micro_GEC-062-2-005', '', ( #58 ) ) ;
#241 = APPLICATION_PROTOCOL_DEFINITION ( 'draft international standard', 'automotive_design', 1998, #161 ) ;
#242 = LINE ( 'NONE', #268, #315 ) ;
#243 = ADVANCED_FACE ( 'NONE', ( #168 ), #10, .T. ) ;
#244 = CIRCLE ( 'NONE', #139, 0.03121875000000000691 ) ;
#245 = FACE_OUTER_BOUND ( 'NONE', #72, .T. ) ;
#246 = DIRECTION ( 'NONE',  ( 1.000000000000000000, 0.0000000000000000000, -0.0000000000000000000 ) ) ;
#247 = LENGTH_MEASURE_WITH_UNIT ( LENGTH_MEASURE( 0.02539999999999999897 ), #326 );
#248 = CIRCLE ( 'NONE', #192, 0.06250000000000002776 ) ;
#249 = CARTESIAN_POINT ( 'NONE',  ( -0.03121875000000000691, 0.0000000000000000000, 3.823194226088145998E-18 ) ) ;
#250 = DIRECTION ( 'NONE',  ( 1.000000000000000000, 0.0000000000000000000, 0.0000000000000000000 ) ) ;
#251 = MANIFOLD_SOLID_BREP ( 'Fillet1', #223 ) ;
#252 = EDGE_CURVE ( 'NONE', #337, #325, #79, .T. ) ;
#253 = CIRCLE ( 'NONE', #281, 0.06250000000000002776 ) ;
#254 = COLOUR_RGB ( '',0.7921568627450980005, 0.8196078431372548767, 0.9333333333333333481 ) ;
#255 = FILL_AREA_STYLE ('',( #145 ) ) ;
#256 = DIRECTION ( 'NONE',  ( -1.224646799147353700E-16, -0.0000000000000000000, -1.000000000000000000 ) ) ;
#257 = EDGE_LOOP ( 'NONE', ( #100, #282, #345, #105 ) ) ;
#258 = DIRECTION ( 'NONE',  ( 0.0000000000000000000, 0.0000000000000000000, 1.000000000000000000 ) ) ;
#259 = VERTEX_POINT ( 'NONE', #148 ) ;
#260 = DIRECTION ( 'NONE',  ( -0.1736481776669311916, 2.126576849575783316E-17, 0.9848077530122080203 ) ) ;
#261 = ADVANCED_FACE ( 'NONE', ( #130 ), #106, .T. ) ;
#262 = ORIENTED_EDGE ( 'NONE', *, *, #160, .T. ) ;
#263 =( NAMED_UNIT ( * ) PLANE_ANGLE_UNIT ( ) SI_UNIT ( $, .RADIAN. ) );
#264 = DIRECTION ( 'NONE',  ( 1.000000000000000000, 0.0000000000000000000, 0.0000000000000000000 ) ) ;
#265 = DIRECTION ( 'NONE',  ( 0.1736481776669313859, 0.0000000000000000000, 0.9848077530122077983 ) ) ;
#266 = AXIS2_PLACEMENT_3D ( 'NONE', #33, #239, #272 ) ;
#267 = AXIS2_PLACEMENT_3D ( 'NONE', #204, #230, #312 ) ;
#268 = CARTESIAN_POINT ( 'NONE',  ( 0.03121875000000000691, 3.823194226088144458E-18, -3.823194226088145998E-18 ) ) ;
#269 = LINE ( 'NONE', #74, #187 ) ;
#270 = VERTEX_POINT ( 'NONE', #211 ) ;
#271 = PRESENTATION_STYLE_ASSIGNMENT (( #82 ) ) ;
#272 = DIRECTION ( 'NONE',  ( -1.000000000000000000, 0.0000000000000000000, 0.0000000000000000000 ) ) ;
#273 = CIRCLE ( 'NONE', #118, 0.004999999999999997502 ) ;
#274 = DIRECTION ( 'NONE',  ( -0.0000000000000000000, -0.0000000000000000000, -1.000000000000000000 ) ) ;
#275 = DIRECTION ( 'NONE',  ( 0.0000000000000000000, 0.0000000000000000000, 1.000000000000000000 ) ) ;
#276 = TOROIDAL_SURFACE ( 'NONE', #207, 0.02621875000000000941, 0.005000000000000000104 ) ;
#277 = CARTESIAN_POINT ( 'NONE',  ( 0.0000000000000000000, 0.0000000000000000000, 0.0000000000000000000 ) ) ;
#278 = DIRECTION ( 'NONE',  ( -1.224646799147353700E-16, -0.0000000000000000000, -1.000000000000000000 ) ) ;
#279 = CARTESIAN_POINT ( 'NONE',  ( 0.0000000000000000000, 0.0000000000000000000, 1.500000000000000222 ) ) ;
#280 = DIRECTION ( 'NONE',  ( 1.000000000000000000, 0.0000000000000000000, 0.0000000000000000000 ) ) ;
#281 = AXIS2_PLACEMENT_3D ( 'NONE', #144, #117, #250 ) ;
#282 = ORIENTED_EDGE ( 'NONE', *, *, #328, .T. ) ;
#283 = SURFACE_STYLE_FILL_AREA ( #255 ) ;
#284 = ORIENTED_EDGE ( 'NONE', *, *, #9, .F. ) ;
#285 = DIRECTION ( 'NONE',  ( -1.000000000000000000, 1.224646799147353947E-16, 0.0000000000000000000 ) ) ;
#286 = FACE_OUTER_BOUND ( 'NONE', #18, .T. ) ;
#287 = ORIENTED_EDGE ( 'NONE', *, *, #110, .T. ) ;
#288 = LINE ( 'NONE', #351, #342 ) ;
#289 = DIRECTION ( 'NONE',  ( 1.224646799147353700E-16, 0.0000000000000000000, 1.000000000000000000 ) ) ;
#290 = DIRECTION ( 'NONE',  ( 0.0000000000000000000, 0.0000000000000000000, 1.000000000000000000 ) ) ;
#291 = DIRECTION ( 'NONE',  ( -0.7071067811865462405, 0.0000000000000000000, -0.7071067811865486830 ) ) ;
#292 = CIRCLE ( 'NONE', #128, 0.06250000000000002776 ) ;
#293 = ORIENTED_EDGE ( 'NONE', *, *, #164, .F. ) ;
#294 = APPLICATION_PROTOCOL_DEFINITION ( 'draft international standard', 'automotive_design', 1998, #309 ) ;
#295 = CARTESIAN_POINT ( 'NONE',  ( 0.0000000000000000000, 0.0000000000000000000, 0.0000000000000000000 ) ) ;
#296 = EDGE_CURVE ( 'NONE', #314, #259, #288, .T. ) ;
#297 = DIRECTION ( 'NONE',  ( 1.000000000000000000, 0.0000000000000000000, 0.0000000000000000000 ) ) ;
#298 = AXIS2_PLACEMENT_3D ( 'NONE', #111, #289, #264 ) ;
#299 = DIRECTION ( 'NONE',  ( 1.000000000000000000, 0.0000000000000000000, 0.0000000000000000000 ) ) ;
#300 = LINE ( 'NONE', #90, #186 ) ;
#301 = AXIS2_PLACEMENT_3D ( 'NONE', #183, #343, #232 ) ;
#302 = DIMENSIONAL_EXPONENTS ( 1.000000000000000000, 0.0000000000000000000, 0.0000000000000000000, 0.0000000000000000000, 0.0000000000000000000, 0.0000000000000000000, 0.0000000000000000000 ) ;
#303 = DIRECTION ( 'NONE',  ( -0.0000000000000000000, -0.0000000000000000000, -1.000000000000000000 ) ) ;
#304 = DIRECTION ( 'NONE',  ( 1.000000000000000000, 0.0000000000000000000, 0.0000000000000000000 ) ) ;
#305 = CARTESIAN_POINT ( 'NONE',  ( 6.123233995736769811E-19, 0.0000000000000000000, 0.005000000000000000971 ) ) ;
#306 = AXIS2_PLACEMENT_3D ( 'NONE', #67, #194, #333 ) ;
#307 = EDGE_LOOP ( 'NONE', ( #162, #132 ) ) ;
#308 = AXIS2_PLACEMENT_3D ( 'NONE', #73, #209, #47 ) ;
#309 = APPLICATION_CONTEXT ( 'automotive_design' ) ;
#310 = DIRECTION ( 'NONE',  ( 1.000000000000000000, 0.0000000000000000000, 0.0000000000000000000 ) ) ;
#311 = VERTEX_POINT ( 'NONE', #316 ) ;
#312 = DIRECTION ( 'NONE',  ( 1.000000000000000000, 0.0000000000000000000, 0.0000000000000000000 ) ) ;
#313 = EDGE_CURVE ( 'NONE', #226, #317, #244, .T. ) ;
#314 = VERTEX_POINT ( 'NONE', #178 ) ;
#315 = VECTOR ( 'NONE', #36, 39.37007874015748143 ) ;
#316 = CARTESIAN_POINT ( 'NONE',  ( 0.06250000000000002776, 7.654042494670959086E-18, 1.485000000000000764 ) ) ;
#317 = VERTEX_POINT ( 'NONE', #323 ) ;
#318 = CIRCLE ( 'NONE', #266, 0.03121875000000000691 ) ;
#319 = VECTOR ( 'NONE', #158, 39.37007874015748143 ) ;
#320 =( CONVERSION_BASED_UNIT ( 'INCH', #347 ) LENGTH_UNIT ( ) NAMED_UNIT ( #344 ) );
#321 = EDGE_CURVE ( 'NONE', #325, #215, #185, .T. ) ;
#322 = EDGE_LOOP ( 'NONE', ( #205, #141, #124, #147 ) ) ;
#323 = CARTESIAN_POINT ( 'NONE',  ( 0.03121875000000000691, 3.823194226088144458E-18, 0.005000000000000000971 ) ) ;
#324 = CIRCLE ( 'NONE', #166, 0.02621875000000000941 ) ;
#325 = VERTEX_POINT ( 'NONE', #97 ) ;
#326 =( LENGTH_UNIT ( ) NAMED_UNIT ( * ) SI_UNIT ( $, .METRE. ) );
#327 = TOROIDAL_SURFACE ( 'NONE', #155, 0.02621875000000000941, 0.005000000000000000104 ) ;
#328 = EDGE_CURVE ( 'NONE', #50, #215, #269, .T. ) ;
#329 = LINE ( 'NONE', #184, #214 ) ;
#330 = PLANE ( 'NONE',  #115 ) ;
#331 = CARTESIAN_POINT ( 'NONE',  ( 6.123233995736768848E-19, 0.0000000000000000000, 0.005000000000000000104 ) ) ;
#332 = EDGE_CURVE ( 'NONE', #50, #314, #70, .T. ) ;
#333 = DIRECTION ( 'NONE',  ( -1.000000000000000000, 0.0000000000000000000, 0.0000000000000000000 ) ) ;
#334 = AXIS2_PLACEMENT_3D ( 'NONE', #11, #228, #220 ) ;
#335 = EDGE_CURVE ( 'NONE', #270, #337, #44, .T. ) ;
#336 = CARTESIAN_POINT ( 'NONE',  ( 0.0000000000000000000, 0.0000000000000000000, 1.485000000000000764 ) ) ;
#337 = VERTEX_POINT ( 'NONE', #206 ) ;
#338 = DIRECTION ( 'NONE',  ( -1.224646799147353700E-16, -0.0000000000000000000, -1.000000000000000000 ) ) ;
#339 = ADVANCED_FACE ( 'NONE', ( #286 ), #116, .T. ) ;
#340 = PRESENTATION_LAYER_ASSIGNMENT (  '', '', ( #172 ) ) ;
#341 = ORIENTED_EDGE ( 'NONE', *, *, #89, .T. ) ;
#342 = VECTOR ( 'NONE', #265, 39.37007874015748143 ) ;
#343 = DIRECTION ( 'NONE',  ( -1.224646799147353700E-16, -0.0000000000000000000, -1.000000000000000000 ) ) ;
#344 = DIMENSIONAL_EXPONENTS ( 1.000000000000000000, 0.0000000000000000000, 0.0000000000000000000, 0.0000000000000000000, 0.0000000000000000000, 0.0000000000000000000, 0.0000000000000000000 ) ;
#345 = ORIENTED_EDGE ( 'NONE', *, *, #231, .T. ) ;
#346 = UNCERTAINTY_MEASURE_WITH_UNIT (LENGTH_MEASURE( 1.000000000000000082E-05 ), #320, 'distance_accuracy_value', 'NONE');
#347 = LENGTH_MEASURE_WITH_UNIT ( LENGTH_MEASURE( 0.02539999999999999897 ), #149 );
#348 = ORIENTED_EDGE ( 'NONE', *, *, #321, .T. ) ;
#349 = ORIENTED_EDGE ( 'NONE', *, *, #17, .T. ) ;
#350 = AXIS2_PLACEMENT_3D ( 'NONE', #40, #173, #120 ) ;
#351 = CARTESIAN_POINT ( 'NONE',  ( 0.03121875000000002773, 0.0000000000000000000, 0.1880000000000000282 ) ) ;
ENDSEC;
END-ISO-10303-21;
