ISO-10303-21;
HEADER;
FILE_DESCRIPTION (( 'STEP AP214' ),
    '1' );
FILE_NAME ('Micro_GEM-125-3.STEP',
    '2021-09-01T19:34:53',
    ( '' ),
    ( '' ),
    'SwSTEP 2.0',
    'SolidWorks 2020',
    '' );
FILE_SCHEMA (( 'AUTOMOTIVE_DESIGN' ));
ENDSEC;

DATA;
#1 = SURFACE_STYLE_FILL_AREA ( #64 ) ;
#2 = PLANE ( 'NONE',  #283 ) ;
#3 = CARTESIAN_POINT ( 'NONE',  ( 0.0000000000000000000, 0.0000000000000000000, 1.500000000000000222 ) ) ;
#4 = AXIS2_PLACEMENT_3D ( 'NONE', #148, #247, #198 ) ;
#5 = EDGE_CURVE ( 'NONE', #153, #39, #205, .T. ) ;
#6 = DIRECTION ( 'NONE',  ( -1.000000000000000000, 0.0000000000000000000, 0.0000000000000000000 ) ) ;
#7 = SURFACE_STYLE_FILL_AREA ( #210 ) ;
#8 = LENGTH_MEASURE_WITH_UNIT ( LENGTH_MEASURE( 0.02539999999999999897 ), #238 );
#9 = ORIENTED_EDGE ( 'NONE', *, *, #266, .F. ) ;
#10 = DIRECTION ( 'NONE',  ( -1.224646799147353700E-16, -0.0000000000000000000, -1.000000000000000000 ) ) ;
#11 = VECTOR ( 'NONE', #53, 39.37007874015748143 ) ;
#12 = EDGE_LOOP ( 'NONE', ( #291, #107 ) ) ;
#13 = ORIENTED_EDGE ( 'NONE', *, *, #250, .F. ) ;
#14 = EDGE_LOOP ( 'NONE', ( #295, #30, #131, #169 ) ) ;
#15 = VECTOR ( 'NONE', #185, 39.37007874015748854 ) ;
#16 = DIRECTION ( 'NONE',  ( -1.000000000000000000, 0.0000000000000000000, 1.224646799147353947E-16 ) ) ;
#17 = DIRECTION ( 'NONE',  ( 1.000000000000000000, 0.0000000000000000000, 0.0000000000000000000 ) ) ;
#18 = DIRECTION ( 'NONE',  ( -1.000000000000000000, 0.0000000000000000000, 1.224646799147353947E-16 ) ) ;
#19 = AXIS2_PLACEMENT_3D ( 'NONE', #150, #197, #16 ) ;
#20 = PRODUCT_DEFINITION_FORMATION_WITH_SPECIFIED_SOURCE ( 'ANY', '', #293, .NOT_KNOWN. ) ;
#21 = EDGE_CURVE ( 'NONE', #32, #213, #161, .T. ) ;
#22 = DIRECTION ( 'NONE',  ( -1.000000000000000000, 0.0000000000000000000, 1.224646799147353947E-16 ) ) ;
#23 = CARTESIAN_POINT ( 'NONE',  ( 9.364125142994982608E-34, 0.0000000000000000000, 7.646388452176290456E-18 ) ) ;
#24 = LINE ( 'NONE', #200, #15 ) ;
#25 = APPLICATION_CONTEXT ( 'automotive_design' ) ;
#26 = AXIS2_PLACEMENT_3D ( 'NONE', #111, #87, #292 ) ;
#27 = ADVANCED_BREP_SHAPE_REPRESENTATION ( 'Micro_GEM-125-3', ( #225, #4 ), #113 ) ;
#28 = CARTESIAN_POINT ( 'NONE',  ( 0.0000000000000000000, 0.0000000000000000000, 1.500000000000000222 ) ) ;
#29 = ORIENTED_EDGE ( 'NONE', *, *, #240, .F. ) ;
#30 = ORIENTED_EDGE ( 'NONE', *, *, #183, .T. ) ;
#31 = FACE_OUTER_BOUND ( 'NONE', #14, .T. ) ;
#32 = VERTEX_POINT ( 'NONE', #82 ) ;
#33 = AXIS2_PLACEMENT_3D ( 'NONE', #3, #277, #6 ) ;
#34 = ORIENTED_EDGE ( 'NONE', *, *, #106, .T. ) ;
#35 = DIRECTION ( 'NONE',  ( -1.224646799147353700E-16, -0.0000000000000000000, -1.000000000000000000 ) ) ;
#36 = CLOSED_SHELL ( 'NONE', ( #47, #211, #258, #40, #272, #147, #138, #75, #126, #130 ) ) ;
#37 = ORIENTED_EDGE ( 'NONE', *, *, #155, .F. ) ;
#38 = CARTESIAN_POINT ( 'NONE',  ( -0.06243749999999994443, 7.646388452176287375E-18, 0.5000000000000000000 ) ) ;
#39 = VERTEX_POINT ( 'NONE', #60 ) ;
#40 = ADVANCED_FACE ( 'NONE', ( #268 ), #104, .T. ) ;
#41 = FACE_OUTER_BOUND ( 'NONE', #234, .T. ) ;
#42 = CIRCLE ( 'NONE', #212, 0.06250000000000002776 ) ;
#43 = MECHANICAL_DESIGN_GEOMETRIC_PRESENTATION_REPRESENTATION (  '', ( #144 ), #253 ) ;
#44 = DIRECTION ( 'NONE',  ( -1.224646799147353700E-16, -0.0000000000000000000, -1.000000000000000000 ) ) ;
#45 = DIRECTION ( 'NONE',  ( 1.000000000000000000, 0.0000000000000000000, 0.0000000000000000000 ) ) ;
#46 = DIRECTION ( 'NONE',  ( 1.000000000000000000, 0.0000000000000000000, -0.0000000000000000000 ) ) ;
#47 = ADVANCED_FACE ( 'NONE', ( #59 ), #294, .T. ) ;
#48 = CARTESIAN_POINT ( 'NONE',  ( 0.0000000000000000000, 0.0000000000000000000, 1.500000000000000222 ) ) ;
#49 = EDGE_LOOP ( 'NONE', ( #129, #171, #175, #261 ) ) ;
#50 = DIRECTION ( 'NONE',  ( 1.000000000000000000, 0.0000000000000000000, 0.0000000000000000000 ) ) ;
#51 = ORIENTED_EDGE ( 'NONE', *, *, #266, .T. ) ;
#52 = CONICAL_SURFACE ( 'NONE', #262, 0.06243749999999999994, 0.1745329251994337527 ) ;
#53 = DIRECTION ( 'NONE',  ( -0.0000000000000000000, -0.0000000000000000000, -1.000000000000000000 ) ) ;
#54 = EDGE_CURVE ( 'NONE', #213, #32, #182, .T. ) ;
#55 = UNCERTAINTY_MEASURE_WITH_UNIT (LENGTH_MEASURE( 1.000000000000000082E-05 ), #259, 'distance_accuracy_value', 'NONE');
#56 = CARTESIAN_POINT ( 'NONE',  ( 0.0000000000000000000, 0.0000000000000000000, 1.485000000000000764 ) ) ;
#57 = AXIS2_PLACEMENT_3D ( 'NONE', #172, #244, #17 ) ;
#58 = ORIENTED_EDGE ( 'NONE', *, *, #88, .F. ) ;
#59 = FACE_OUTER_BOUND ( 'NONE', #248, .T. ) ;
#60 = CARTESIAN_POINT ( 'NONE',  ( 0.06243749999999999994, 7.646388452176287375E-18, 0.0000000000000000000 ) ) ;
#61 = DIMENSIONAL_EXPONENTS ( 1.000000000000000000, 0.0000000000000000000, 0.0000000000000000000, 0.0000000000000000000, 0.0000000000000000000, 0.0000000000000000000, 0.0000000000000000000 ) ;
#62 = CIRCLE ( 'NONE', #83, 0.06243749999999999994 ) ;
#63 = LINE ( 'NONE', #38, #288 ) ;
#64 = FILL_AREA_STYLE ('',( #90 ) ) ;
#65 = DIMENSIONAL_EXPONENTS ( 1.000000000000000000, 0.0000000000000000000, 0.0000000000000000000, 0.0000000000000000000, 0.0000000000000000000, 0.0000000000000000000, 0.0000000000000000000 ) ;
#66 = CARTESIAN_POINT ( 'NONE',  ( 0.04750000000000064587, 5.817072295950006528E-18, 1.500000000000000222 ) ) ;
#67 = CONICAL_SURFACE ( 'NONE', #242, 0.04750000000000064587, 0.7853981633974466137 ) ;
#68 = CARTESIAN_POINT ( 'NONE',  ( -0.06249999999999996531, 0.0000000000000000000, 0.5003544551137262264 ) ) ;
#69 = DIRECTION ( 'NONE',  ( 1.000000000000000000, 0.0000000000000000000, 0.0000000000000000000 ) ) ;
#70 = PRESENTATION_STYLE_ASSIGNMENT (( #282 ) ) ;
#71 = EDGE_CURVE ( 'NONE', #287, #73, #116, .T. ) ;
#72 = DIRECTION ( 'NONE',  ( -1.000000000000000000, 0.0000000000000000000, 0.0000000000000000000 ) ) ;
#73 = VERTEX_POINT ( 'NONE', #110 ) ;
#74 =( LENGTH_UNIT ( ) NAMED_UNIT ( * ) SI_UNIT ( $, .METRE. ) );
#75 = ADVANCED_FACE ( 'NONE', ( #297 ), #52, .T. ) ;
#76 = ORIENTED_EDGE ( 'NONE', *, *, #54, .F. ) ;
#77 = PRESENTATION_LAYER_ASSIGNMENT (  '', '', ( #144 ) ) ;
#78 = PRODUCT_DEFINITION_CONTEXT ( 'detailed design', #267, 'design' ) ;
#79 =( NAMED_UNIT ( * ) SI_UNIT ( $, .STERADIAN. ) SOLID_ANGLE_UNIT ( ) );
#80 = VERTEX_POINT ( 'NONE', #273 ) ;
#81 = CARTESIAN_POINT ( 'NONE',  ( 6.127574818941430966E-17, 0.0000000000000000000, 0.5003544551137262264 ) ) ;
#82 = CARTESIAN_POINT ( 'NONE',  ( -0.06250000000000002776, 0.0000000000000000000, 1.485000000000000764 ) ) ;
#83 = AXIS2_PLACEMENT_3D ( 'NONE', #96, #233, #123 ) ;
#84 = PRODUCT_CONTEXT ( 'NONE', #25, 'mechanical' ) ;
#85 = ORIENTED_EDGE ( 'NONE', *, *, #54, .T. ) ;
#86 = DIRECTION ( 'NONE',  ( 1.224646799147353700E-16, 0.0000000000000000000, 1.000000000000000000 ) ) ;
#87 = DIRECTION ( 'NONE',  ( -1.224646799147353700E-16, -0.0000000000000000000, -1.000000000000000000 ) ) ;
#88 = EDGE_CURVE ( 'NONE', #251, #163, #63, .T. ) ;
#89 = AXIS2_PLACEMENT_3D ( 'NONE', #118, #204, #22 ) ;
#90 = FILL_AREA_STYLE_COLOUR ( '', #139 ) ;
#91 = SURFACE_STYLE_USAGE ( .BOTH. , #203 ) ;
#92 = DIRECTION ( 'NONE',  ( -1.224646799147353700E-16, -0.0000000000000000000, -1.000000000000000000 ) ) ;
#93 = COLOUR_RGB ( '',0.7921568627450980005, 0.8196078431372548767, 0.9333333333333333481 ) ;
#94 = DIRECTION ( 'NONE',  ( 0.1736481776669312471, 0.0000000000000000000, 0.9848077530122077983 ) ) ;
#95 = FACE_OUTER_BOUND ( 'NONE', #186, .T. ) ;
#96 = CARTESIAN_POINT ( 'NONE',  ( 6.123233995736768501E-17, 0.0000000000000000000, 0.5000000000000000000 ) ) ;
#97 = ORIENTED_EDGE ( 'NONE', *, *, #296, .F. ) ;
#98 = EDGE_CURVE ( 'NONE', #122, #251, #188, .T. ) ;
#99 = DIRECTION ( 'NONE',  ( -0.0000000000000000000, -0.0000000000000000000, -1.000000000000000000 ) ) ;
#100 = VECTOR ( 'NONE', #94, 39.37007874015748143 ) ;
#101 = EDGE_LOOP ( 'NONE', ( #97, #85, #145, #236 ) ) ;
#102 = DIRECTION ( 'NONE',  ( -0.0000000000000000000, -0.0000000000000000000, -1.000000000000000000 ) ) ;
#103 = CARTESIAN_POINT ( 'NONE',  ( -0.06243749999999994443, 7.650215473423623230E-18, 0.5000000000000000000 ) ) ;
#104 = CYLINDRICAL_SURFACE ( 'NONE', #207, 0.06250000000000002776 ) ;
#105 = CARTESIAN_POINT ( 'NONE',  ( 0.0000000000000000000, 0.0000000000000000000, 1.500000000000000222 ) ) ;
#106 = EDGE_CURVE ( 'NONE', #80, #163, #190, .T. ) ;
#107 = ORIENTED_EDGE ( 'NONE', *, *, #155, .T. ) ;
#108 = AXIS2_PLACEMENT_3D ( 'NONE', #56, #177, #221 ) ;
#109 = VECTOR ( 'NONE', #112, 39.37007874015748854 ) ;
#110 = CARTESIAN_POINT ( 'NONE',  ( -0.04750000000000064587, 0.0000000000000000000, 1.500000000000000222 ) ) ;
#111 = CARTESIAN_POINT ( 'NONE',  ( 6.123233995736768501E-17, 0.0000000000000000000, 0.5000000000000000000 ) ) ;
#112 = DIRECTION ( 'NONE',  ( 0.7071067811865462405, 8.659560562354916834E-17, -0.7071067811865486830 ) ) ;
#113 =( GEOMETRIC_REPRESENTATION_CONTEXT ( 3 ) GLOBAL_UNCERTAINTY_ASSIGNED_CONTEXT ( ( #55 ) ) GLOBAL_UNIT_ASSIGNED_CONTEXT ( ( #259, #146, #284 ) ) REPRESENTATION_CONTEXT ( 'NONE', 'WORKASPACE' ) );
#114 = CARTESIAN_POINT ( 'NONE',  ( 0.06243750000000006239, 0.0000000000000000000, 0.5000000000000000000 ) ) ;
#115 = CARTESIAN_POINT ( 'NONE',  ( 0.0000000000000000000, 0.0000000000000000000, 0.0000000000000000000 ) ) ;
#116 = CIRCLE ( 'NONE', #173, 0.04750000000000064587 ) ;
#117 = CIRCLE ( 'NONE', #257, 0.06243749999999999994 ) ;
#118 = CARTESIAN_POINT ( 'NONE',  ( 0.0000000000000000000, 0.0000000000000000000, 0.0000000000000000000 ) ) ;
#119 = EDGE_CURVE ( 'NONE', #163, #80, #42, .T. ) ;
#120 = FILL_AREA_STYLE_COLOUR ( '', #93 ) ;
#121 = AXIS2_PLACEMENT_3D ( 'NONE', #279, #275, #223 ) ;
#122 = VERTEX_POINT ( 'NONE', #114 ) ;
#123 = DIRECTION ( 'NONE',  ( -1.000000000000000000, 0.0000000000000000000, 0.0000000000000000000 ) ) ;
#124 = ORIENTED_EDGE ( 'NONE', *, *, #193, .T. ) ;
#125 = VECTOR ( 'NONE', #10, 39.37007874015748143 ) ;
#126 = ADVANCED_FACE ( 'NONE', ( #160 ), #137, .T. ) ;
#127 = DIRECTION ( 'NONE',  ( 1.000000000000000000, 0.0000000000000000000, 0.0000000000000000000 ) ) ;
#128 = ORIENTED_EDGE ( 'NONE', *, *, #71, .T. ) ;
#129 = ORIENTED_EDGE ( 'NONE', *, *, #21, .T. ) ;
#130 = ADVANCED_FACE ( 'NONE', ( #229 ), #2, .F. ) ;
#131 = ORIENTED_EDGE ( 'NONE', *, *, #21, .F. ) ;
#132 = ORIENTED_EDGE ( 'NONE', *, *, #98, .T. ) ;
#133 =( LENGTH_UNIT ( ) NAMED_UNIT ( * ) SI_UNIT ( $, .METRE. ) );
#134 = VECTOR ( 'NONE', #99, 39.37007874015748143 ) ;
#135 =( CONVERSION_BASED_UNIT ( 'INCH', #156 ) LENGTH_UNIT ( ) NAMED_UNIT ( #61 ) );
#136 = DIRECTION ( 'NONE',  ( -1.224646799147353700E-16, -0.0000000000000000000, -1.000000000000000000 ) ) ;
#137 = CYLINDRICAL_SURFACE ( 'NONE', #89, 0.06243749999999999994 ) ;
#138 = ADVANCED_FACE ( 'NONE', ( #95 ), #226, .T. ) ;
#139 = COLOUR_RGB ( '',0.7921568627450980005, 0.8196078431372548767, 0.9333333333333333481 ) ;
#140 = CARTESIAN_POINT ( 'NONE',  ( 0.06250000000000002776, 7.654042494670959086E-18, 1.500000000000000222 ) ) ;
#141 = ORIENTED_EDGE ( 'NONE', *, *, #119, .T. ) ;
#142 = DIRECTION ( 'NONE',  ( 0.0000000000000000000, 0.0000000000000000000, 1.000000000000000000 ) ) ;
#143 = APPLICATION_PROTOCOL_DEFINITION ( 'draft international standard', 'automotive_design', 1998, #25 ) ;
#144 = STYLED_ITEM ( 'NONE', ( #180 ), #225 ) ;
#145 = ORIENTED_EDGE ( 'NONE', *, *, #281, .T. ) ;
#146 =( NAMED_UNIT ( * ) PLANE_ANGLE_UNIT ( ) SI_UNIT ( $, .RADIAN. ) );
#147 = ADVANCED_FACE ( 'NONE', ( #41 ), #299, .T. ) ;
#148 = CARTESIAN_POINT ( 'NONE',  ( 0.0000000000000000000, 0.0000000000000000000, 0.0000000000000000000 ) ) ;
#149 = CARTESIAN_POINT ( 'NONE',  ( 0.0000000000000000000, 0.0000000000000000000, 1.500000000000000222 ) ) ;
#150 = CARTESIAN_POINT ( 'NONE',  ( 0.0000000000000000000, 0.0000000000000000000, 0.0000000000000000000 ) ) ;
#151 = DIRECTION ( 'NONE',  ( -1.000000000000000000, 0.0000000000000000000, 1.224646799147353947E-16 ) ) ;
#152 = APPLICATION_PROTOCOL_DEFINITION ( 'draft international standard', 'automotive_design', 1998, #267 ) ;
#153 = VERTEX_POINT ( 'NONE', #254 ) ;
#154 = ORIENTED_EDGE ( 'NONE', *, *, #170, .F. ) ;
#155 = EDGE_CURVE ( 'NONE', #39, #153, #117, .T. ) ;
#156 = LENGTH_MEASURE_WITH_UNIT ( LENGTH_MEASURE( 0.02539999999999999897 ), #133 );
#157 = DIRECTION ( 'NONE',  ( -1.224646799147353700E-16, -0.0000000000000000000, -1.000000000000000000 ) ) ;
#158 = CARTESIAN_POINT ( 'NONE',  ( 6.123233995736768501E-17, 0.0000000000000000000, 0.5000000000000000000 ) ) ;
#159 = PRODUCT_RELATED_PRODUCT_CATEGORY ( 'part', '', ( #293 ) ) ;
#160 = FACE_OUTER_BOUND ( 'NONE', #220, .T. ) ;
#161 = CIRCLE ( 'NONE', #108, 0.06250000000000002776 ) ;
#162 = CARTESIAN_POINT ( 'NONE',  ( 0.04750000000000064587, 6.735557395310483192E-18, 1.500000000000000222 ) ) ;
#163 = VERTEX_POINT ( 'NONE', #68 ) ;
#164 = ORIENTED_EDGE ( 'NONE', *, *, #98, .F. ) ;
#165 = SURFACE_SIDE_STYLE ('',( #7 ) ) ;
#166 = ORIENTED_EDGE ( 'NONE', *, *, #88, .T. ) ;
#167 = LENGTH_MEASURE_WITH_UNIT ( LENGTH_MEASURE( 0.02539999999999999897 ), #74 );
#168 = VECTOR ( 'NONE', #92, 39.37007874015748143 ) ;
#169 = ORIENTED_EDGE ( 'NONE', *, *, #215, .F. ) ;
#170 = EDGE_CURVE ( 'NONE', #122, #39, #252, .T. ) ;
#171 = ORIENTED_EDGE ( 'NONE', *, *, #296, .T. ) ;
#172 = CARTESIAN_POINT ( 'NONE',  ( 0.0000000000000000000, 0.0000000000000000000, 1.485000000000000764 ) ) ;
#173 = AXIS2_PLACEMENT_3D ( 'NONE', #149, #194, #127 ) ;
#174 =( NAMED_UNIT ( * ) PLANE_ANGLE_UNIT ( ) SI_UNIT ( $, .RADIAN. ) );
#175 = ORIENTED_EDGE ( 'NONE', *, *, #119, .F. ) ;
#176 = DIRECTION ( 'NONE',  ( 1.000000000000000000, 0.0000000000000000000, 0.0000000000000000000 ) ) ;
#177 = DIRECTION ( 'NONE',  ( 0.0000000000000000000, 0.0000000000000000000, -1.000000000000000000 ) ) ;
#178 =( GEOMETRIC_REPRESENTATION_CONTEXT ( 3 ) GLOBAL_UNCERTAINTY_ASSIGNED_CONTEXT ( ( #241 ) ) GLOBAL_UNIT_ASSIGNED_CONTEXT ( ( #245, #174, #217 ) ) REPRESENTATION_CONTEXT ( 'NONE', 'WORKASPACE' ) );
#179 = DIRECTION ( 'NONE',  ( 1.000000000000000000, 0.0000000000000000000, 0.0000000000000000000 ) ) ;
#180 = PRESENTATION_STYLE_ASSIGNMENT (( #91 ) ) ;
#181 = LINE ( 'NONE', #66, #109 ) ;
#182 = CIRCLE ( 'NONE', #57, 0.06250000000000002776 ) ;
#183 = EDGE_CURVE ( 'NONE', #287, #213, #181, .T. ) ;
#184 = FACE_OUTER_BOUND ( 'NONE', #285, .T. ) ;
#185 = DIRECTION ( 'NONE',  ( -0.7071067811865462405, 0.0000000000000000000, -0.7071067811865486830 ) ) ;
#186 = EDGE_LOOP ( 'NONE', ( #239, #9, #298, #76 ) ) ;
#187 = AXIS2_PLACEMENT_3D ( 'NONE', #271, #35, #151 ) ;
#188 = CIRCLE ( 'NONE', #26, 0.06243749999999999994 ) ;
#189 = UNCERTAINTY_MEASURE_WITH_UNIT (LENGTH_MEASURE( 1.000000000000000082E-05 ), #135, 'distance_accuracy_value', 'NONE');
#190 = CIRCLE ( 'NONE', #231, 0.06250000000000002776 ) ;
#191 = CYLINDRICAL_SURFACE ( 'NONE', #274, 0.06250000000000002776 ) ;
#192 = STYLED_ITEM ( 'NONE', ( #70 ), #27 ) ;
#193 = EDGE_CURVE ( 'NONE', #122, #80, #208, .T. ) ;
#194 = DIRECTION ( 'NONE',  ( 0.0000000000000000000, 0.0000000000000000000, 1.000000000000000000 ) ) ;
#195 = DIRECTION ( 'NONE',  ( -0.0000000000000000000, -0.0000000000000000000, -1.000000000000000000 ) ) ;
#196 = EDGE_LOOP ( 'NONE', ( #58, #164, #124, #34 ) ) ;
#197 = DIRECTION ( 'NONE',  ( -1.224646799147353700E-16, -0.0000000000000000000, -1.000000000000000000 ) ) ;
#198 = DIRECTION ( 'NONE',  ( 1.000000000000000000, 0.0000000000000000000, 0.0000000000000000000 ) ) ;
#199 = DIRECTION ( 'NONE',  ( -1.000000000000000000, 0.0000000000000000000, 0.0000000000000000000 ) ) ;
#200 = CARTESIAN_POINT ( 'NONE',  ( -0.04750000000000064587, 0.0000000000000000000, 1.500000000000000222 ) ) ;
#201 = PRODUCT_DEFINITION ( 'UNKNOWN', '', #20, #78 ) ;
#202 = CONICAL_SURFACE ( 'NONE', #249, 0.06243749999999999994, 0.1745329251994337527 ) ;
#203 = SURFACE_SIDE_STYLE ('',( #1 ) ) ;
#204 = DIRECTION ( 'NONE',  ( -1.224646799147353700E-16, -0.0000000000000000000, -1.000000000000000000 ) ) ;
#205 = CIRCLE ( 'NONE', #187, 0.06243749999999999994 ) ;
#206 = CARTESIAN_POINT ( 'NONE',  ( 0.06243750000000006239, 0.0000000000000000000, 0.5000000000000000000 ) ) ;
#207 = AXIS2_PLACEMENT_3D ( 'NONE', #105, #195, #199 ) ;
#208 = LINE ( 'NONE', #206, #100 ) ;
#209 = CARTESIAN_POINT ( 'NONE',  ( 0.0000000000000000000, 0.0000000000000000000, 1.500000000000000222 ) ) ;
#210 = FILL_AREA_STYLE ('',( #120 ) ) ;
#211 = ADVANCED_FACE ( 'NONE', ( #184 ), #202, .T. ) ;
#212 = AXIS2_PLACEMENT_3D ( 'NONE', #224, #157, #45 ) ;
#213 = VERTEX_POINT ( 'NONE', #230 ) ;
#214 = PRODUCT_DEFINITION_SHAPE ( 'NONE', 'NONE',  #201 ) ;
#215 = EDGE_CURVE ( 'NONE', #73, #32, #24, .T. ) ;
#216 = DIRECTION ( 'NONE',  ( 0.0000000000000000000, 0.0000000000000000000, -1.000000000000000000 ) ) ;
#217 =( NAMED_UNIT ( * ) SI_UNIT ( $, .STERADIAN. ) SOLID_ANGLE_UNIT ( ) );
#218 = ORIENTED_EDGE ( 'NONE', *, *, #193, .F. ) ;
#219 = ORIENTED_EDGE ( 'NONE', *, *, #240, .T. ) ;
#220 = EDGE_LOOP ( 'NONE', ( #154, #132, #219, #37 ) ) ;
#221 = DIRECTION ( 'NONE',  ( 1.000000000000000000, 0.0000000000000000000, 0.0000000000000000000 ) ) ;
#222 = DIRECTION ( 'NONE',  ( -0.1736481776669310251, 2.126576849575781468E-17, 0.9848077530122080203 ) ) ;
#223 = DIRECTION ( 'NONE',  ( 1.000000000000000000, 0.0000000000000000000, -0.0000000000000000000 ) ) ;
#224 = CARTESIAN_POINT ( 'NONE',  ( 6.127574818941430966E-17, 0.0000000000000000000, 0.5003544551137262264 ) ) ;
#225 = MANIFOLD_SOLID_BREP ( 'Cut-Revolve1', #36 ) ;
#226 = CONICAL_SURFACE ( 'NONE', #33, 0.04750000000000064587, 0.7853981633974466137 ) ;
#227 =( NAMED_UNIT ( * ) PLANE_ANGLE_UNIT ( ) SI_UNIT ( $, .RADIAN. ) );
#228 = DIMENSIONAL_EXPONENTS ( 1.000000000000000000, 0.0000000000000000000, 0.0000000000000000000, 0.0000000000000000000, 0.0000000000000000000, 0.0000000000000000000, 0.0000000000000000000 ) ;
#229 = FACE_OUTER_BOUND ( 'NONE', #12, .T. ) ;
#230 = CARTESIAN_POINT ( 'NONE',  ( 0.06250000000000002776, 7.654042494670959086E-18, 1.485000000000000764 ) ) ;
#231 = AXIS2_PLACEMENT_3D ( 'NONE', #81, #44, #69 ) ;
#232 = PRESENTATION_LAYER_ASSIGNMENT (  '', '', ( #192 ) ) ;
#233 = DIRECTION ( 'NONE',  ( -1.224646799147353700E-16, -0.0000000000000000000, -1.000000000000000000 ) ) ;
#234 = EDGE_LOOP ( 'NONE', ( #51, #128 ) ) ;
#235 = FACE_OUTER_BOUND ( 'NONE', #101, .T. ) ;
#236 = ORIENTED_EDGE ( 'NONE', *, *, #106, .F. ) ;
#237 = CIRCLE ( 'NONE', #278, 0.04750000000000064587 ) ;
#238 =( LENGTH_UNIT ( ) NAMED_UNIT ( * ) SI_UNIT ( $, .METRE. ) );
#239 = ORIENTED_EDGE ( 'NONE', *, *, #183, .F. ) ;
#240 = EDGE_CURVE ( 'NONE', #251, #153, #280, .T. ) ;
#241 = UNCERTAINTY_MEASURE_WITH_UNIT (LENGTH_MEASURE( 1.000000000000000082E-05 ), #245, 'distance_accuracy_value', 'NONE');
#242 = AXIS2_PLACEMENT_3D ( 'NONE', #28, #216, #72 ) ;
#243 = CARTESIAN_POINT ( 'NONE',  ( 6.123233995736768501E-17, 0.0000000000000000000, 0.5000000000000000000 ) ) ;
#244 = DIRECTION ( 'NONE',  ( 0.0000000000000000000, 0.0000000000000000000, -1.000000000000000000 ) ) ;
#245 =( CONVERSION_BASED_UNIT ( 'INCH', #8 ) LENGTH_UNIT ( ) NAMED_UNIT ( #65 ) );
#246 = ORIENTED_EDGE ( 'NONE', *, *, #170, .T. ) ;
#247 = DIRECTION ( 'NONE',  ( 0.0000000000000000000, 0.0000000000000000000, 1.000000000000000000 ) ) ;
#248 = EDGE_LOOP ( 'NONE', ( #270, #246, #265, #29 ) ) ;
#249 = AXIS2_PLACEMENT_3D ( 'NONE', #158, #255, #179 ) ;
#250 = EDGE_CURVE ( 'NONE', #251, #122, #62, .T. ) ;
#251 = VERTEX_POINT ( 'NONE', #103 ) ;
#252 = LINE ( 'NONE', #276, #168 ) ;
#253 =( GEOMETRIC_REPRESENTATION_CONTEXT ( 3 ) GLOBAL_UNCERTAINTY_ASSIGNED_CONTEXT ( ( #189 ) ) GLOBAL_UNIT_ASSIGNED_CONTEXT ( ( #135, #227, #79 ) ) REPRESENTATION_CONTEXT ( 'NONE', 'WORKASPACE' ) );
#254 = CARTESIAN_POINT ( 'NONE',  ( -0.06243749999999999994, 0.0000000000000000000, 1.529277690435258091E-17 ) ) ;
#255 = DIRECTION ( 'NONE',  ( 1.224646799147353700E-16, 0.0000000000000000000, 1.000000000000000000 ) ) ;
#256 = DIRECTION ( 'NONE',  ( 0.0000000000000000000, 0.0000000000000000000, 1.000000000000000000 ) ) ;
#257 = AXIS2_PLACEMENT_3D ( 'NONE', #23, #136, #18 ) ;
#258 = ADVANCED_FACE ( 'NONE', ( #31 ), #67, .T. ) ;
#259 =( CONVERSION_BASED_UNIT ( 'INCH', #167 ) LENGTH_UNIT ( ) NAMED_UNIT ( #228 ) );
#260 = CARTESIAN_POINT ( 'NONE',  ( -0.06243749999999999994, 0.0000000000000000000, 7.646388452176290456E-18 ) ) ;
#261 = ORIENTED_EDGE ( 'NONE', *, *, #281, .F. ) ;
#262 = AXIS2_PLACEMENT_3D ( 'NONE', #243, #86, #176 ) ;
#263 = LINE ( 'NONE', #264, #134 ) ;
#264 = CARTESIAN_POINT ( 'NONE',  ( -0.06250000000000002776, 0.0000000000000000000, 1.500000000000000222 ) ) ;
#265 = ORIENTED_EDGE ( 'NONE', *, *, #5, .F. ) ;
#266 = EDGE_CURVE ( 'NONE', #73, #287, #237, .T. ) ;
#267 = APPLICATION_CONTEXT ( 'automotive_design' ) ;
#268 = FACE_OUTER_BOUND ( 'NONE', #49, .T. ) ;
#269 = SHAPE_DEFINITION_REPRESENTATION ( #214, #27 ) ;
#270 = ORIENTED_EDGE ( 'NONE', *, *, #250, .T. ) ;
#271 = CARTESIAN_POINT ( 'NONE',  ( 9.364125142994982608E-34, 0.0000000000000000000, 7.646388452176290456E-18 ) ) ;
#272 = ADVANCED_FACE ( 'NONE', ( #235 ), #191, .T. ) ;
#273 = CARTESIAN_POINT ( 'NONE',  ( 0.06250000000000008327, 7.654042494670966789E-18, 0.5003544551137262264 ) ) ;
#274 = AXIS2_PLACEMENT_3D ( 'NONE', #209, #102, #286 ) ;
#275 = DIRECTION ( 'NONE',  ( 0.0000000000000000000, 0.0000000000000000000, 1.000000000000000000 ) ) ;
#276 = CARTESIAN_POINT ( 'NONE',  ( 0.06243749999999999994, 7.646388452176287375E-18, -7.646388452176290456E-18 ) ) ;
#277 = DIRECTION ( 'NONE',  ( 0.0000000000000000000, 0.0000000000000000000, -1.000000000000000000 ) ) ;
#278 = AXIS2_PLACEMENT_3D ( 'NONE', #48, #142, #50 ) ;
#279 = CARTESIAN_POINT ( 'NONE',  ( 0.0000000000000000000, 0.0000000000000000000, 1.500000000000000222 ) ) ;
#280 = LINE ( 'NONE', #260, #125 ) ;
#281 = EDGE_CURVE ( 'NONE', #32, #163, #263, .T. ) ;
#282 = SURFACE_STYLE_USAGE ( .BOTH. , #165 ) ;
#283 = AXIS2_PLACEMENT_3D ( 'NONE', #115, #256, #46 ) ;
#284 =( NAMED_UNIT ( * ) SI_UNIT ( $, .STERADIAN. ) SOLID_ANGLE_UNIT ( ) );
#285 = EDGE_LOOP ( 'NONE', ( #13, #166, #141, #218 ) ) ;
#286 = DIRECTION ( 'NONE',  ( -1.000000000000000000, 0.0000000000000000000, 0.0000000000000000000 ) ) ;
#287 = VERTEX_POINT ( 'NONE', #162 ) ;
#288 = VECTOR ( 'NONE', #222, 39.37007874015748854 ) ;
#289 = MECHANICAL_DESIGN_GEOMETRIC_PRESENTATION_REPRESENTATION (  '', ( #192 ), #178 ) ;
#290 = LINE ( 'NONE', #140, #11 ) ;
#291 = ORIENTED_EDGE ( 'NONE', *, *, #5, .T. ) ;
#292 = DIRECTION ( 'NONE',  ( -1.000000000000000000, 0.0000000000000000000, 0.0000000000000000000 ) ) ;
#293 = PRODUCT ( 'Micro_GEM-125-3', 'Micro_GEM-125-3', '', ( #84 ) ) ;
#294 = CYLINDRICAL_SURFACE ( 'NONE', #19, 0.06243749999999999994 ) ;
#295 = ORIENTED_EDGE ( 'NONE', *, *, #71, .F. ) ;
#296 = EDGE_CURVE ( 'NONE', #213, #80, #290, .T. ) ;
#297 = FACE_OUTER_BOUND ( 'NONE', #196, .T. ) ;
#298 = ORIENTED_EDGE ( 'NONE', *, *, #215, .T. ) ;
#299 = PLANE ( 'NONE',  #121 ) ;
ENDSEC;
END-ISO-10303-21;
