ISO-10303-21;
HEADER;
FILE_DESCRIPTION (( 'STEP AP214' ),
    '1' );
FILE_NAME ('59589.STEP',
    '2023-07-24T15:49:44',
    ( '' ),
    ( '' ),
    'SwSTEP 2.0',
    'SolidWorks 2023',
    '' );
FILE_SCHEMA (( 'AUTOMOTIVE_DESIGN' ));
ENDSEC;

DATA;
#1 = ADVANCED_FACE ( 'NONE', ( #148 ), #66, .F. ) ;
#2 =( LENGTH_UNIT ( ) NAMED_UNIT ( * ) SI_UNIT ( .MILLI., .METRE. ) );
#3 = VECTOR ( 'NONE', #275, 1000.000000000000000 ) ;
#4 = PRODUCT_DEFINITION_CONTEXT ( 'detailed design', #9, 'design' ) ;
#5 =( LENGTH_UNIT ( ) NAMED_UNIT ( * ) SI_UNIT ( .MILLI., .METRE. ) );
#6 = CARTESIAN_POINT ( 'NONE',  ( -1.714505518806293849E-15, 89.00000000000000000, 0.000000000000000000 ) ) ;
#7 =( NAMED_UNIT ( * ) SI_UNIT ( $, .STERADIAN. ) SOLID_ANGLE_UNIT ( ) );
#8 = CARTESIAN_POINT ( 'NONE',  ( 10.00000000000000000, 89.00000000000000000, 1.224646799147353454E-15 ) ) ;
#9 = APPLICATION_CONTEXT ( 'automotive_design' ) ;
#10 = PLANE ( 'NONE',  #18 ) ;
#11 = STYLED_ITEM ( 'NONE', ( #165 ), #107 ) ;
#12 = STYLED_ITEM ( 'NONE', ( #143 ), #208 ) ;
#13 = DIRECTION ( 'NONE',  ( -2.905941557298802612E-17, 1.000000000000000000, 0.000000000000000000 ) ) ;
#14 = PRODUCT_DEFINITION ( 'UNKNOWN', '', #37, #4 ) ;
#15 = CARTESIAN_POINT ( 'NONE',  ( 0.000000000000000000, 30.00000000000000000, -10.00000000000000000 ) ) ;
#16 = DIRECTION ( 'NONE',  ( -1.000000000000000000, 0.000000000000000000, 0.000000000000000000 ) ) ;
#17 = COLOUR_RGB ( '',1.000000000000000000, 0.000000000000000000, 0.000000000000000000 ) ;
#18 = AXIS2_PLACEMENT_3D ( 'NONE', #267, #134, #228 ) ;
#19 =( GEOMETRIC_REPRESENTATION_CONTEXT ( 3 ) GLOBAL_UNCERTAINTY_ASSIGNED_CONTEXT ( ( #78 ) ) GLOBAL_UNIT_ASSIGNED_CONTEXT ( ( #200, #261, #149 ) ) REPRESENTATION_CONTEXT ( 'NONE', 'WORKASPACE' ) );
#20 = EDGE_LOOP ( 'NONE', ( #260, #166 ) ) ;
#21 =( LENGTH_UNIT ( ) NAMED_UNIT ( * ) SI_UNIT ( .MILLI., .METRE. ) );
#22 = EDGE_LOOP ( 'NONE', ( #225, #262, #81, #44 ) ) ;
#23 = PRESENTATION_STYLE_ASSIGNMENT (( #205 ) ) ;
#24 = DIRECTION ( 'NONE',  ( 1.000000000000000000, 2.905941557298802612E-17, 0.000000000000000000 ) ) ;
#25 = CIRCLE ( 'NONE', #50, 10.00000000000000000 ) ;
#26 = AXIS2_PLACEMENT_3D ( 'NONE', #266, #151, #43 ) ;
#27 = SURFACE_SIDE_STYLE ('',( #121 ) ) ;
#28 = FILL_AREA_STYLE_COLOUR ( '', #181 ) ;
#29 = STYLED_ITEM ( 'NONE', ( #122 ), #203 ) ;
#30 = CARTESIAN_POINT ( 'NONE',  ( 0.000000000000000000, 0.000000000000000000, 0.000000000000000000 ) ) ;
#31 =( LENGTH_UNIT ( ) NAMED_UNIT ( * ) SI_UNIT ( .MILLI., .METRE. ) );
#32 = DIRECTION ( 'NONE',  ( 0.000000000000000000, -0.000000000000000000, 1.000000000000000000 ) ) ;
#33 =( LENGTH_UNIT ( ) NAMED_UNIT ( * ) SI_UNIT ( .MILLI., .METRE. ) );
#34 = APPLICATION_CONTEXT ( 'automotive_design' ) ;
#35 = ADVANCED_FACE ( 'NONE', ( #127 ), #280, .T. ) ;
#36 = ORIENTED_EDGE ( 'NONE', *, *, #135, .T. ) ;
#37 = PRODUCT_DEFINITION_FORMATION_WITH_SPECIFIED_SOURCE ( 'ANY', '', #184, .NOT_KNOWN. ) ;
#38 = DIRECTION ( 'NONE',  ( -1.000000000000000000, -2.905941557298802612E-17, 0.000000000000000000 ) ) ;
#39 = DIRECTION ( 'NONE',  ( -2.905941557298803228E-17, 1.000000000000000000, -0.000000000000000000 ) ) ;
#40 = DIRECTION ( 'NONE',  ( -2.905941557298803228E-17, 1.000000000000000000, -0.000000000000000000 ) ) ;
#41 = ORIENTED_EDGE ( 'NONE', *, *, #194, .T. ) ;
#42 = COLOUR_RGB ( '',0.7921568627450980005, 0.8196078431372548767, 0.9333333333333333481 ) ;
#43 = DIRECTION ( 'NONE',  ( 0.000000000000000000, 0.000000000000000000, -1.000000000000000000 ) ) ;
#44 = ORIENTED_EDGE ( 'NONE', *, *, #52, .F. ) ;
#45 = APPLICATION_PROTOCOL_DEFINITION ( 'draft international standard', 'automotive_design', 1998, #34 ) ;
#46 = CARTESIAN_POINT ( 'NONE',  ( 0.000000000000000000, 30.00000000000000000, 0.000000000000000000 ) ) ;
#47 = EDGE_CURVE ( 'NONE', #239, #154, #192, .T. ) ;
#48 = CLOSED_SHELL ( 'NONE', ( #203, #107, #168, #208 ) ) ;
#49 = DIRECTION ( 'NONE',  ( 2.905941557298802612E-17, -1.000000000000000000, 0.000000000000000000 ) ) ;
#50 = AXIS2_PLACEMENT_3D ( 'NONE', #155, #276, #73 ) ;
#51 = PRESENTATION_STYLE_ASSIGNMENT (( #212 ) ) ;
#52 = EDGE_CURVE ( 'NONE', #99, #239, #279, .T. ) ;
#53 =( GEOMETRIC_REPRESENTATION_CONTEXT ( 3 ) GLOBAL_UNCERTAINTY_ASSIGNED_CONTEXT ( ( #57 ) ) GLOBAL_UNIT_ASSIGNED_CONTEXT ( ( #5, #190, #189 ) ) REPRESENTATION_CONTEXT ( 'NONE', 'WORKASPACE' ) );
#54 = DIRECTION ( 'NONE',  ( 0.000000000000000000, 0.000000000000000000, -1.000000000000000000 ) ) ;
#55 = EDGE_CURVE ( 'NONE', #175, #86, #59, .T. ) ;
#56 = ORIENTED_EDGE ( 'NONE', *, *, #145, .F. ) ;
#57 = UNCERTAINTY_MEASURE_WITH_UNIT (LENGTH_MEASURE( 1.000000000000000082E-05 ), #5, 'distance_accuracy_value', 'NONE');
#58 = CARTESIAN_POINT ( 'NONE',  ( 0.000000000000000000, 0.000000000000000000, 0.000000000000000000 ) ) ;
#59 = CIRCLE ( 'NONE', #102, 10.00000000000000000 ) ;
#60 = DIRECTION ( 'NONE',  ( -2.905941557298802612E-17, 1.000000000000000000, -0.000000000000000000 ) ) ;
#61 = CYLINDRICAL_SURFACE ( 'NONE', #288, 10.00000000000000000 ) ;
#62 = ORIENTED_EDGE ( 'NONE', *, *, #55, .F. ) ;
#63 = EDGE_LOOP ( 'NONE', ( #285, #36, #131, #56 ) ) ;
#64 = CARTESIAN_POINT ( 'NONE',  ( -10.00000000000000355, 89.00000000000000000, 0.000000000000000000 ) ) ;
#65 = SHAPE_DEFINITION_REPRESENTATION ( #226, #254 ) ;
#66 = PLANE ( 'NONE',  #152 ) ;
#67 = EDGE_CURVE ( 'NONE', #86, #175, #281, .T. ) ;
#68 = DIRECTION ( 'NONE',  ( -2.905941557298802612E-17, 1.000000000000000000, -0.000000000000000000 ) ) ;
#69 = CARTESIAN_POINT ( 'NONE',  ( 10.00000000000000000, 89.00000000000000000, 0.000000000000000000 ) ) ;
#70 = FACE_OUTER_BOUND ( 'NONE', #174, .T. ) ;
#71 = DIRECTION ( 'NONE',  ( -1.000000000000000000, 0.000000000000000000, 0.000000000000000000 ) ) ;
#72 = PLANE ( 'NONE',  #216 ) ;
#73 = DIRECTION ( 'NONE',  ( -1.000000000000000000, 0.000000000000000000, 0.000000000000000000 ) ) ;
#74 = SURFACE_STYLE_FILL_AREA ( #94 ) ;
#75 = EDGE_CURVE ( 'NONE', #104, #154, #109, .T. ) ;
#76 = CARTESIAN_POINT ( 'NONE',  ( 0.000000000000000000, 30.00000000000000000, 0.000000000000000000 ) ) ;
#77 = CARTESIAN_POINT ( 'NONE',  ( -10.00000000000000355, 89.00000000000000000, 0.000000000000000000 ) ) ;
#78 = UNCERTAINTY_MEASURE_WITH_UNIT (LENGTH_MEASURE( 1.000000000000000082E-05 ), #200, 'distance_accuracy_value', 'NONE');
#79 = CYLINDRICAL_SURFACE ( 'NONE', #277, 10.00000000000000000 ) ;
#80 = MECHANICAL_DESIGN_GEOMETRIC_PRESENTATION_REPRESENTATION (  '', ( #257 ), #129 ) ;
#81 = ORIENTED_EDGE ( 'NONE', *, *, #47, .F. ) ;
#82 = FILL_AREA_STYLE_COLOUR ( '', #207 ) ;
#83 = PRODUCT_RELATED_PRODUCT_CATEGORY ( 'part', '', ( #184 ) ) ;
#84 = ORIENTED_EDGE ( 'NONE', *, *, #75, .F. ) ;
#85 = PRESENTATION_STYLE_ASSIGNMENT (( #98 ) ) ;
#86 = VERTEX_POINT ( 'NONE', #247 ) ;
#87 = FACE_OUTER_BOUND ( 'NONE', #20, .T. ) ;
#88 = CARTESIAN_POINT ( 'NONE',  ( 10.00000000000000000, 89.00000000000000000, 1.224646799147353454E-15 ) ) ;
#89 =( NAMED_UNIT ( * ) PLANE_ANGLE_UNIT ( ) SI_UNIT ( $, .RADIAN. ) );
#90 = CIRCLE ( 'NONE', #236, 10.00000000000000000 ) ;
#91 = EDGE_CURVE ( 'NONE', #99, #104, #25, .T. ) ;
#92 = CARTESIAN_POINT ( 'NONE',  ( 0.000000000000000000, 30.00000000000000000, 0.000000000000000000 ) ) ;
#93 = VECTOR ( 'NONE', #214, 1000.000000000000000 ) ;
#94 = FILL_AREA_STYLE ('',( #231 ) ) ;
#95 = LINE ( 'NONE', #271, #3 ) ;
#96 = AXIS2_PLACEMENT_3D ( 'NONE', #158, #136, #183 ) ;
#97 = CARTESIAN_POINT ( 'NONE',  ( -1.714505518806293849E-15, 89.00000000000000000, 0.000000000000000000 ) ) ;
#98 = SURFACE_STYLE_USAGE ( .BOTH. , #242 ) ;
#99 = VERTEX_POINT ( 'NONE', #142 ) ;
#100 = SURFACE_SIDE_STYLE ('',( #263 ) ) ;
#101 = ADVANCED_FACE ( 'NONE', ( #251 ), #252, .T. ) ;
#102 = AXIS2_PLACEMENT_3D ( 'NONE', #146, #219, #199 ) ;
#103 = CIRCLE ( 'NONE', #96, 10.00000000000000178 ) ;
#104 = VERTEX_POINT ( 'NONE', #186 ) ;
#105 =( NAMED_UNIT ( * ) PLANE_ANGLE_UNIT ( ) SI_UNIT ( $, .RADIAN. ) );
#106 = ORIENTED_EDGE ( 'NONE', *, *, #278, .T. ) ;
#107 = ADVANCED_FACE ( 'NONE', ( #119 ), #72, .T. ) ;
#108 = CARTESIAN_POINT ( 'NONE',  ( 0.000000000000000000, 0.000000000000000000, 0.000000000000000000 ) ) ;
#109 = LINE ( 'NONE', #88, #248 ) ;
#110 = AXIS2_PLACEMENT_3D ( 'NONE', #108, #287, #246 ) ;
#111 = PRODUCT_CONTEXT ( 'NONE', #34, 'mechanical' ) ;
#112 = FILL_AREA_STYLE_COLOUR ( '', #230 ) ;
#113 = SURFACE_STYLE_FILL_AREA ( #132 ) ;
#114 = EDGE_CURVE ( 'NONE', #243, #202, #90, .T. ) ;
#115 = CIRCLE ( 'NONE', #201, 10.00000000000000000 ) ;
#116 = DIRECTION ( 'NONE',  ( 0.000000000000000000, 0.000000000000000000, -1.000000000000000000 ) ) ;
#117 =( NAMED_UNIT ( * ) PLANE_ANGLE_UNIT ( ) SI_UNIT ( $, .RADIAN. ) );
#118 = LINE ( 'NONE', #270, #93 ) ;
#119 = FACE_OUTER_BOUND ( 'NONE', #235, .T. ) ;
#120 =( NAMED_UNIT ( * ) PLANE_ANGLE_UNIT ( ) SI_UNIT ( $, .RADIAN. ) );
#121 = SURFACE_STYLE_FILL_AREA ( #250 ) ;
#122 = PRESENTATION_STYLE_ASSIGNMENT (( #259 ) ) ;
#123 = AXIS2_PLACEMENT_3D ( 'NONE', #69, #49, #24 ) ;
#124 = UNCERTAINTY_MEASURE_WITH_UNIT (LENGTH_MEASURE( 1.000000000000000082E-05 ), #33, 'distance_accuracy_value', 'NONE');
#125 = ORIENTED_EDGE ( 'NONE', *, *, #194, .F. ) ;
#126 = SURFACE_STYLE_FILL_AREA ( #128 ) ;
#127 = FACE_OUTER_BOUND ( 'NONE', #283, .T. ) ;
#128 = FILL_AREA_STYLE ('',( #82 ) ) ;
#129 =( GEOMETRIC_REPRESENTATION_CONTEXT ( 3 ) GLOBAL_UNCERTAINTY_ASSIGNED_CONTEXT ( ( #124 ) ) GLOBAL_UNIT_ASSIGNED_CONTEXT ( ( #33, #167, #255 ) ) REPRESENTATION_CONTEXT ( 'NONE', 'WORKASPACE' ) );
#130 = ORIENTED_EDGE ( 'NONE', *, *, #52, .T. ) ;
#131 = ORIENTED_EDGE ( 'NONE', *, *, #114, .F. ) ;
#132 = FILL_AREA_STYLE ('',( #112 ) ) ;
#133 = MECHANICAL_DESIGN_GEOMETRIC_PRESENTATION_REPRESENTATION (  '', ( #187 ), #53 ) ;
#134 = DIRECTION ( 'NONE',  ( 0.000000000000000000, -1.000000000000000000, -0.000000000000000000 ) ) ;
#135 = EDGE_CURVE ( 'NONE', #86, #202, #95, .T. ) ;
#136 = DIRECTION ( 'NONE',  ( -2.905941557298803228E-17, 1.000000000000000000, -0.000000000000000000 ) ) ;
#137 = MANIFOLD_SOLID_BREP ( 'Revolve - Tool Body (Straight Shanked)', #265 ) ;
#138 = AXIS2_PLACEMENT_3D ( 'NONE', #6, #139, #71 ) ;
#139 = DIRECTION ( 'NONE',  ( -2.905941557298803228E-17, 1.000000000000000000, -0.000000000000000000 ) ) ;
#140 = SURFACE_STYLE_USAGE ( .BOTH. , #185 ) ;
#141 = PRESENTATION_LAYER_ASSIGNMENT (  '', '', ( #187 ) ) ;
#142 = CARTESIAN_POINT ( 'NONE',  ( -10.00000000000000000, 30.00000000000000000, 0.000000000000000000 ) ) ;
#143 = PRESENTATION_STYLE_ASSIGNMENT (( #218 ) ) ;
#144 = DIRECTION ( 'NONE',  ( -1.000000000000000000, 0.000000000000000000, 0.000000000000000000 ) ) ;
#145 = EDGE_CURVE ( 'NONE', #175, #243, #118, .T. ) ;
#146 = CARTESIAN_POINT ( 'NONE',  ( 0.000000000000000000, 30.00000000000000000, 0.000000000000000000 ) ) ;
#147 = FACE_OUTER_BOUND ( 'NONE', #264, .T. ) ;
#148 = FACE_OUTER_BOUND ( 'NONE', #224, .T. ) ;
#149 =( NAMED_UNIT ( * ) SI_UNIT ( $, .STERADIAN. ) SOLID_ANGLE_UNIT ( ) );
#150 = ORIENTED_EDGE ( 'NONE', *, *, #233, .F. ) ;
#151 = DIRECTION ( 'NONE',  ( -0.000000000000000000, -1.000000000000000000, -0.000000000000000000 ) ) ;
#152 = AXIS2_PLACEMENT_3D ( 'NONE', #256, #13, #38 ) ;
#153 = PRESENTATION_LAYER_ASSIGNMENT (  '', '', ( #29 ) ) ;
#154 = VERTEX_POINT ( 'NONE', #8 ) ;
#155 = CARTESIAN_POINT ( 'NONE',  ( 0.000000000000000000, 30.00000000000000000, 0.000000000000000000 ) ) ;
#156 = PRESENTATION_LAYER_ASSIGNMENT (  '', '', ( #257 ) ) ;
#157 =( GEOMETRIC_REPRESENTATION_CONTEXT ( 3 ) GLOBAL_UNCERTAINTY_ASSIGNED_CONTEXT ( ( #269 ) ) GLOBAL_UNIT_ASSIGNED_CONTEXT ( ( #21, #105, #227 ) ) REPRESENTATION_CONTEXT ( 'NONE', 'WORKASPACE' ) );
#158 = CARTESIAN_POINT ( 'NONE',  ( -1.714505518806293849E-15, 89.00000000000000000, 0.000000000000000000 ) ) ;
#159 = DIRECTION ( 'NONE',  ( -0.000000000000000000, -1.000000000000000000, -0.000000000000000000 ) ) ;
#160 =( LENGTH_UNIT ( ) NAMED_UNIT ( * ) SI_UNIT ( .MILLI., .METRE. ) );
#161 = AXIS2_PLACEMENT_3D ( 'NONE', #97, #221, #16 ) ;
#162 = MECHANICAL_DESIGN_GEOMETRIC_PRESENTATION_REPRESENTATION (  '', ( #12 ), #19 ) ;
#163 = FILL_AREA_STYLE_COLOUR ( '', #42 ) ;
#164 =( GEOMETRIC_REPRESENTATION_CONTEXT ( 3 ) GLOBAL_UNCERTAINTY_ASSIGNED_CONTEXT ( ( #282 ) ) GLOBAL_UNIT_ASSIGNED_CONTEXT ( ( #160, #117, #7 ) ) REPRESENTATION_CONTEXT ( 'NONE', 'WORKASPACE' ) );
#165 = PRESENTATION_STYLE_ASSIGNMENT (( #140 ) ) ;
#166 = ORIENTED_EDGE ( 'NONE', *, *, #233, .T. ) ;
#167 =( NAMED_UNIT ( * ) PLANE_ANGLE_UNIT ( ) SI_UNIT ( $, .RADIAN. ) );
#168 = ADVANCED_FACE ( 'NONE', ( #70 ), #79, .T. ) ;
#169 = ORIENTED_EDGE ( 'NONE', *, *, #145, .T. ) ;
#170 = CARTESIAN_POINT ( 'NONE',  ( 1.224646799147353256E-15, 0.000000000000000000, 10.00000000000000000 ) ) ;
#171 =( GEOMETRIC_REPRESENTATION_CONTEXT ( 3 ) GLOBAL_UNCERTAINTY_ASSIGNED_CONTEXT ( ( #197 ) ) GLOBAL_UNIT_ASSIGNED_CONTEXT ( ( #31, #120, #284 ) ) REPRESENTATION_CONTEXT ( 'NONE', 'WORKASPACE' ) );
#172 = ORIENTED_EDGE ( 'NONE', *, *, #278, .F. ) ;
#173 = DIRECTION ( 'NONE',  ( -0.000000000000000000, -1.000000000000000000, -0.000000000000000000 ) ) ;
#174 = EDGE_LOOP ( 'NONE', ( #177, #196, #169, #172 ) ) ;
#175 = VERTEX_POINT ( 'NONE', #15 ) ;
#176 = APPLICATION_PROTOCOL_DEFINITION ( 'draft international standard', 'automotive_design', 1998, #9 ) ;
#177 = ORIENTED_EDGE ( 'NONE', *, *, #135, .F. ) ;
#178 = VECTOR ( 'NONE', #60, 1000.000000000000000 ) ;
#179 = PLANE ( 'NONE',  #123 ) ;
#180 =( NAMED_UNIT ( * ) SI_UNIT ( $, .STERADIAN. ) SOLID_ANGLE_UNIT ( ) );
#181 = COLOUR_RGB ( '',1.000000000000000000, 0.000000000000000000, 0.000000000000000000 ) ;
#182 =( GEOMETRIC_REPRESENTATION_CONTEXT ( 3 ) GLOBAL_UNCERTAINTY_ASSIGNED_CONTEXT ( ( #258 ) ) GLOBAL_UNIT_ASSIGNED_CONTEXT ( ( #2, #89, #180 ) ) REPRESENTATION_CONTEXT ( 'NONE', 'WORKASPACE' ) );
#183 = DIRECTION ( 'NONE',  ( -1.000000000000000000, 0.000000000000000000, 0.000000000000000000 ) ) ;
#184 = PRODUCT ( '59589', '59589', '', ( #111 ) ) ;
#185 = SURFACE_SIDE_STYLE ('',( #74 ) ) ;
#186 = CARTESIAN_POINT ( 'NONE',  ( 10.00000000000000000, 30.00000000000000000, 1.224646799147353454E-15 ) ) ;
#187 = STYLED_ITEM ( 'NONE', ( #51 ), #137 ) ;
#188 = CIRCLE ( 'NONE', #26, 10.00000000000000000 ) ;
#189 =( NAMED_UNIT ( * ) SI_UNIT ( $, .STERADIAN. ) SOLID_ANGLE_UNIT ( ) );
#190 =( NAMED_UNIT ( * ) PLANE_ANGLE_UNIT ( ) SI_UNIT ( $, .RADIAN. ) );
#191 = SURFACE_STYLE_FILL_AREA ( #223 ) ;
#192 = CIRCLE ( 'NONE', #161, 10.00000000000000178 ) ;
#193 = DIRECTION ( 'NONE',  ( -0.000000000000000000, -1.000000000000000000, -0.000000000000000000 ) ) ;
#194 = EDGE_CURVE ( 'NONE', #104, #99, #115, .T. ) ;
#195 = DIRECTION ( 'NONE',  ( 0.000000000000000000, 0.000000000000000000, -1.000000000000000000 ) ) ;
#196 = ORIENTED_EDGE ( 'NONE', *, *, #67, .T. ) ;
#197 = UNCERTAINTY_MEASURE_WITH_UNIT (LENGTH_MEASURE( 1.000000000000000082E-05 ), #31, 'distance_accuracy_value', 'NONE');
#198 = SURFACE_SIDE_STYLE ('',( #126 ) ) ;
#199 = DIRECTION ( 'NONE',  ( 0.000000000000000000, 0.000000000000000000, -1.000000000000000000 ) ) ;
#200 =( LENGTH_UNIT ( ) NAMED_UNIT ( * ) SI_UNIT ( .MILLI., .METRE. ) );
#201 = AXIS2_PLACEMENT_3D ( 'NONE', #76, #40, #144 ) ;
#202 = VERTEX_POINT ( 'NONE', #170 ) ;
#203 = ADVANCED_FACE ( 'NONE', ( #238 ), #61, .T. ) ;
#204 = CARTESIAN_POINT ( 'NONE',  ( -1.714505518806293849E-15, 89.00000000000000000, 0.000000000000000000 ) ) ;
#205 = SURFACE_STYLE_USAGE ( .BOTH. , #209 ) ;
#206 = AXIS2_PLACEMENT_3D ( 'NONE', #204, #39, #286 ) ;
#207 = COLOUR_RGB ( '',1.000000000000000000, 0.000000000000000000, 0.000000000000000000 ) ;
#208 = ADVANCED_FACE ( 'NONE', ( #147 ), #10, .T. ) ;
#209 = SURFACE_SIDE_STYLE ('',( #113 ) ) ;
#210 = ADVANCED_FACE ( 'NONE', ( #87 ), #179, .F. ) ;
#211 = PRESENTATION_LAYER_ASSIGNMENT (  '', '', ( #217 ) ) ;
#212 = SURFACE_STYLE_USAGE ( .BOTH. , #27 ) ;
#213 = AXIS2_PLACEMENT_3D ( 'NONE', #46, #159, #229 ) ;
#214 = DIRECTION ( 'NONE',  ( -0.000000000000000000, -1.000000000000000000, -0.000000000000000000 ) ) ;
#215 = DIRECTION ( 'NONE',  ( -0.000000000000000000, -1.000000000000000000, -0.000000000000000000 ) ) ;
#216 = AXIS2_PLACEMENT_3D ( 'NONE', #92, #274, #32 ) ;
#217 = STYLED_ITEM ( 'NONE', ( #23 ), #232 ) ;
#218 = SURFACE_STYLE_USAGE ( .BOTH. , #100 ) ;
#219 = DIRECTION ( 'NONE',  ( -0.000000000000000000, -1.000000000000000000, -0.000000000000000000 ) ) ;
#220 = FILL_AREA_STYLE ('',( #240 ) ) ;
#221 = DIRECTION ( 'NONE',  ( -2.905941557298803228E-17, 1.000000000000000000, -0.000000000000000000 ) ) ;
#222 = COLOUR_RGB ( '',1.000000000000000000, 0.000000000000000000, 0.000000000000000000 ) ;
#223 = FILL_AREA_STYLE ('',( #28 ) ) ;
#224 = EDGE_LOOP ( 'NONE', ( #253, #125 ) ) ;
#225 = ORIENTED_EDGE ( 'NONE', *, *, #91, .T. ) ;
#226 = PRODUCT_DEFINITION_SHAPE ( 'NONE', 'NONE',  #14 ) ;
#227 =( NAMED_UNIT ( * ) SI_UNIT ( $, .STERADIAN. ) SOLID_ANGLE_UNIT ( ) );
#228 = DIRECTION ( 'NONE',  ( 0.000000000000000000, 0.000000000000000000, -1.000000000000000000 ) ) ;
#229 = DIRECTION ( 'NONE',  ( 0.000000000000000000, 0.000000000000000000, -1.000000000000000000 ) ) ;
#230 = COLOUR_RGB ( '',0.7921568627450980005, 0.8196078431372548767, 0.9333333333333333481 ) ;
#231 = FILL_AREA_STYLE_COLOUR ( '', #17 ) ;
#232 = MANIFOLD_SOLID_BREP ( 'Revolve - Cutting Edge', #48 ) ;
#233 = EDGE_CURVE ( 'NONE', #154, #239, #103, .T. ) ;
#234 = CARTESIAN_POINT ( 'NONE',  ( 0.000000000000000000, 0.000000000000000000, 0.000000000000000000 ) ) ;
#235 = EDGE_LOOP ( 'NONE', ( #62, #241 ) ) ;
#236 = AXIS2_PLACEMENT_3D ( 'NONE', #30, #215, #116 ) ;
#237 = MECHANICAL_DESIGN_GEOMETRIC_PRESENTATION_REPRESENTATION (  '', ( #217 ), #182 ) ;
#238 = FACE_OUTER_BOUND ( 'NONE', #63, .T. ) ;
#239 = VERTEX_POINT ( 'NONE', #64 ) ;
#240 = FILL_AREA_STYLE_COLOUR ( '', #222 ) ;
#241 = ORIENTED_EDGE ( 'NONE', *, *, #67, .F. ) ;
#242 = SURFACE_SIDE_STYLE ('',( #191 ) ) ;
#243 = VERTEX_POINT ( 'NONE', #244 ) ;
#244 = CARTESIAN_POINT ( 'NONE',  ( 0.000000000000000000, 0.000000000000000000, -10.00000000000000000 ) ) ;
#245 = ORIENTED_EDGE ( 'NONE', *, *, #114, .T. ) ;
#246 = DIRECTION ( 'NONE',  ( 1.000000000000000000, 0.000000000000000000, 0.000000000000000000 ) ) ;
#247 = CARTESIAN_POINT ( 'NONE',  ( 1.224646799147353256E-15, 30.00000000000000000, 10.00000000000000000 ) ) ;
#248 = VECTOR ( 'NONE', #68, 1000.000000000000000 ) ;
#249 = PRESENTATION_LAYER_ASSIGNMENT (  '', '', ( #12 ) ) ;
#250 = FILL_AREA_STYLE ('',( #163 ) ) ;
#251 = FACE_OUTER_BOUND ( 'NONE', #22, .T. ) ;
#252 = CYLINDRICAL_SURFACE ( 'NONE', #138, 10.00000000000000178 ) ;
#253 = ORIENTED_EDGE ( 'NONE', *, *, #91, .F. ) ;
#254 = ADVANCED_BREP_SHAPE_REPRESENTATION ( '59589', ( #232, #137, #110 ), #157 ) ;
#255 =( NAMED_UNIT ( * ) SI_UNIT ( $, .STERADIAN. ) SOLID_ANGLE_UNIT ( ) );
#256 = CARTESIAN_POINT ( 'NONE',  ( 4.222248167218096493E-33, 30.00000000000000000, 0.000000000000000000 ) ) ;
#257 = STYLED_ITEM ( 'NONE', ( #85 ), #168 ) ;
#258 = UNCERTAINTY_MEASURE_WITH_UNIT (LENGTH_MEASURE( 1.000000000000000082E-05 ), #2, 'distance_accuracy_value', 'NONE');
#259 = SURFACE_STYLE_USAGE ( .BOTH. , #198 ) ;
#260 = ORIENTED_EDGE ( 'NONE', *, *, #47, .T. ) ;
#261 =( NAMED_UNIT ( * ) PLANE_ANGLE_UNIT ( ) SI_UNIT ( $, .RADIAN. ) );
#262 = ORIENTED_EDGE ( 'NONE', *, *, #75, .T. ) ;
#263 = SURFACE_STYLE_FILL_AREA ( #220 ) ;
#264 = EDGE_LOOP ( 'NONE', ( #245, #106 ) ) ;
#265 = CLOSED_SHELL ( 'NONE', ( #101, #1, #35, #210 ) ) ;
#266 = CARTESIAN_POINT ( 'NONE',  ( 0.000000000000000000, 0.000000000000000000, 0.000000000000000000 ) ) ;
#267 = CARTESIAN_POINT ( 'NONE',  ( 0.000000000000000000, 0.000000000000000000, 0.000000000000000000 ) ) ;
#268 = PRESENTATION_LAYER_ASSIGNMENT (  '', '', ( #11 ) ) ;
#269 = UNCERTAINTY_MEASURE_WITH_UNIT (LENGTH_MEASURE( 1.000000000000000082E-05 ), #21, 'distance_accuracy_value', 'NONE');
#270 = CARTESIAN_POINT ( 'NONE',  ( 0.000000000000000000, 0.000000000000000000, -10.00000000000000000 ) ) ;
#271 = CARTESIAN_POINT ( 'NONE',  ( 1.224646799147353256E-15, 0.000000000000000000, 10.00000000000000000 ) ) ;
#272 = MECHANICAL_DESIGN_GEOMETRIC_PRESENTATION_REPRESENTATION (  '', ( #11 ), #164 ) ;
#273 = MECHANICAL_DESIGN_GEOMETRIC_PRESENTATION_REPRESENTATION (  '', ( #29 ), #171 ) ;
#274 = DIRECTION ( 'NONE',  ( 0.000000000000000000, 1.000000000000000000, 0.000000000000000000 ) ) ;
#275 = DIRECTION ( 'NONE',  ( -0.000000000000000000, -1.000000000000000000, -0.000000000000000000 ) ) ;
#276 = DIRECTION ( 'NONE',  ( -2.905941557298803228E-17, 1.000000000000000000, -0.000000000000000000 ) ) ;
#277 = AXIS2_PLACEMENT_3D ( 'NONE', #58, #193, #54 ) ;
#278 = EDGE_CURVE ( 'NONE', #202, #243, #188, .T. ) ;
#279 = LINE ( 'NONE', #77, #178 ) ;
#280 = CYLINDRICAL_SURFACE ( 'NONE', #206, 10.00000000000000178 ) ;
#281 = CIRCLE ( 'NONE', #213, 10.00000000000000000 ) ;
#282 = UNCERTAINTY_MEASURE_WITH_UNIT (LENGTH_MEASURE( 1.000000000000000082E-05 ), #160, 'distance_accuracy_value', 'NONE');
#283 = EDGE_LOOP ( 'NONE', ( #84, #41, #130, #150 ) ) ;
#284 =( NAMED_UNIT ( * ) SI_UNIT ( $, .STERADIAN. ) SOLID_ANGLE_UNIT ( ) );
#285 = ORIENTED_EDGE ( 'NONE', *, *, #55, .T. ) ;
#286 = DIRECTION ( 'NONE',  ( -1.000000000000000000, 0.000000000000000000, 0.000000000000000000 ) ) ;
#287 = DIRECTION ( 'NONE',  ( 0.000000000000000000, 0.000000000000000000, 1.000000000000000000 ) ) ;
#288 = AXIS2_PLACEMENT_3D ( 'NONE', #234, #173, #195 ) ;
ENDSEC;
END-ISO-10303-21;
