ISO-10303-21;
HEADER;
FILE_DESCRIPTION (( 'STEP AP214' ),
    '1' );
FILE_NAME ('83409.STEP',
    '2023-06-23T09:52:10',
    ( '' ),
    ( '' ),
    'SwSTEP 2.0',
    'SolidWorks 2023',
    '' );
FILE_SCHEMA (( 'AUTOMOTIVE_DESIGN' ));
ENDSEC;

DATA;
#1 = CARTESIAN_POINT ( 'NONE',  ( 0.000000000000000000, 0.4374999999999998890, 0.000000000000000000 ) ) ;
#2 = SURFACE_SIDE_STYLE ('',( #198 ) ) ;
#3 = CLOSED_SHELL ( 'NONE', ( #123, #45, #264, #81 ) ) ;
#4 = AXIS2_PLACEMENT_3D ( 'NONE', #29, #290, #23 ) ;
#5 =( CONVERSION_BASED_UNIT ( 'INCH', #173 ) LENGTH_UNIT ( ) NAMED_UNIT ( #139 ) );
#6 = PRESENTATION_STYLE_ASSIGNMENT (( #126 ) ) ;
#7 = SURFACE_STYLE_FILL_AREA ( #202 ) ;
#8 = CIRCLE ( 'NONE', #263, 0.09375000000000001388 ) ;
#9 = LENGTH_MEASURE_WITH_UNIT ( LENGTH_MEASURE( 0.02539999999999999897 ), #251 );
#10 = EDGE_LOOP ( 'NONE', ( #58, #80, #33, #127 ) ) ;
#11 = ORIENTED_EDGE ( 'NONE', *, *, #188, .F. ) ;
#12 =( CONVERSION_BASED_UNIT ( 'INCH', #186 ) LENGTH_UNIT ( ) NAMED_UNIT ( #281 ) );
#13 = EDGE_LOOP ( 'NONE', ( #298, #300 ) ) ;
#14 =( GEOMETRIC_REPRESENTATION_CONTEXT ( 3 ) GLOBAL_UNCERTAINTY_ASSIGNED_CONTEXT ( ( #238 ) ) GLOBAL_UNIT_ASSIGNED_CONTEXT ( ( #190, #87, #213 ) ) REPRESENTATION_CONTEXT ( 'NONE', 'WORKASPACE' ) );
#15 = SURFACE_SIDE_STYLE ('',( #115 ) ) ;
#16 = EDGE_CURVE ( 'NONE', #130, #107, #21, .T. ) ;
#17 = FILL_AREA_STYLE_COLOUR ( '', #109 ) ;
#18 = DIRECTION ( 'NONE',  ( 3.918869757271530214E-17, 1.000000000000000000, -0.000000000000000000 ) ) ;
#19 = CARTESIAN_POINT ( 'NONE',  ( 1.148106374200643863E-17, 0.000000000000000000, 0.09375000000000001388 ) ) ;
#20 = AXIS2_PLACEMENT_3D ( 'NONE', #181, #155, #179 ) ;
#21 = LINE ( 'NONE', #19, #59 ) ;
#22 = UNCERTAINTY_MEASURE_WITH_UNIT (LENGTH_MEASURE( 1.000000000000000082E-05 ), #216, 'distance_accuracy_value', 'NONE');
#23 = DIRECTION ( 'NONE',  ( -1.000000000000000000, 0.000000000000000000, 0.000000000000000000 ) ) ;
#24 = CARTESIAN_POINT ( 'NONE',  ( 0.000000000000000000, 0.000000000000000000, -0.09375000000000001388 ) ) ;
#25 = CARTESIAN_POINT ( 'NONE',  ( 1.148106374200643863E-17, 0.4375000000000000000, 0.09375000000000001388 ) ) ;
#26 = CARTESIAN_POINT ( 'NONE',  ( 0.000000000000000000, 0.000000000000000000, 0.000000000000000000 ) ) ;
#27 = MECHANICAL_DESIGN_GEOMETRIC_PRESENTATION_REPRESENTATION (  '', ( #262 ), #14 ) ;
#28 = PRESENTATION_LAYER_ASSIGNMENT (  '', '', ( #184 ) ) ;
#29 = CARTESIAN_POINT ( 'NONE',  ( 6.123233995736766036E-17, 2.000000000000000000, 0.000000000000000000 ) ) ;
#30 = EDGE_CURVE ( 'NONE', #182, #82, #283, .T. ) ;
#31 = EDGE_LOOP ( 'NONE', ( #228, #104, #296, #37 ) ) ;
#32 = FILL_AREA_STYLE_COLOUR ( '', #120 ) ;
#33 = ORIENTED_EDGE ( 'NONE', *, *, #136, .F. ) ;
#34 = SURFACE_SIDE_STYLE ('',( #225 ) ) ;
#35 =( GEOMETRIC_REPRESENTATION_CONTEXT ( 3 ) GLOBAL_UNCERTAINTY_ASSIGNED_CONTEXT ( ( #303 ) ) GLOBAL_UNIT_ASSIGNED_CONTEXT ( ( #5, #94, #50 ) ) REPRESENTATION_CONTEXT ( 'NONE', 'WORKASPACE' ) );
#36 = ORIENTED_EDGE ( 'NONE', *, *, #70, .F. ) ;
#37 = ORIENTED_EDGE ( 'NONE', *, *, #293, .F. ) ;
#38 = DIRECTION ( 'NONE',  ( 1.000000000000000000, 0.000000000000000000, 0.000000000000000000 ) ) ;
#39 = FILL_AREA_STYLE ('',( #42 ) ) ;
#40 = FILL_AREA_STYLE ('',( #17 ) ) ;
#41 = SURFACE_STYLE_USAGE ( .BOTH. , #60 ) ;
#42 = FILL_AREA_STYLE_COLOUR ( '', #199 ) ;
#43 = COLOUR_RGB ( '',1.000000000000000000, 0.000000000000000000, 0.000000000000000000 ) ;
#44 = PRESENTATION_STYLE_ASSIGNMENT (( #41 ) ) ;
#45 = ADVANCED_FACE ( 'NONE', ( #308 ), #187, .T. ) ;
#46 = FILL_AREA_STYLE ('',( #121 ) ) ;
#47 = DIRECTION ( 'NONE',  ( -1.000000000000000000, 0.000000000000000000, 0.000000000000000000 ) ) ;
#48 = ADVANCED_FACE ( 'NONE', ( #168 ), #164, .F. ) ;
#49 = DIRECTION ( 'NONE',  ( 3.918869757271530214E-17, 1.000000000000000000, -0.000000000000000000 ) ) ;
#50 =( NAMED_UNIT ( * ) SI_UNIT ( $, .STERADIAN. ) SOLID_ANGLE_UNIT ( ) );
#51 = DIRECTION ( 'NONE',  ( -1.000000000000000000, 0.000000000000000000, 0.000000000000000000 ) ) ;
#52 = CIRCLE ( 'NONE', #153, 0.09375000000000001388 ) ;
#53 = DIRECTION ( 'NONE',  ( -0.000000000000000000, -1.000000000000000000, -0.000000000000000000 ) ) ;
#54 = VERTEX_POINT ( 'NONE', #117 ) ;
#55 = SURFACE_SIDE_STYLE ('',( #7 ) ) ;
#56 =( NAMED_UNIT ( * ) SI_UNIT ( $, .STERADIAN. ) SOLID_ANGLE_UNIT ( ) );
#57 = FACE_OUTER_BOUND ( 'NONE', #13, .T. ) ;
#58 = ORIENTED_EDGE ( 'NONE', *, *, #210, .T. ) ;
#59 = VECTOR ( 'NONE', #284, 39.37007874015748143 ) ;
#60 = SURFACE_SIDE_STYLE ('',( #302 ) ) ;
#61 = PRODUCT_CONTEXT ( 'NONE', #62, 'mechanical' ) ;
#62 = APPLICATION_CONTEXT ( 'automotive_design' ) ;
#63 = PLANE ( 'NONE',  #102 ) ;
#64 = ADVANCED_BREP_SHAPE_REPRESENTATION ( '83409', ( #289, #288, #200 ), #282 ) ;
#65 = MECHANICAL_DESIGN_GEOMETRIC_PRESENTATION_REPRESENTATION (  '', ( #223 ), #295 ) ;
#66 = PRESENTATION_STYLE_ASSIGNMENT (( #291 ) ) ;
#67 = UNCERTAINTY_MEASURE_WITH_UNIT (LENGTH_MEASURE( 1.000000000000000082E-05 ), #224, 'distance_accuracy_value', 'NONE');
#68 = DIMENSIONAL_EXPONENTS ( 1.000000000000000000, 0.000000000000000000, 0.000000000000000000, 0.000000000000000000, 0.000000000000000000, 0.000000000000000000, 0.000000000000000000 ) ;
#69 = DIRECTION ( 'NONE',  ( 3.918869757271530214E-17, 1.000000000000000000, -0.000000000000000000 ) ) ;
#70 = EDGE_CURVE ( 'NONE', #54, #82, #277, .T. ) ;
#71 =( LENGTH_UNIT ( ) NAMED_UNIT ( * ) SI_UNIT ( $, .METRE. ) );
#72 = VECTOR ( 'NONE', #85, 39.37007874015748143 ) ;
#73 = COLOUR_RGB ( '',1.000000000000000000, 0.000000000000000000, 0.000000000000000000 ) ;
#74 = CARTESIAN_POINT ( 'NONE',  ( 0.09375000000000001388, 2.000000000000000000, 1.148106374200643401E-17 ) ) ;
#75 = CARTESIAN_POINT ( 'NONE',  ( 0.000000000000000000, 0.4374999999999998890, 0.000000000000000000 ) ) ;
#76 = STYLED_ITEM ( 'NONE', ( #112 ), #289 ) ;
#77 = CARTESIAN_POINT ( 'NONE',  ( 0.000000000000000000, 0.000000000000000000, 0.000000000000000000 ) ) ;
#78 = ORIENTED_EDGE ( 'NONE', *, *, #136, .T. ) ;
#79 = PLANE ( 'NONE',  #20 ) ;
#80 = ORIENTED_EDGE ( 'NONE', *, *, #16, .T. ) ;
#81 = ADVANCED_FACE ( 'NONE', ( #285 ), #63, .T. ) ;
#82 = VERTEX_POINT ( 'NONE', #74 ) ;
#83 = AXIS2_PLACEMENT_3D ( 'NONE', #297, #274, #125 ) ;
#84 = EDGE_CURVE ( 'NONE', #82, #54, #280, .T. ) ;
#85 = DIRECTION ( 'NONE',  ( 3.918869757271530214E-17, 1.000000000000000000, -0.000000000000000000 ) ) ;
#86 = DIRECTION ( 'NONE',  ( 0.000000000000000000, 0.000000000000000000, -1.000000000000000000 ) ) ;
#87 =( NAMED_UNIT ( * ) PLANE_ANGLE_UNIT ( ) SI_UNIT ( $, .RADIAN. ) );
#88 = CIRCLE ( 'NONE', #267, 0.09375000000000001388 ) ;
#89 = LENGTH_MEASURE_WITH_UNIT ( LENGTH_MEASURE( 0.02539999999999999897 ), #133 );
#90 = UNCERTAINTY_MEASURE_WITH_UNIT (LENGTH_MEASURE( 1.000000000000000082E-05 ), #154, 'distance_accuracy_value', 'NONE');
#91 = DIRECTION ( 'NONE',  ( 0.000000000000000000, 0.000000000000000000, -1.000000000000000000 ) ) ;
#92 = CIRCLE ( 'NONE', #189, 0.09375000000000001388 ) ;
#93 = COLOUR_RGB ( '',0.7921568627450980005, 0.8196078431372548767, 0.9333333333333333481 ) ;
#94 =( NAMED_UNIT ( * ) PLANE_ANGLE_UNIT ( ) SI_UNIT ( $, .RADIAN. ) );
#95 = EDGE_CURVE ( 'NONE', #130, #150, #92, .T. ) ;
#96 = DIRECTION ( 'NONE',  ( -0.000000000000000000, -1.000000000000000000, -0.000000000000000000 ) ) ;
#97 = CARTESIAN_POINT ( 'NONE',  ( 6.123233995736766036E-17, 2.000000000000000000, 0.000000000000000000 ) ) ;
#98 = PRESENTATION_LAYER_ASSIGNMENT (  '', '', ( #223 ) ) ;
#99 = EDGE_CURVE ( 'NONE', #151, #182, #88, .T. ) ;
#100 = SURFACE_STYLE_FILL_AREA ( #301 ) ;
#101 = EDGE_LOOP ( 'NONE', ( #208, #203 ) ) ;
#102 = AXIS2_PLACEMENT_3D ( 'NONE', #309, #171, #91 ) ;
#103 = CIRCLE ( 'NONE', #195, 0.09375000000000001388 ) ;
#104 = ORIENTED_EDGE ( 'NONE', *, *, #95, .T. ) ;
#105 = ORIENTED_EDGE ( 'NONE', *, *, #99, .T. ) ;
#106 = DIRECTION ( 'NONE',  ( -0.000000000000000000, -1.000000000000000000, -0.000000000000000000 ) ) ;
#107 = VERTEX_POINT ( 'NONE', #142 ) ;
#108 =( NAMED_UNIT ( * ) SI_UNIT ( $, .STERADIAN. ) SOLID_ANGLE_UNIT ( ) );
#109 = COLOUR_RGB ( '',1.000000000000000000, 0.000000000000000000, 0.000000000000000000 ) ;
#110 = APPLICATION_PROTOCOL_DEFINITION ( 'draft international standard', 'automotive_design', 1998, #62 ) ;
#111 =( NAMED_UNIT ( * ) PLANE_ANGLE_UNIT ( ) SI_UNIT ( $, .RADIAN. ) );
#112 = PRESENTATION_STYLE_ASSIGNMENT (( #209 ) ) ;
#113 = SHAPE_DEFINITION_REPRESENTATION ( #180, #64 ) ;
#114 = PRESENTATION_LAYER_ASSIGNMENT (  '', '', ( #243 ) ) ;
#115 = SURFACE_STYLE_FILL_AREA ( #39 ) ;
#116 = DIRECTION ( 'NONE',  ( 3.918869757271530214E-17, 1.000000000000000000, -0.000000000000000000 ) ) ;
#117 = CARTESIAN_POINT ( 'NONE',  ( -0.09374999999999987510, 2.000000000000000000, 0.000000000000000000 ) ) ;
#118 = DIMENSIONAL_EXPONENTS ( 1.000000000000000000, 0.000000000000000000, 0.000000000000000000, 0.000000000000000000, 0.000000000000000000, 0.000000000000000000, 0.000000000000000000 ) ;
#119 = DIRECTION ( 'NONE',  ( 3.918869757271530214E-17, 1.000000000000000000, -0.000000000000000000 ) ) ;
#120 = COLOUR_RGB ( '',0.7921568627450980005, 0.8196078431372548767, 0.9333333333333333481 ) ;
#121 = FILL_AREA_STYLE_COLOUR ( '', #43 ) ;
#122 = DIRECTION ( 'NONE',  ( 0.000000000000000000, 0.000000000000000000, -1.000000000000000000 ) ) ;
#123 = ADVANCED_FACE ( 'NONE', ( #197 ), #241, .T. ) ;
#124 =( GEOMETRIC_REPRESENTATION_CONTEXT ( 3 ) GLOBAL_UNCERTAINTY_ASSIGNED_CONTEXT ( ( #90 ) ) GLOBAL_UNIT_ASSIGNED_CONTEXT ( ( #154, #248, #56 ) ) REPRESENTATION_CONTEXT ( 'NONE', 'WORKASPACE' ) );
#125 = DIRECTION ( 'NONE',  ( 0.000000000000000000, 0.000000000000000000, -1.000000000000000000 ) ) ;
#126 = SURFACE_STYLE_USAGE ( .BOTH. , #34 ) ;
#127 = ORIENTED_EDGE ( 'NONE', *, *, #220, .F. ) ;
#128 = AXIS2_PLACEMENT_3D ( 'NONE', #265, #268, #196 ) ;
#129 =( LENGTH_UNIT ( ) NAMED_UNIT ( * ) SI_UNIT ( $, .METRE. ) );
#130 = VERTEX_POINT ( 'NONE', #25 ) ;
#131 =( NAMED_UNIT ( * ) PLANE_ANGLE_UNIT ( ) SI_UNIT ( $, .RADIAN. ) );
#132 = AXIS2_PLACEMENT_3D ( 'NONE', #279, #18, #159 ) ;
#133 =( LENGTH_UNIT ( ) NAMED_UNIT ( * ) SI_UNIT ( $, .METRE. ) );
#134 =( LENGTH_UNIT ( ) NAMED_UNIT ( * ) SI_UNIT ( $, .METRE. ) );
#135 = APPLICATION_PROTOCOL_DEFINITION ( 'draft international standard', 'automotive_design', 1998, #149 ) ;
#136 = EDGE_CURVE ( 'NONE', #206, #107, #103, .T. ) ;
#137 = STYLED_ITEM ( 'NONE', ( #177 ), #264 ) ;
#138 = DIRECTION ( 'NONE',  ( -1.000000000000000000, 0.000000000000000000, 0.000000000000000000 ) ) ;
#139 = DIMENSIONAL_EXPONENTS ( 1.000000000000000000, 0.000000000000000000, 0.000000000000000000, 0.000000000000000000, 0.000000000000000000, 0.000000000000000000, 0.000000000000000000 ) ;
#140 = CARTESIAN_POINT ( 'NONE',  ( 0.000000000000000000, 0.4375000000000000000, 0.000000000000000000 ) ) ;
#141 = PRODUCT_DEFINITION_FORMATION_WITH_SPECIFIED_SOURCE ( 'ANY', '', #152, .NOT_KNOWN. ) ;
#142 = CARTESIAN_POINT ( 'NONE',  ( 1.148106374200643863E-17, 0.000000000000000000, 0.09375000000000001388 ) ) ;
#143 = UNCERTAINTY_MEASURE_WITH_UNIT (LENGTH_MEASURE( 1.000000000000000082E-05 ), #255, 'distance_accuracy_value', 'NONE');
#144 = CARTESIAN_POINT ( 'NONE',  ( -0.09375000000000001388, 0.4374999999999998890, 0.000000000000000000 ) ) ;
#145 = DIRECTION ( 'NONE',  ( -0.000000000000000000, -1.000000000000000000, -0.000000000000000000 ) ) ;
#146 = ORIENTED_EDGE ( 'NONE', *, *, #99, .F. ) ;
#147 = EDGE_CURVE ( 'NONE', #151, #54, #201, .T. ) ;
#148 = LENGTH_MEASURE_WITH_UNIT ( LENGTH_MEASURE( 0.02539999999999999897 ), #129 );
#149 = APPLICATION_CONTEXT ( 'automotive_design' ) ;
#150 = VERTEX_POINT ( 'NONE', #294 ) ;
#151 = VERTEX_POINT ( 'NONE', #144 ) ;
#152 = PRODUCT ( '83409', '83409', '', ( #61 ) ) ;
#153 = AXIS2_PLACEMENT_3D ( 'NONE', #219, #53, #204 ) ;
#154 =( CONVERSION_BASED_UNIT ( 'INCH', #148 ) LENGTH_UNIT ( ) NAMED_UNIT ( #68 ) );
#155 = DIRECTION ( 'NONE',  ( -3.918869757271530214E-17, -1.000000000000000000, 0.000000000000000000 ) ) ;
#156 = EDGE_LOOP ( 'NONE', ( #275, #253, #246, #229 ) ) ;
#157 = CARTESIAN_POINT ( 'NONE',  ( 6.123233995736766036E-17, 2.000000000000000000, 0.000000000000000000 ) ) ;
#158 = AXIS2_PLACEMENT_3D ( 'NONE', #236, #211, #305 ) ;
#159 = DIRECTION ( 'NONE',  ( -1.000000000000000000, 0.000000000000000000, 0.000000000000000000 ) ) ;
#160 = MECHANICAL_DESIGN_GEOMETRIC_PRESENTATION_REPRESENTATION (  '', ( #76 ), #286 ) ;
#161 = SURFACE_STYLE_USAGE ( .BOTH. , #15 ) ;
#162 = ADVANCED_FACE ( 'NONE', ( #174 ), #242, .T. ) ;
#163 = CYLINDRICAL_SURFACE ( 'NONE', #132, 0.09374999999999997224 ) ;
#164 = PLANE ( 'NONE',  #239 ) ;
#165 =( LENGTH_UNIT ( ) NAMED_UNIT ( * ) SI_UNIT ( $, .METRE. ) );
#166 = LENGTH_MEASURE_WITH_UNIT ( LENGTH_MEASURE( 0.02539999999999999897 ), #134 );
#167 = PRESENTATION_LAYER_ASSIGNMENT (  '', '', ( #262 ) ) ;
#168 = FACE_OUTER_BOUND ( 'NONE', #252, .T. ) ;
#169 = AXIS2_PLACEMENT_3D ( 'NONE', #77, #106, #86 ) ;
#170 = DIMENSIONAL_EXPONENTS ( 1.000000000000000000, 0.000000000000000000, 0.000000000000000000, 0.000000000000000000, 0.000000000000000000, 0.000000000000000000, 0.000000000000000000 ) ;
#171 = DIRECTION ( 'NONE',  ( 0.000000000000000000, -1.000000000000000000, -0.000000000000000000 ) ) ;
#172 = MECHANICAL_DESIGN_GEOMETRIC_PRESENTATION_REPRESENTATION (  '', ( #184 ), #35 ) ;
#173 = LENGTH_MEASURE_WITH_UNIT ( LENGTH_MEASURE( 0.02539999999999999897 ), #71 );
#174 = FACE_OUTER_BOUND ( 'NONE', #178, .T. ) ;
#175 = LINE ( 'NONE', #227, #244 ) ;
#176 = MECHANICAL_DESIGN_GEOMETRIC_PRESENTATION_REPRESENTATION (  '', ( #137 ), #124 ) ;
#177 = PRESENTATION_STYLE_ASSIGNMENT (( #276 ) ) ;
#178 = EDGE_LOOP ( 'NONE', ( #105, #205, #36, #249 ) ) ;
#179 = DIRECTION ( 'NONE',  ( 1.000000000000000000, -3.918869757271530214E-17, 0.000000000000000000 ) ) ;
#180 = PRODUCT_DEFINITION_SHAPE ( 'NONE', 'NONE',  #247 ) ;
#181 = CARTESIAN_POINT ( 'NONE',  ( 0.09375000000000001388, 2.000000000000000000, 0.000000000000000000 ) ) ;
#182 = VERTEX_POINT ( 'NONE', #218 ) ;
#183 = AXIS2_PLACEMENT_3D ( 'NONE', #157, #217, #138 ) ;
#184 = STYLED_ITEM ( 'NONE', ( #66 ), #123 ) ;
#185 = FACE_OUTER_BOUND ( 'NONE', #31, .T. ) ;
#186 = LENGTH_MEASURE_WITH_UNIT ( LENGTH_MEASURE( 0.02539999999999999897 ), #232 );
#187 = PLANE ( 'NONE',  #158 ) ;
#188 = EDGE_CURVE ( 'NONE', #182, #151, #8, .T. ) ;
#189 = AXIS2_PLACEMENT_3D ( 'NONE', #140, #96, #221 ) ;
#190 =( CONVERSION_BASED_UNIT ( 'INCH', #166 ) LENGTH_UNIT ( ) NAMED_UNIT ( #258 ) );
#191 =( NAMED_UNIT ( * ) SI_UNIT ( $, .STERADIAN. ) SOLID_ANGLE_UNIT ( ) );
#192 = DIRECTION ( 'NONE',  ( -1.000000000000000000, 3.918869757271530214E-17, 0.000000000000000000 ) ) ;
#193 = AXIS2_PLACEMENT_3D ( 'NONE', #97, #49, #269 ) ;
#194 = DIRECTION ( 'NONE',  ( 3.918869757271530214E-17, 1.000000000000000000, -0.000000000000000000 ) ) ;
#195 = AXIS2_PLACEMENT_3D ( 'NONE', #26, #270, #122 ) ;
#196 = DIRECTION ( 'NONE',  ( 0.000000000000000000, 0.000000000000000000, -1.000000000000000000 ) ) ;
#197 = FACE_OUTER_BOUND ( 'NONE', #10, .T. ) ;
#198 = SURFACE_STYLE_FILL_AREA ( #46 ) ;
#199 = COLOUR_RGB ( '',1.000000000000000000, 0.000000000000000000, 0.000000000000000000 ) ;
#200 = AXIS2_PLACEMENT_3D ( 'NONE', #261, #257, #38 ) ;
#201 = LINE ( 'NONE', #240, #272 ) ;
#202 = FILL_AREA_STYLE ('',( #278 ) ) ;
#203 = ORIENTED_EDGE ( 'NONE', *, *, #95, .F. ) ;
#204 = DIRECTION ( 'NONE',  ( 0.000000000000000000, 0.000000000000000000, -1.000000000000000000 ) ) ;
#205 = ORIENTED_EDGE ( 'NONE', *, *, #30, .T. ) ;
#206 = VERTEX_POINT ( 'NONE', #24 ) ;
#207 = FILL_AREA_STYLE_COLOUR ( '', #93 ) ;
#208 = ORIENTED_EDGE ( 'NONE', *, *, #210, .F. ) ;
#209 = SURFACE_STYLE_USAGE ( .BOTH. , #259 ) ;
#210 = EDGE_CURVE ( 'NONE', #150, #130, #52, .T. ) ;
#211 = DIRECTION ( 'NONE',  ( 0.000000000000000000, 1.000000000000000000, 0.000000000000000000 ) ) ;
#212 = LENGTH_MEASURE_WITH_UNIT ( LENGTH_MEASURE( 0.02539999999999999897 ), #165 );
#213 =( NAMED_UNIT ( * ) SI_UNIT ( $, .STERADIAN. ) SOLID_ANGLE_UNIT ( ) );
#214 = CLOSED_SHELL ( 'NONE', ( #162, #48, #306, #287 ) ) ;
#215 = PRESENTATION_LAYER_ASSIGNMENT (  '', '', ( #137 ) ) ;
#216 =( CONVERSION_BASED_UNIT ( 'INCH', #89 ) LENGTH_UNIT ( ) NAMED_UNIT ( #118 ) );
#217 = DIRECTION ( 'NONE',  ( 3.918869757271530214E-17, 1.000000000000000000, -0.000000000000000000 ) ) ;
#218 = CARTESIAN_POINT ( 'NONE',  ( 0.09375000000000001388, 0.4374999999999998890, 1.148106374200643401E-17 ) ) ;
#219 = CARTESIAN_POINT ( 'NONE',  ( 0.000000000000000000, 0.4375000000000000000, 0.000000000000000000 ) ) ;
#220 = EDGE_CURVE ( 'NONE', #150, #206, #175, .T. ) ;
#221 = DIRECTION ( 'NONE',  ( 0.000000000000000000, 0.000000000000000000, -1.000000000000000000 ) ) ;
#222 =( GEOMETRIC_REPRESENTATION_CONTEXT ( 3 ) GLOBAL_UNCERTAINTY_ASSIGNED_CONTEXT ( ( #22 ) ) GLOBAL_UNIT_ASSIGNED_CONTEXT ( ( #216, #111, #234 ) ) REPRESENTATION_CONTEXT ( 'NONE', 'WORKASPACE' ) );
#223 = STYLED_ITEM ( 'NONE', ( #6 ), #288 ) ;
#224 =( CONVERSION_BASED_UNIT ( 'INCH', #9 ) LENGTH_UNIT ( ) NAMED_UNIT ( #266 ) );
#225 = SURFACE_STYLE_FILL_AREA ( #245 ) ;
#226 = ORIENTED_EDGE ( 'NONE', *, *, #293, .T. ) ;
#227 = CARTESIAN_POINT ( 'NONE',  ( 0.000000000000000000, 0.000000000000000000, -0.09375000000000001388 ) ) ;
#228 = ORIENTED_EDGE ( 'NONE', *, *, #16, .F. ) ;
#229 = ORIENTED_EDGE ( 'NONE', *, *, #84, .F. ) ;
#230 =( NAMED_UNIT ( * ) SI_UNIT ( $, .STERADIAN. ) SOLID_ANGLE_UNIT ( ) );
#231 = EDGE_LOOP ( 'NONE', ( #78, #226 ) ) ;
#232 =( LENGTH_UNIT ( ) NAMED_UNIT ( * ) SI_UNIT ( $, .METRE. ) );
#233 = FACE_OUTER_BOUND ( 'NONE', #156, .T. ) ;
#234 =( NAMED_UNIT ( * ) SI_UNIT ( $, .STERADIAN. ) SOLID_ANGLE_UNIT ( ) );
#235 = MECHANICAL_DESIGN_GEOMETRIC_PRESENTATION_REPRESENTATION (  '', ( #243 ), #222 ) ;
#236 = CARTESIAN_POINT ( 'NONE',  ( 0.000000000000000000, 0.4375000000000000000, 0.000000000000000000 ) ) ;
#237 = CARTESIAN_POINT ( 'NONE',  ( 0.09375000000000004163, 2.000000000000000000, 1.148106374200643247E-17 ) ) ;
#238 = UNCERTAINTY_MEASURE_WITH_UNIT (LENGTH_MEASURE( 1.000000000000000082E-05 ), #190, 'distance_accuracy_value', 'NONE');
#239 = AXIS2_PLACEMENT_3D ( 'NONE', #260, #116, #192 ) ;
#240 = CARTESIAN_POINT ( 'NONE',  ( -0.09374999999999990286, 2.000000000000000000, 0.000000000000000000 ) ) ;
#241 = CYLINDRICAL_SURFACE ( 'NONE', #128, 0.09375000000000001388 ) ;
#242 = CYLINDRICAL_SURFACE ( 'NONE', #4, 0.09374999999999997224 ) ;
#243 = STYLED_ITEM ( 'NONE', ( #307 ), #45 ) ;
#244 = VECTOR ( 'NONE', #145, 39.37007874015748143 ) ;
#245 = FILL_AREA_STYLE ('',( #32 ) ) ;
#246 = ORIENTED_EDGE ( 'NONE', *, *, #147, .T. ) ;
#247 = PRODUCT_DEFINITION ( 'UNKNOWN', '', #141, #292 ) ;
#248 =( NAMED_UNIT ( * ) PLANE_ANGLE_UNIT ( ) SI_UNIT ( $, .RADIAN. ) );
#249 = ORIENTED_EDGE ( 'NONE', *, *, #147, .F. ) ;
#250 = PRESENTATION_LAYER_ASSIGNMENT (  '', '', ( #76 ) ) ;
#251 =( LENGTH_UNIT ( ) NAMED_UNIT ( * ) SI_UNIT ( $, .METRE. ) );
#252 = EDGE_LOOP ( 'NONE', ( #146, #11 ) ) ;
#253 = ORIENTED_EDGE ( 'NONE', *, *, #188, .T. ) ;
#254 = UNCERTAINTY_MEASURE_WITH_UNIT (LENGTH_MEASURE( 1.000000000000000082E-05 ), #12, 'distance_accuracy_value', 'NONE');
#255 =( CONVERSION_BASED_UNIT ( 'INCH', #212 ) LENGTH_UNIT ( ) NAMED_UNIT ( #170 ) );
#256 = CIRCLE ( 'NONE', #169, 0.09375000000000001388 ) ;
#257 = DIRECTION ( 'NONE',  ( 0.000000000000000000, 0.000000000000000000, 1.000000000000000000 ) ) ;
#258 = DIMENSIONAL_EXPONENTS ( 1.000000000000000000, 0.000000000000000000, 0.000000000000000000, 0.000000000000000000, 0.000000000000000000, 0.000000000000000000, 0.000000000000000000 ) ;
#259 = SURFACE_SIDE_STYLE ('',( #100 ) ) ;
#260 = CARTESIAN_POINT ( 'NONE',  ( 7.198846956776916766E-35, 0.4375000000000000000, 0.000000000000000000 ) ) ;
#261 = CARTESIAN_POINT ( 'NONE',  ( 0.000000000000000000, 0.000000000000000000, 0.000000000000000000 ) ) ;
#262 = STYLED_ITEM ( 'NONE', ( #44 ), #81 ) ;
#263 = AXIS2_PLACEMENT_3D ( 'NONE', #1, #69, #47 ) ;
#264 = ADVANCED_FACE ( 'NONE', ( #185 ), #271, .T. ) ;
#265 = CARTESIAN_POINT ( 'NONE',  ( 0.000000000000000000, 0.000000000000000000, 0.000000000000000000 ) ) ;
#266 = DIMENSIONAL_EXPONENTS ( 1.000000000000000000, 0.000000000000000000, 0.000000000000000000, 0.000000000000000000, 0.000000000000000000, 0.000000000000000000, 0.000000000000000000 ) ;
#267 = AXIS2_PLACEMENT_3D ( 'NONE', #75, #194, #51 ) ;
#268 = DIRECTION ( 'NONE',  ( -0.000000000000000000, -1.000000000000000000, -0.000000000000000000 ) ) ;
#269 = DIRECTION ( 'NONE',  ( -1.000000000000000000, 0.000000000000000000, 0.000000000000000000 ) ) ;
#270 = DIRECTION ( 'NONE',  ( -0.000000000000000000, -1.000000000000000000, -0.000000000000000000 ) ) ;
#271 = CYLINDRICAL_SURFACE ( 'NONE', #83, 0.09375000000000001388 ) ;
#272 = VECTOR ( 'NONE', #119, 39.37007874015748143 ) ;
#273 = PRODUCT_RELATED_PRODUCT_CATEGORY ( 'part', '', ( #152 ) ) ;
#274 = DIRECTION ( 'NONE',  ( -0.000000000000000000, -1.000000000000000000, -0.000000000000000000 ) ) ;
#275 = ORIENTED_EDGE ( 'NONE', *, *, #30, .F. ) ;
#276 = SURFACE_STYLE_USAGE ( .BOTH. , #55 ) ;
#277 = CIRCLE ( 'NONE', #183, 0.09374999999999994449 ) ;
#278 = FILL_AREA_STYLE_COLOUR ( '', #73 ) ;
#279 = CARTESIAN_POINT ( 'NONE',  ( 6.123233995736766036E-17, 2.000000000000000000, 0.000000000000000000 ) ) ;
#280 = CIRCLE ( 'NONE', #193, 0.09374999999999994449 ) ;
#281 = DIMENSIONAL_EXPONENTS ( 1.000000000000000000, 0.000000000000000000, 0.000000000000000000, 0.000000000000000000, 0.000000000000000000, 0.000000000000000000, 0.000000000000000000 ) ;
#282 =( GEOMETRIC_REPRESENTATION_CONTEXT ( 3 ) GLOBAL_UNCERTAINTY_ASSIGNED_CONTEXT ( ( #254 ) ) GLOBAL_UNIT_ASSIGNED_CONTEXT ( ( #12, #131, #108 ) ) REPRESENTATION_CONTEXT ( 'NONE', 'WORKASPACE' ) );
#283 = LINE ( 'NONE', #237, #72 ) ;
#284 = DIRECTION ( 'NONE',  ( -0.000000000000000000, -1.000000000000000000, -0.000000000000000000 ) ) ;
#285 = FACE_OUTER_BOUND ( 'NONE', #231, .T. ) ;
#286 =( GEOMETRIC_REPRESENTATION_CONTEXT ( 3 ) GLOBAL_UNCERTAINTY_ASSIGNED_CONTEXT ( ( #143 ) ) GLOBAL_UNIT_ASSIGNED_CONTEXT ( ( #255, #304, #191 ) ) REPRESENTATION_CONTEXT ( 'NONE', 'WORKASPACE' ) );
#287 = ADVANCED_FACE ( 'NONE', ( #57 ), #79, .F. ) ;
#288 = MANIFOLD_SOLID_BREP ( 'Revolve - Tool Body (Straight Shanked)', #214 ) ;
#289 = MANIFOLD_SOLID_BREP ( 'Revolve - Cutting Edge', #3 ) ;
#290 = DIRECTION ( 'NONE',  ( 3.918869757271530214E-17, 1.000000000000000000, -0.000000000000000000 ) ) ;
#291 = SURFACE_STYLE_USAGE ( .BOTH. , #2 ) ;
#292 = PRODUCT_DEFINITION_CONTEXT ( 'detailed design', #149, 'design' ) ;
#293 = EDGE_CURVE ( 'NONE', #107, #206, #256, .T. ) ;
#294 = CARTESIAN_POINT ( 'NONE',  ( 0.000000000000000000, 0.4375000000000000000, -0.09375000000000001388 ) ) ;
#295 =( GEOMETRIC_REPRESENTATION_CONTEXT ( 3 ) GLOBAL_UNCERTAINTY_ASSIGNED_CONTEXT ( ( #67 ) ) GLOBAL_UNIT_ASSIGNED_CONTEXT ( ( #224, #299, #230 ) ) REPRESENTATION_CONTEXT ( 'NONE', 'WORKASPACE' ) );
#296 = ORIENTED_EDGE ( 'NONE', *, *, #220, .T. ) ;
#297 = CARTESIAN_POINT ( 'NONE',  ( 0.000000000000000000, 0.000000000000000000, 0.000000000000000000 ) ) ;
#298 = ORIENTED_EDGE ( 'NONE', *, *, #70, .T. ) ;
#299 =( NAMED_UNIT ( * ) PLANE_ANGLE_UNIT ( ) SI_UNIT ( $, .RADIAN. ) );
#300 = ORIENTED_EDGE ( 'NONE', *, *, #84, .T. ) ;
#301 = FILL_AREA_STYLE ('',( #207 ) ) ;
#302 = SURFACE_STYLE_FILL_AREA ( #40 ) ;
#303 = UNCERTAINTY_MEASURE_WITH_UNIT (LENGTH_MEASURE( 1.000000000000000082E-05 ), #5, 'distance_accuracy_value', 'NONE');
#304 =( NAMED_UNIT ( * ) PLANE_ANGLE_UNIT ( ) SI_UNIT ( $, .RADIAN. ) );
#305 = DIRECTION ( 'NONE',  ( 0.000000000000000000, -0.000000000000000000, 1.000000000000000000 ) ) ;
#306 = ADVANCED_FACE ( 'NONE', ( #233 ), #163, .T. ) ;
#307 = PRESENTATION_STYLE_ASSIGNMENT (( #161 ) ) ;
#308 = FACE_OUTER_BOUND ( 'NONE', #101, .T. ) ;
#309 = CARTESIAN_POINT ( 'NONE',  ( 0.000000000000000000, 0.000000000000000000, 0.000000000000000000 ) ) ;
ENDSEC;
END-ISO-10303-21;
