ISO-10303-21;
HEADER;
FILE_DESCRIPTION (( 'STEP AP214' ),
    '1' );
FILE_NAME ('Micro_AEMM-055-2.STEP',
    '2022-03-15T14:26:48',
    ( '' ),
    ( '' ),
    'SwSTEP 2.0',
    'SolidWorks 2022',
    '' );
FILE_SCHEMA (( 'AUTOMOTIVE_DESIGN' ));
ENDSEC;

DATA;
#1 = CARTESIAN_POINT ( 'NONE',  ( 8.405419723147960063E-17, 0.000000000000000000, 0.6863546068139924072 ) ) ;
#2 = DIRECTION ( 'NONE',  ( 1.000000000000000000, 0.000000000000000000, 0.000000000000000000 ) ) ;
#3 = ORIENTED_EDGE ( 'NONE', *, *, #221, .F. ) ;
#4 = EDGE_CURVE ( 'NONE', #102, #13, #69, .T. ) ;
#5 = CARTESIAN_POINT ( 'NONE',  ( 0.1081592325000000909, 0.000000000000000000, 0.6299209999999999532 ) ) ;
#6 = EDGE_LOOP ( 'NONE', ( #237, #81 ) ) ;
#7 = EDGE_LOOP ( 'NONE', ( #60, #79 ) ) ;
#8 = AXIS2_PLACEMENT_3D ( 'NONE', #92, #94, #278 ) ;
#9 = AXIS2_PLACEMENT_3D ( 'NONE', #205, #212, #97 ) ;
#10 = EDGE_CURVE ( 'NONE', #13, #76, #28, .T. ) ;
#11 = ORIENTED_EDGE ( 'NONE', *, *, #99, .T. ) ;
#12 = DIRECTION ( 'NONE',  ( -0.1736481776669311639, 2.126576849575782392E-17, 0.9848077530122080203 ) ) ;
#13 = VERTEX_POINT ( 'NONE', #20 ) ;
#14 = AXIS2_PLACEMENT_3D ( 'NONE', #164, #258, #150 ) ;
#15 = AXIS2_PLACEMENT_3D ( 'NONE', #274, #87, #106 ) ;
#16 = FILL_AREA_STYLE ('',( #108 ) ) ;
#17 = PRODUCT_DEFINITION_SHAPE ( 'NONE', 'NONE',  #250 ) ;
#18 = PRESENTATION_LAYER_ASSIGNMENT (  '', '', ( #46 ) ) ;
#19 = FACE_OUTER_BOUND ( 'NONE', #287, .T. ) ;
#20 = CARTESIAN_POINT ( 'NONE',  ( -0.1181100000000000066, 0.000000000000000000, 2.229093999999999465 ) ) ;
#21 = APPLICATION_PROTOCOL_DEFINITION ( 'draft international standard', 'automotive_design', 1998, #139 ) ;
#22 = AXIS2_PLACEMENT_3D ( 'NONE', #188, #49, #241 ) ;
#23 = FACE_OUTER_BOUND ( 'NONE', #282, .T. ) ;
#24 = CARTESIAN_POINT ( 'NONE',  ( 1.622128670270733258E-33, 0.000000000000000000, 1.324568578793593648E-17 ) ) ;
#25 = CARTESIAN_POINT ( 'NONE',  ( 0.1181100000000000899, 1.446430334472940009E-17, 0.6863546068139924072 ) ) ;
#26 = ORIENTED_EDGE ( 'NONE', *, *, #10, .T. ) ;
#27 = EDGE_CURVE ( 'NONE', #76, #52, #244, .T. ) ;
#28 = LINE ( 'NONE', #57, #40 ) ;
#29 = ORIENTED_EDGE ( 'NONE', *, *, #255, .F. ) ;
#30 = MECHANICAL_DESIGN_GEOMETRIC_PRESENTATION_REPRESENTATION (  '', ( #46 ), #231 ) ;
#31 = CARTESIAN_POINT ( 'NONE',  ( 0.1081592324999999938, 1.324568578793593648E-17, -1.324568578793593648E-17 ) ) ;
#32 = VERTEX_POINT ( 'NONE', #121 ) ;
#33 = DIRECTION ( 'NONE',  ( 0.000000000000000000, 0.000000000000000000, 1.000000000000000000 ) ) ;
#34 = ADVANCED_FACE ( 'NONE', ( #103 ), #127, .T. ) ;
#35 = CARTESIAN_POINT ( 'NONE',  ( 0.000000000000000000, 0.000000000000000000, 2.244094000000000033 ) ) ;
#36 = COLOUR_RGB ( '',0.7921568627450980005, 0.8196078431372548767, 0.9333333333333333481 ) ;
#37 = DIRECTION ( 'NONE',  ( 1.000000000000000000, 0.000000000000000000, 0.000000000000000000 ) ) ;
#38 =( NAMED_UNIT ( * ) PLANE_ANGLE_UNIT ( ) SI_UNIT ( $, .RADIAN. ) );
#39 = UNCERTAINTY_MEASURE_WITH_UNIT (LENGTH_MEASURE( 1.000000000000000082E-05 ), #233, 'distance_accuracy_value', 'NONE');
#40 = VECTOR ( 'NONE', #129, 39.37007874015748143 ) ;
#41 = CARTESIAN_POINT ( 'NONE',  ( 0.000000000000000000, 0.000000000000000000, 2.244094000000000033 ) ) ;
#42 = ADVANCED_FACE ( 'NONE', ( #284 ), #216, .T. ) ;
#43 = CONICAL_SURFACE ( 'NONE', #8, 0.1081592325000000077, 0.1745329251994338360 ) ;
#44 = CARTESIAN_POINT ( 'NONE',  ( 1.622128670270733258E-33, 0.000000000000000000, 1.324568578793593648E-17 ) ) ;
#45 = AXIS2_PLACEMENT_3D ( 'NONE', #1, #73, #59 ) ;
#46 = STYLED_ITEM ( 'NONE', ( #133 ), #219 ) ;
#47 = SURFACE_STYLE_USAGE ( .BOTH. , #256 ) ;
#48 = DIMENSIONAL_EXPONENTS ( 1.000000000000000000, 0.000000000000000000, 0.000000000000000000, 0.000000000000000000, 0.000000000000000000, 0.000000000000000000, 0.000000000000000000 ) ;
#49 = DIRECTION ( 'NONE',  ( 0.000000000000000000, 0.000000000000000000, -1.000000000000000000 ) ) ;
#50 = DIRECTION ( 'NONE',  ( -1.000000000000000000, 0.000000000000000000, 1.224646799147353207E-16 ) ) ;
#51 = DIRECTION ( 'NONE',  ( -1.000000000000000000, 0.000000000000000000, 0.000000000000000000 ) ) ;
#52 = VERTEX_POINT ( 'NONE', #25 ) ;
#53 = AXIS2_PLACEMENT_3D ( 'NONE', #35, #177, #245 ) ;
#54 = APPLICATION_CONTEXT ( 'automotive_design' ) ;
#55 = CIRCLE ( 'NONE', #67, 0.1031100000000002570 ) ;
#56 = DIRECTION ( 'NONE',  ( -1.224646799147353207E-16, -0.000000000000000000, -1.000000000000000000 ) ) ;
#57 = CARTESIAN_POINT ( 'NONE',  ( -0.1181100000000000066, 0.000000000000000000, 2.244094000000000033 ) ) ;
#58 = VERTEX_POINT ( 'NONE', #5 ) ;
#59 = DIRECTION ( 'NONE',  ( 1.000000000000000000, 0.000000000000000000, 0.000000000000000000 ) ) ;
#60 = ORIENTED_EDGE ( 'NONE', *, *, #246, .T. ) ;
#61 = ORIENTED_EDGE ( 'NONE', *, *, #172, .F. ) ;
#62 = EDGE_CURVE ( 'NONE', #58, #218, #89, .T. ) ;
#63 = UNCERTAINTY_MEASURE_WITH_UNIT (LENGTH_MEASURE( 1.000000000000000082E-05 ), #182, 'distance_accuracy_value', 'NONE');
#64 = CARTESIAN_POINT ( 'NONE',  ( -0.1081592324999999244, 1.385499456633266443E-17, 0.6299209999999999532 ) ) ;
#65 = EDGE_CURVE ( 'NONE', #218, #76, #143, .T. ) ;
#66 = CYLINDRICAL_SURFACE ( 'NONE', #232, 0.1181100000000000066 ) ;
#67 = AXIS2_PLACEMENT_3D ( 'NONE', #297, #249, #37 ) ;
#68 = CYLINDRICAL_SURFACE ( 'NONE', #9, 0.1081592324999999938 ) ;
#69 = CIRCLE ( 'NONE', #22, 0.1181100000000000066 ) ;
#70 = CONICAL_SURFACE ( 'NONE', #169, 0.1031100000000002570, 0.7853981633974318477 ) ;
#71 = EDGE_CURVE ( 'NONE', #58, #52, #194, .T. ) ;
#72 = LENGTH_MEASURE_WITH_UNIT ( LENGTH_MEASURE( 0.02539999999999999897 ), #257 );
#73 = DIRECTION ( 'NONE',  ( -1.224646799147353207E-16, -0.000000000000000000, -1.000000000000000000 ) ) ;
#74 = ORIENTED_EDGE ( 'NONE', *, *, #183, .T. ) ;
#75 = FACE_OUTER_BOUND ( 'NONE', #7, .T. ) ;
#76 = VERTEX_POINT ( 'NONE', #235 ) ;
#77 = ADVANCED_FACE ( 'NONE', ( #23 ), #123, .T. ) ;
#78 = ORIENTED_EDGE ( 'NONE', *, *, #255, .T. ) ;
#79 = ORIENTED_EDGE ( 'NONE', *, *, #240, .T. ) ;
#80 = DIRECTION ( 'NONE',  ( 0.1736481776669313304, 0.000000000000000000, 0.9848077530122077983 ) ) ;
#81 = ORIENTED_EDGE ( 'NONE', *, *, #126, .T. ) ;
#82 = ADVANCED_FACE ( 'NONE', ( #75 ), #166, .F. ) ;
#83 = DIRECTION ( 'NONE',  ( 0.7071067811865358044, 8.659560562354788645E-17, -0.7071067811865590080 ) ) ;
#84 = CARTESIAN_POINT ( 'NONE',  ( -0.1031100000000002570, 0.000000000000000000, 2.244094000000000033 ) ) ;
#85 = CIRCLE ( 'NONE', #90, 0.1081592324999999938 ) ;
#86 = VECTOR ( 'NONE', #80, 39.37007874015748143 ) ;
#87 = DIRECTION ( 'NONE',  ( 0.000000000000000000, 0.000000000000000000, -1.000000000000000000 ) ) ;
#88 =( NAMED_UNIT ( * ) PLANE_ANGLE_UNIT ( ) SI_UNIT ( $, .RADIAN. ) );
#89 = CIRCLE ( 'NONE', #285, 0.1081592325000000077 ) ;
#90 = AXIS2_PLACEMENT_3D ( 'NONE', #24, #163, #50 ) ;
#91 = DIRECTION ( 'NONE',  ( -1.000000000000000000, 0.000000000000000000, 1.224646799147353207E-16 ) ) ;
#92 = CARTESIAN_POINT ( 'NONE',  ( 7.714307363656999460E-17, 0.000000000000000000, 0.6299209999999999532 ) ) ;
#93 = CARTESIAN_POINT ( 'NONE',  ( 0.000000000000000000, 0.000000000000000000, 0.000000000000000000 ) ) ;
#94 = DIRECTION ( 'NONE',  ( 1.224646799147353207E-16, 0.000000000000000000, 1.000000000000000000 ) ) ;
#95 = ORIENTED_EDGE ( 'NONE', *, *, #246, .F. ) ;
#96 = DIRECTION ( 'NONE',  ( -0.000000000000000000, -0.000000000000000000, -1.000000000000000000 ) ) ;
#97 = DIRECTION ( 'NONE',  ( -1.000000000000000000, 0.000000000000000000, 1.224646799147353207E-16 ) ) ;
#98 = ORIENTED_EDGE ( 'NONE', *, *, #183, .F. ) ;
#99 = EDGE_CURVE ( 'NONE', #13, #102, #261, .T. ) ;
#100 = ORIENTED_EDGE ( 'NONE', *, *, #27, .F. ) ;
#101 = CARTESIAN_POINT ( 'NONE',  ( 7.714307363656999460E-17, 0.000000000000000000, 0.6299209999999999532 ) ) ;
#102 = VERTEX_POINT ( 'NONE', #196 ) ;
#103 = FACE_OUTER_BOUND ( 'NONE', #267, .T. ) ;
#104 = ORIENTED_EDGE ( 'NONE', *, *, #275, .F. ) ;
#105 = CARTESIAN_POINT ( 'NONE',  ( 0.000000000000000000, 0.000000000000000000, 2.244094000000000033 ) ) ;
#106 = DIRECTION ( 'NONE',  ( 1.000000000000000000, 0.000000000000000000, 0.000000000000000000 ) ) ;
#107 = DIRECTION ( 'NONE',  ( 0.000000000000000000, 0.000000000000000000, 1.000000000000000000 ) ) ;
#108 = FILL_AREA_STYLE_COLOUR ( '', #293 ) ;
#109 = DIRECTION ( 'NONE',  ( 1.000000000000000000, 0.000000000000000000, 0.000000000000000000 ) ) ;
#110 = AXIS2_PLACEMENT_3D ( 'NONE', #168, #141, #118 ) ;
#111 = AXIS2_PLACEMENT_3D ( 'NONE', #211, #96, #147 ) ;
#112 = PRODUCT ( 'Micro_AEMM-055-2', 'Micro_AEMM-055-2', '', ( #113 ) ) ;
#113 = PRODUCT_CONTEXT ( 'NONE', #139, 'mechanical' ) ;
#114 = ADVANCED_FACE ( 'NONE', ( #289 ), #295, .T. ) ;
#115 =( NAMED_UNIT ( * ) SI_UNIT ( $, .STERADIAN. ) SOLID_ANGLE_UNIT ( ) );
#116 = FILL_AREA_STYLE ('',( #234 ) ) ;
#117 = ADVANCED_FACE ( 'NONE', ( #154 ), #155, .T. ) ;
#118 = DIRECTION ( 'NONE',  ( -1.000000000000000000, 0.000000000000000000, 0.000000000000000000 ) ) ;
#119 = DIMENSIONAL_EXPONENTS ( 1.000000000000000000, 0.000000000000000000, 0.000000000000000000, 0.000000000000000000, 0.000000000000000000, 0.000000000000000000, 0.000000000000000000 ) ;
#120 = DIRECTION ( 'NONE',  ( 0.000000000000000000, 0.000000000000000000, -1.000000000000000000 ) ) ;
#121 = CARTESIAN_POINT ( 'NONE',  ( 0.1081592324999999938, 1.324568578793593648E-17, 0.000000000000000000 ) ) ;
#122 = FACE_OUTER_BOUND ( 'NONE', #213, .T. ) ;
#123 = CYLINDRICAL_SURFACE ( 'NONE', #111, 0.1181100000000000066 ) ;
#124 = DIRECTION ( 'NONE',  ( -1.000000000000000000, 0.000000000000000000, 0.000000000000000000 ) ) ;
#125 = ORIENTED_EDGE ( 'NONE', *, *, #99, .F. ) ;
#126 = EDGE_CURVE ( 'NONE', #242, #153, #223, .T. ) ;
#127 = CYLINDRICAL_SURFACE ( 'NONE', #181, 0.1081592324999999938 ) ;
#128 = ORIENTED_EDGE ( 'NONE', *, *, #62, .T. ) ;
#129 = DIRECTION ( 'NONE',  ( -0.000000000000000000, -0.000000000000000000, -1.000000000000000000 ) ) ;
#130 = ORIENTED_EDGE ( 'NONE', *, *, #179, .F. ) ;
#131 =( GEOMETRIC_REPRESENTATION_CONTEXT ( 3 ) GLOBAL_UNCERTAINTY_ASSIGNED_CONTEXT ( ( #273 ) ) GLOBAL_UNIT_ASSIGNED_CONTEXT ( ( #283, #88, #160 ) ) REPRESENTATION_CONTEXT ( 'NONE', 'WORKASPACE' ) );
#132 = CARTESIAN_POINT ( 'NONE',  ( -0.1081592324999999244, 1.324568578793593802E-17, 0.6299209999999999532 ) ) ;
#133 = PRESENTATION_STYLE_ASSIGNMENT (( #47 ) ) ;
#134 = CARTESIAN_POINT ( 'NONE',  ( -0.1031100000000002570, 0.000000000000000000, 2.244094000000000033 ) ) ;
#135 = CIRCLE ( 'NONE', #110, 0.1081592325000000077 ) ;
#136 = DIRECTION ( 'NONE',  ( 1.000000000000000000, 0.000000000000000000, 0.000000000000000000 ) ) ;
#137 = VECTOR ( 'NONE', #272, 39.37007874015748854 ) ;
#138 = LENGTH_MEASURE_WITH_UNIT ( LENGTH_MEASURE( 0.02539999999999999897 ), #159 );
#139 = APPLICATION_CONTEXT ( 'automotive_design' ) ;
#140 = PRESENTATION_LAYER_ASSIGNMENT (  '', '', ( #224 ) ) ;
#141 = DIRECTION ( 'NONE',  ( -1.224646799147353207E-16, -0.000000000000000000, -1.000000000000000000 ) ) ;
#142 = DIRECTION ( 'NONE',  ( -1.224646799147353207E-16, -0.000000000000000000, -1.000000000000000000 ) ) ;
#143 = LINE ( 'NONE', #132, #156 ) ;
#144 = CARTESIAN_POINT ( 'NONE',  ( -0.1081592324999999938, 0.000000000000000000, 1.324568578793593648E-17 ) ) ;
#145 = AXIS2_PLACEMENT_3D ( 'NONE', #263, #238, #222 ) ;
#146 = ORIENTED_EDGE ( 'NONE', *, *, #187, .T. ) ;
#147 = DIRECTION ( 'NONE',  ( -1.000000000000000000, 0.000000000000000000, 0.000000000000000000 ) ) ;
#148 = EDGE_LOOP ( 'NONE', ( #264, #239, #125, #149 ) ) ;
#149 = ORIENTED_EDGE ( 'NONE', *, *, #187, .F. ) ;
#150 = DIRECTION ( 'NONE',  ( 1.000000000000000000, 0.000000000000000000, 0.000000000000000000 ) ) ;
#151 = ORIENTED_EDGE ( 'NONE', *, *, #62, .F. ) ;
#152 = MECHANICAL_DESIGN_GEOMETRIC_PRESENTATION_REPRESENTATION (  '', ( #224 ), #131 ) ;
#153 = VERTEX_POINT ( 'NONE', #134 ) ;
#154 = FACE_OUTER_BOUND ( 'NONE', #6, .T. ) ;
#155 = PLANE ( 'NONE',  #254 ) ;
#156 = VECTOR ( 'NONE', #12, 39.37007874015747433 ) ;
#157 = PRODUCT_RELATED_PRODUCT_CATEGORY ( 'part', '', ( #112 ) ) ;
#158 = DIRECTION ( 'NONE',  ( 1.000000000000000000, 0.000000000000000000, -0.000000000000000000 ) ) ;
#159 =( LENGTH_UNIT ( ) NAMED_UNIT ( * ) SI_UNIT ( $, .METRE. ) );
#160 =( NAMED_UNIT ( * ) SI_UNIT ( $, .STERADIAN. ) SOLID_ANGLE_UNIT ( ) );
#161 = DIRECTION ( 'NONE',  ( -1.000000000000000000, 0.000000000000000000, 0.000000000000000000 ) ) ;
#162 = AXIS2_PLACEMENT_3D ( 'NONE', #44, #186, #91 ) ;
#163 = DIRECTION ( 'NONE',  ( -1.224646799147353207E-16, -0.000000000000000000, -1.000000000000000000 ) ) ;
#164 = CARTESIAN_POINT ( 'NONE',  ( 7.714307363656999460E-17, 0.000000000000000000, 0.6299209999999999532 ) ) ;
#165 = ORIENTED_EDGE ( 'NONE', *, *, #4, .F. ) ;
#166 = PLANE ( 'NONE',  #145 ) ;
#167 = VECTOR ( 'NONE', #251, 39.37007874015748143 ) ;
#168 = CARTESIAN_POINT ( 'NONE',  ( 7.714307363656999460E-17, 0.000000000000000000, 0.6299209999999999532 ) ) ;
#169 = AXIS2_PLACEMENT_3D ( 'NONE', #189, #120, #124 ) ;
#170 = ORIENTED_EDGE ( 'NONE', *, *, #65, .F. ) ;
#171 = ORIENTED_EDGE ( 'NONE', *, *, #71, .T. ) ;
#172 = EDGE_CURVE ( 'NONE', #242, #102, #197, .T. ) ;
#173 = ORIENTED_EDGE ( 'NONE', *, *, #240, .F. ) ;
#174 = ORIENTED_EDGE ( 'NONE', *, *, #4, .T. ) ;
#175 = PRESENTATION_STYLE_ASSIGNMENT (( #200 ) ) ;
#176 = ORIENTED_EDGE ( 'NONE', *, *, #10, .F. ) ;
#177 = DIRECTION ( 'NONE',  ( 0.000000000000000000, 0.000000000000000000, -1.000000000000000000 ) ) ;
#178 = LINE ( 'NONE', #84, #137 ) ;
#179 = EDGE_CURVE ( 'NONE', #102, #52, #294, .T. ) ;
#180 = DIRECTION ( 'NONE',  ( 0.000000000000000000, 0.000000000000000000, 1.000000000000000000 ) ) ;
#181 = AXIS2_PLACEMENT_3D ( 'NONE', #93, #56, #206 ) ;
#182 =( CONVERSION_BASED_UNIT ( 'INCH', #138 ) LENGTH_UNIT ( ) NAMED_UNIT ( #48 ) );
#183 = EDGE_CURVE ( 'NONE', #58, #32, #291, .T. ) ;
#184 = SURFACE_STYLE_FILL_AREA ( #116 ) ;
#185 = CIRCLE ( 'NONE', #262, 0.1181100000000000066 ) ;
#186 = DIRECTION ( 'NONE',  ( -1.224646799147353207E-16, -0.000000000000000000, -1.000000000000000000 ) ) ;
#187 = EDGE_CURVE ( 'NONE', #153, #13, #178, .T. ) ;
#188 = CARTESIAN_POINT ( 'NONE',  ( 0.000000000000000000, 0.000000000000000000, 2.229093999999999465 ) ) ;
#189 = CARTESIAN_POINT ( 'NONE',  ( 0.000000000000000000, 0.000000000000000000, 2.244094000000000033 ) ) ;
#190 = EDGE_LOOP ( 'NONE', ( #195, #247, #193, #208 ) ) ;
#191 =( NAMED_UNIT ( * ) SI_UNIT ( $, .STERADIAN. ) SOLID_ANGLE_UNIT ( ) );
#192 = AXIS2_PLACEMENT_3D ( 'NONE', #226, #107, #109 ) ;
#193 = ORIENTED_EDGE ( 'NONE', *, *, #27, .T. ) ;
#194 = LINE ( 'NONE', #288, #86 ) ;
#195 = ORIENTED_EDGE ( 'NONE', *, *, #298, .F. ) ;
#196 = CARTESIAN_POINT ( 'NONE',  ( 0.1181100000000000066, 1.446430334472939084E-17, 2.229093999999999465 ) ) ;
#197 = LINE ( 'NONE', #290, #299 ) ;
#198 = CARTESIAN_POINT ( 'NONE',  ( 0.1181100000000000066, 1.446430334472939084E-17, 2.244094000000000033 ) ) ;
#199 = SURFACE_STYLE_FILL_AREA ( #16 ) ;
#200 = SURFACE_STYLE_USAGE ( .BOTH. , #220 ) ;
#201 = CLOSED_SHELL ( 'NONE', ( #34, #42, #114, #77, #228, #117, #277, #268, #292, #82 ) ) ;
#202 = CIRCLE ( 'NONE', #162, 0.1081592324999999938 ) ;
#203 = LINE ( 'NONE', #144, #286 ) ;
#204 = FACE_OUTER_BOUND ( 'NONE', #265, .T. ) ;
#205 = CARTESIAN_POINT ( 'NONE',  ( 0.000000000000000000, 0.000000000000000000, 0.000000000000000000 ) ) ;
#206 = DIRECTION ( 'NONE',  ( -1.000000000000000000, 0.000000000000000000, 1.224646799147353207E-16 ) ) ;
#207 = CARTESIAN_POINT ( 'NONE',  ( 8.405419723147960063E-17, 0.000000000000000000, 0.6863546068139924072 ) ) ;
#208 = ORIENTED_EDGE ( 'NONE', *, *, #71, .F. ) ;
#209 = DIMENSIONAL_EXPONENTS ( 1.000000000000000000, 0.000000000000000000, 0.000000000000000000, 0.000000000000000000, 0.000000000000000000, 0.000000000000000000, 0.000000000000000000 ) ;
#210 = LENGTH_MEASURE_WITH_UNIT ( LENGTH_MEASURE( 0.02539999999999999897 ), #276 );
#211 = CARTESIAN_POINT ( 'NONE',  ( 0.000000000000000000, 0.000000000000000000, 2.244094000000000033 ) ) ;
#212 = DIRECTION ( 'NONE',  ( -1.224646799147353207E-16, -0.000000000000000000, -1.000000000000000000 ) ) ;
#213 = EDGE_LOOP ( 'NONE', ( #130, #174, #26, #29 ) ) ;
#214 = VERTEX_POINT ( 'NONE', #227 ) ;
#215 = PRODUCT_DEFINITION_FORMATION_WITH_SPECIFIED_SOURCE ( 'ANY', '', #112, .NOT_KNOWN. ) ;
#216 = CONICAL_SURFACE ( 'NONE', #14, 0.1081592325000000077, 0.1745329251994338360 ) ;
#217 = ORIENTED_EDGE ( 'NONE', *, *, #179, .T. ) ;
#218 = VERTEX_POINT ( 'NONE', #64 ) ;
#219 = ADVANCED_BREP_SHAPE_REPRESENTATION ( 'Micro_AEMM-055-2', ( #225, #192 ), #248 ) ;
#220 = SURFACE_SIDE_STYLE ('',( #199 ) ) ;
#221 = EDGE_CURVE ( 'NONE', #153, #242, #55, .T. ) ;
#222 = DIRECTION ( 'NONE',  ( 1.000000000000000000, 0.000000000000000000, -0.000000000000000000 ) ) ;
#223 = CIRCLE ( 'NONE', #279, 0.1031100000000002570 ) ;
#224 = STYLED_ITEM ( 'NONE', ( #175 ), #225 ) ;
#225 = MANIFOLD_SOLID_BREP ( 'Cut-Revolve1', #201 ) ;
#226 = CARTESIAN_POINT ( 'NONE',  ( 0.000000000000000000, 0.000000000000000000, 0.000000000000000000 ) ) ;
#227 = CARTESIAN_POINT ( 'NONE',  ( -0.1081592324999999938, 0.000000000000000000, 2.649137157587187296E-17 ) ) ;
#228 = ADVANCED_FACE ( 'NONE', ( #122 ), #66, .T. ) ;
#229 = PRODUCT_DEFINITION_CONTEXT ( 'detailed design', #54, 'design' ) ;
#230 = DIRECTION ( 'NONE',  ( -0.000000000000000000, -0.000000000000000000, -1.000000000000000000 ) ) ;
#231 =( GEOMETRIC_REPRESENTATION_CONTEXT ( 3 ) GLOBAL_UNCERTAINTY_ASSIGNED_CONTEXT ( ( #63 ) ) GLOBAL_UNIT_ASSIGNED_CONTEXT ( ( #182, #38, #115 ) ) REPRESENTATION_CONTEXT ( 'NONE', 'WORKASPACE' ) );
#232 = AXIS2_PLACEMENT_3D ( 'NONE', #41, #281, #161 ) ;
#233 =( CONVERSION_BASED_UNIT ( 'INCH', #72 ) LENGTH_UNIT ( ) NAMED_UNIT ( #119 ) );
#234 = FILL_AREA_STYLE_COLOUR ( '', #36 ) ;
#235 = CARTESIAN_POINT ( 'NONE',  ( -0.1181099999999999234, 0.000000000000000000, 0.6863546068139924072 ) ) ;
#236 =( NAMED_UNIT ( * ) PLANE_ANGLE_UNIT ( ) SI_UNIT ( $, .RADIAN. ) );
#237 = ORIENTED_EDGE ( 'NONE', *, *, #221, .T. ) ;
#238 = DIRECTION ( 'NONE',  ( 0.000000000000000000, 0.000000000000000000, 1.000000000000000000 ) ) ;
#239 = ORIENTED_EDGE ( 'NONE', *, *, #172, .T. ) ;
#240 = EDGE_CURVE ( 'NONE', #32, #214, #202, .T. ) ;
#241 = DIRECTION ( 'NONE',  ( 1.000000000000000000, 0.000000000000000000, 0.000000000000000000 ) ) ;
#242 = VERTEX_POINT ( 'NONE', #280 ) ;
#243 = DIRECTION ( 'NONE',  ( -1.224646799147353207E-16, -0.000000000000000000, -1.000000000000000000 ) ) ;
#244 = CIRCLE ( 'NONE', #45, 0.1181100000000000066 ) ;
#245 = DIRECTION ( 'NONE',  ( -1.000000000000000000, 0.000000000000000000, 0.000000000000000000 ) ) ;
#246 = EDGE_CURVE ( 'NONE', #214, #32, #85, .T. ) ;
#247 = ORIENTED_EDGE ( 'NONE', *, *, #65, .T. ) ;
#248 =( GEOMETRIC_REPRESENTATION_CONTEXT ( 3 ) GLOBAL_UNCERTAINTY_ASSIGNED_CONTEXT ( ( #39 ) ) GLOBAL_UNIT_ASSIGNED_CONTEXT ( ( #233, #236, #191 ) ) REPRESENTATION_CONTEXT ( 'NONE', 'WORKASPACE' ) );
#249 = DIRECTION ( 'NONE',  ( 0.000000000000000000, 0.000000000000000000, 1.000000000000000000 ) ) ;
#250 = PRODUCT_DEFINITION ( 'UNKNOWN', '', #215, #229 ) ;
#251 = DIRECTION ( 'NONE',  ( -1.224646799147353207E-16, -0.000000000000000000, -1.000000000000000000 ) ) ;
#252 = SHAPE_DEFINITION_REPRESENTATION ( #17, #219 ) ;
#253 = FACE_OUTER_BOUND ( 'NONE', #266, .T. ) ;
#254 = AXIS2_PLACEMENT_3D ( 'NONE', #105, #180, #158 ) ;
#255 = EDGE_CURVE ( 'NONE', #52, #76, #185, .T. ) ;
#256 = SURFACE_SIDE_STYLE ('',( #184 ) ) ;
#257 =( LENGTH_UNIT ( ) NAMED_UNIT ( * ) SI_UNIT ( $, .METRE. ) );
#258 = DIRECTION ( 'NONE',  ( 1.224646799147353207E-16, 0.000000000000000000, 1.000000000000000000 ) ) ;
#259 = DIRECTION ( 'NONE',  ( -1.224646799147353207E-16, -0.000000000000000000, -1.000000000000000000 ) ) ;
#260 = ORIENTED_EDGE ( 'NONE', *, *, #298, .T. ) ;
#261 = CIRCLE ( 'NONE', #15, 0.1181100000000000066 ) ;
#262 = AXIS2_PLACEMENT_3D ( 'NONE', #207, #142, #2 ) ;
#263 = CARTESIAN_POINT ( 'NONE',  ( 0.000000000000000000, 0.000000000000000000, 0.000000000000000000 ) ) ;
#264 = ORIENTED_EDGE ( 'NONE', *, *, #126, .F. ) ;
#265 = EDGE_LOOP ( 'NONE', ( #61, #3, #146, #165 ) ) ;
#266 = EDGE_LOOP ( 'NONE', ( #170, #151, #171, #78 ) ) ;
#267 = EDGE_LOOP ( 'NONE', ( #260, #74, #95, #104 ) ) ;
#268 = ADVANCED_FACE ( 'NONE', ( #253 ), #43, .T. ) ;
#269 = VECTOR ( 'NONE', #230, 39.37007874015748143 ) ;
#270 = ORIENTED_EDGE ( 'NONE', *, *, #275, .T. ) ;
#271 = CARTESIAN_POINT ( 'NONE',  ( 0.000000000000000000, 0.000000000000000000, 2.244094000000000033 ) ) ;
#272 = DIRECTION ( 'NONE',  ( -0.7071067811865358044, 0.000000000000000000, -0.7071067811865590080 ) ) ;
#273 = UNCERTAINTY_MEASURE_WITH_UNIT (LENGTH_MEASURE( 1.000000000000000082E-05 ), #283, 'distance_accuracy_value', 'NONE');
#274 = CARTESIAN_POINT ( 'NONE',  ( 0.000000000000000000, 0.000000000000000000, 2.229093999999999465 ) ) ;
#275 = EDGE_CURVE ( 'NONE', #218, #214, #203, .T. ) ;
#276 =( LENGTH_UNIT ( ) NAMED_UNIT ( * ) SI_UNIT ( $, .METRE. ) );
#277 = ADVANCED_FACE ( 'NONE', ( #204 ), #70, .T. ) ;
#278 = DIRECTION ( 'NONE',  ( 1.000000000000000000, 0.000000000000000000, 0.000000000000000000 ) ) ;
#279 = AXIS2_PLACEMENT_3D ( 'NONE', #271, #33, #136 ) ;
#280 = CARTESIAN_POINT ( 'NONE',  ( 0.1031100000000002570, 1.354581824536888722E-17, 2.244094000000000033 ) ) ;
#281 = DIRECTION ( 'NONE',  ( -0.000000000000000000, -0.000000000000000000, -1.000000000000000000 ) ) ;
#282 = EDGE_LOOP ( 'NONE', ( #11, #217, #100, #176 ) ) ;
#283 =( CONVERSION_BASED_UNIT ( 'INCH', #210 ) LENGTH_UNIT ( ) NAMED_UNIT ( #209 ) );
#284 = FACE_OUTER_BOUND ( 'NONE', #190, .T. ) ;
#285 = AXIS2_PLACEMENT_3D ( 'NONE', #101, #243, #51 ) ;
#286 = VECTOR ( 'NONE', #259, 39.37007874015748143 ) ;
#287 = EDGE_LOOP ( 'NONE', ( #98, #128, #270, #173 ) ) ;
#288 = CARTESIAN_POINT ( 'NONE',  ( 0.1081592325000000909, 0.000000000000000000, 0.6299209999999999532 ) ) ;
#289 = FACE_OUTER_BOUND ( 'NONE', #148, .T. ) ;
#290 = CARTESIAN_POINT ( 'NONE',  ( 0.1031100000000002570, 1.262733314600838667E-17, 2.244094000000000033 ) ) ;
#291 = LINE ( 'NONE', #31, #167 ) ;
#292 = ADVANCED_FACE ( 'NONE', ( #19 ), #68, .T. ) ;
#293 = COLOUR_RGB ( '',0.7921568627450980005, 0.8196078431372548767, 0.9333333333333333481 ) ;
#294 = LINE ( 'NONE', #198, #269 ) ;
#295 = CONICAL_SURFACE ( 'NONE', #53, 0.1031100000000002570, 0.7853981633974318477 ) ;
#296 = APPLICATION_PROTOCOL_DEFINITION ( 'draft international standard', 'automotive_design', 1998, #54 ) ;
#297 = CARTESIAN_POINT ( 'NONE',  ( 0.000000000000000000, 0.000000000000000000, 2.244094000000000033 ) ) ;
#298 = EDGE_CURVE ( 'NONE', #218, #58, #135, .T. ) ;
#299 = VECTOR ( 'NONE', #83, 39.37007874015748854 ) ;
ENDSEC;
END-ISO-10303-21;
