ISO-10303-21;
HEADER;
FILE_DESCRIPTION (( 'STEP AP214' ),
    '1' );
FILE_NAME ('Micro_RTCM-030-1.STEP',
    '2021-09-03T18:18:10',
    ( '' ),
    ( '' ),
    'SwSTEP 2.0',
    'SolidWorks 2020',
    '' );
FILE_SCHEMA (( 'AUTOMOTIVE_DESIGN' ));
ENDSEC;

DATA;
#1 = EDGE_CURVE ( 'NONE', #120, #93, #197, .T. ) ;
#2 = VERTEX_POINT ( 'NONE', #21 ) ;
#3 = AXIS2_PLACEMENT_3D ( 'NONE', #237, #137, #218 ) ;
#4 = DIRECTION ( 'NONE',  ( -1.000000000000000000, 0.0000000000000000000, 0.0000000000000000000 ) ) ;
#5 = DIRECTION ( 'NONE',  ( -1.000000000000000000, 0.0000000000000000000, 0.0000000000000000000 ) ) ;
#6 = DIRECTION ( 'NONE',  ( -1.000000000000000000, 0.0000000000000000000, 0.0000000000000000000 ) ) ;
#7 = AXIS2_PLACEMENT_3D ( 'NONE', #160, #75, #198 ) ;
#8 = FACE_OUTER_BOUND ( 'NONE', #51, .T. ) ;
#9 = DIRECTION ( 'NONE',  ( 1.000000000000000000, 0.0000000000000000000, 0.0000000000000000000 ) ) ;
#10 = DIRECTION ( 'NONE',  ( 1.000000000000000000, 0.0000000000000000000, -0.0000000000000000000 ) ) ;
#11 = CONICAL_SURFACE ( 'NONE', #88, 0.003936999999999995191, 0.2617993877991502960 ) ;
#12 = LINE ( 'NONE', #85, #19 ) ;
#13 = EDGE_CURVE ( 'NONE', #173, #201, #205, .T. ) ;
#14 = LENGTH_MEASURE_WITH_UNIT ( LENGTH_MEASURE( 0.02539999999999999897 ), #87 );
#15 =( NAMED_UNIT ( * ) PLANE_ANGLE_UNIT ( ) SI_UNIT ( $, .RADIAN. ) );
#16 = EDGE_LOOP ( 'NONE', ( #43, #114, #229, #192 ) ) ;
#17 = DIRECTION ( 'NONE',  ( 0.0000000000000000000, 0.0000000000000000000, 1.000000000000000000 ) ) ;
#18 = EDGE_LOOP ( 'NONE', ( #154, #188 ) ) ;
#19 = VECTOR ( 'NONE', #35, 39.37007874015748143 ) ;
#20 = ORIENTED_EDGE ( 'NONE', *, *, #131, .F. ) ;
#21 = CARTESIAN_POINT ( 'NONE',  ( -0.003936999999999995191, 3.857147558594504174E-18, 0.0000000000000000000 ) ) ;
#22 = LINE ( 'NONE', #157, #29 ) ;
#23 = DIRECTION ( 'NONE',  ( -0.0000000000000000000, -0.0000000000000000000, -1.000000000000000000 ) ) ;
#24 = PRODUCT_DEFINITION ( 'UNKNOWN', '', #183, #37 ) ;
#25 = CARTESIAN_POINT ( 'NONE',  ( 0.0000000000000000000, 0.0000000000000000000, 0.0000000000000000000 ) ) ;
#26 = FACE_OUTER_BOUND ( 'NONE', #39, .T. ) ;
#27 = CARTESIAN_POINT ( 'NONE',  ( 0.0000000000000000000, 0.0000000000000000000, 1.481062999999999574 ) ) ;
#28 = EDGE_CURVE ( 'NONE', #2, #168, #193, .T. ) ;
#29 = VECTOR ( 'NONE', #40, 39.37007874015748143 ) ;
#30 = FACE_OUTER_BOUND ( 'NONE', #16, .T. ) ;
#31 =( CONVERSION_BASED_UNIT ( 'INCH', #142 ) LENGTH_UNIT ( ) NAMED_UNIT ( #235 ) );
#32 =( GEOMETRIC_REPRESENTATION_CONTEXT ( 3 ) GLOBAL_UNCERTAINTY_ASSIGNED_CONTEXT ( ( #94 ) ) GLOBAL_UNIT_ASSIGNED_CONTEXT ( ( #31, #222, #186 ) ) REPRESENTATION_CONTEXT ( 'NONE', 'WORKASPACE' ) );
#33 = AXIS2_PLACEMENT_3D ( 'NONE', #113, #17, #71 ) ;
#34 =( NAMED_UNIT ( * ) PLANE_ANGLE_UNIT ( ) SI_UNIT ( $, .RADIAN. ) );
#35 = DIRECTION ( 'NONE',  ( -0.0000000000000000000, -0.0000000000000000000, -1.000000000000000000 ) ) ;
#36 = ORIENTED_EDGE ( 'NONE', *, *, #219, .F. ) ;
#37 = PRODUCT_DEFINITION_CONTEXT ( 'detailed design', #200, 'design' ) ;
#38 = VECTOR ( 'NONE', #176, 39.37007874015748143 ) ;
#39 = EDGE_LOOP ( 'NONE', ( #155, #169, #95, #248 ) ) ;
#40 = DIRECTION ( 'NONE',  ( -0.7071067811865482389, 0.0000000000000000000, -0.7071067811865469066 ) ) ;
#41 = ADVANCED_FACE ( 'NONE', ( #8 ), #175, .T. ) ;
#42 = CARTESIAN_POINT ( 'NONE',  ( 0.0000000000000000000, 0.0000000000000000000, 1.496062999999999921 ) ) ;
#43 = ORIENTED_EDGE ( 'NONE', *, *, #28, .F. ) ;
#44 = DIRECTION ( 'NONE',  ( 0.0000000000000000000, 0.0000000000000000000, 1.000000000000000000 ) ) ;
#45 =( LENGTH_UNIT ( ) NAMED_UNIT ( * ) SI_UNIT ( $, .METRE. ) );
#46 = APPLICATION_PROTOCOL_DEFINITION ( 'draft international standard', 'automotive_design', 1998, #200 ) ;
#47 =( GEOMETRIC_REPRESENTATION_CONTEXT ( 3 ) GLOBAL_UNCERTAINTY_ASSIGNED_CONTEXT ( ( #73 ) ) GLOBAL_UNIT_ASSIGNED_CONTEXT ( ( #112, #34, #110 ) ) REPRESENTATION_CONTEXT ( 'NONE', 'WORKASPACE' ) );
#48 = PLANE ( 'NONE',  #80 ) ;
#49 = PRODUCT_CONTEXT ( 'NONE', #55, 'mechanical' ) ;
#50 =( NAMED_UNIT ( * ) SI_UNIT ( $, .STERADIAN. ) SOLID_ANGLE_UNIT ( ) );
#51 = EDGE_LOOP ( 'NONE', ( #215, #135, #211, #36 ) ) ;
#52 = VERTEX_POINT ( 'NONE', #78 ) ;
#53 = COLOUR_RGB ( '',0.7921568627450980005, 0.8196078431372548767, 0.9333333333333333481 ) ;
#54 = DIRECTION ( 'NONE',  ( 0.0000000000000000000, 0.0000000000000000000, -1.000000000000000000 ) ) ;
#55 = APPLICATION_CONTEXT ( 'automotive_design' ) ;
#56 = ORIENTED_EDGE ( 'NONE', *, *, #219, .T. ) ;
#57 = EDGE_CURVE ( 'NONE', #168, #201, #240, .T. ) ;
#58 = AXIS2_PLACEMENT_3D ( 'NONE', #108, #65, #181 ) ;
#59 = FACE_OUTER_BOUND ( 'NONE', #249, .T. ) ;
#60 = DIRECTION ( 'NONE',  ( 0.0000000000000000000, 0.0000000000000000000, 1.000000000000000000 ) ) ;
#61 = DIRECTION ( 'NONE',  ( 0.0000000000000000000, 0.0000000000000000000, 1.000000000000000000 ) ) ;
#62 = CIRCLE ( 'NONE', #209, 0.05905500000000001720 ) ;
#63 = EDGE_CURVE ( 'NONE', #2, #173, #156, .T. ) ;
#64 = FACE_OUTER_BOUND ( 'NONE', #100, .T. ) ;
#65 = DIRECTION ( 'NONE',  ( 0.0000000000000000000, 0.0000000000000000000, -1.000000000000000000 ) ) ;
#66 = FILL_AREA_STYLE_COLOUR ( '', #122 ) ;
#67 = ADVANCED_FACE ( 'NONE', ( #59 ), #101, .T. ) ;
#68 = CLOSED_SHELL ( 'NONE', ( #195, #206, #89, #67, #115, #41, #136, #212 ) ) ;
#69 = FILL_AREA_STYLE_COLOUR ( '', #53 ) ;
#70 = CIRCLE ( 'NONE', #7, 0.05905500000000001720 ) ;
#71 = DIRECTION ( 'NONE',  ( 1.000000000000000000, 0.0000000000000000000, 0.0000000000000000000 ) ) ;
#72 = EDGE_CURVE ( 'NONE', #52, #173, #216, .T. ) ;
#73 = UNCERTAINTY_MEASURE_WITH_UNIT (LENGTH_MEASURE( 1.000000000000000082E-05 ), #112, 'distance_accuracy_value', 'NONE');
#74 = EDGE_CURVE ( 'NONE', #201, #173, #70, .T. ) ;
#75 = DIRECTION ( 'NONE',  ( -0.0000000000000000000, -0.0000000000000000000, -1.000000000000000000 ) ) ;
#76 = PRODUCT_DEFINITION_SHAPE ( 'NONE', 'NONE',  #24 ) ;
#77 = FACE_OUTER_BOUND ( 'NONE', #128, .T. ) ;
#78 = CARTESIAN_POINT ( 'NONE',  ( -0.05905500000000001720, 0.0000000000000000000, 1.481062999999999574 ) ) ;
#79 = CARTESIAN_POINT ( 'NONE',  ( 0.04405499999999974020, 6.313666573004163292E-18, 1.496062999999999921 ) ) ;
#80 = AXIS2_PLACEMENT_3D ( 'NONE', #83, #125, #164 ) ;
#81 = DIRECTION ( 'NONE',  ( 1.000000000000000000, 0.0000000000000000000, 0.0000000000000000000 ) ) ;
#82 = CARTESIAN_POINT ( 'NONE',  ( -0.05905500000000001720, 0.0000000000000000000, 0.2057031764115806738 ) ) ;
#83 = CARTESIAN_POINT ( 'NONE',  ( 0.0000000000000000000, 0.0000000000000000000, 1.496062999999999921 ) ) ;
#84 = VECTOR ( 'NONE', #96, 39.37007874015748143 ) ;
#85 = CARTESIAN_POINT ( 'NONE',  ( 0.05905500000000001720, 7.232151672364695422E-18, 1.496062999999999921 ) ) ;
#86 = EDGE_CURVE ( 'NONE', #120, #52, #22, .T. ) ;
#87 =( LENGTH_UNIT ( ) NAMED_UNIT ( * ) SI_UNIT ( $, .METRE. ) );
#88 = AXIS2_PLACEMENT_3D ( 'NONE', #221, #44, #141 ) ;
#89 = ADVANCED_FACE ( 'NONE', ( #77 ), #117, .T. ) ;
#90 = CARTESIAN_POINT ( 'NONE',  ( 0.05905500000000001720, 7.232151672364695422E-18, 1.481062999999999574 ) ) ;
#91 = ORIENTED_EDGE ( 'NONE', *, *, #1, .T. ) ;
#92 = VECTOR ( 'NONE', #119, 39.37007874015748143 ) ;
#93 = VERTEX_POINT ( 'NONE', #79 ) ;
#94 = UNCERTAINTY_MEASURE_WITH_UNIT (LENGTH_MEASURE( 1.000000000000000082E-05 ), #31, 'distance_accuracy_value', 'NONE');
#95 = ORIENTED_EDGE ( 'NONE', *, *, #57, .T. ) ;
#96 = DIRECTION ( 'NONE',  ( -0.2588190451025216832, 3.169619151431776035E-17, 0.9659258262890679791 ) ) ;
#97 = CIRCLE ( 'NONE', #106, 0.05905500000000001720 ) ;
#98 = CARTESIAN_POINT ( 'NONE',  ( -0.05905500000000001720, 0.0000000000000000000, 1.496062999999999921 ) ) ;
#99 = CARTESIAN_POINT ( 'NONE',  ( 0.0000000000000000000, 0.0000000000000000000, 1.496062999999999921 ) ) ;
#100 = EDGE_LOOP ( 'NONE', ( #91, #190 ) ) ;
#101 = CYLINDRICAL_SURFACE ( 'NONE', #132, 0.05905500000000001720 ) ;
#102 = CIRCLE ( 'NONE', #239, 0.04405499999999974020 ) ;
#103 = CARTESIAN_POINT ( 'NONE',  ( 0.0000000000000000000, 0.0000000000000000000, 0.0000000000000000000 ) ) ;
#104 = CARTESIAN_POINT ( 'NONE',  ( 0.05905500000000001720, 7.232151672364695422E-18, 0.2057031764115806738 ) ) ;
#105 = DIRECTION ( 'NONE',  ( 0.0000000000000000000, 0.0000000000000000000, -1.000000000000000000 ) ) ;
#106 = AXIS2_PLACEMENT_3D ( 'NONE', #148, #127, #227 ) ;
#107 = EDGE_CURVE ( 'NONE', #93, #232, #161, .T. ) ;
#108 = CARTESIAN_POINT ( 'NONE',  ( 0.0000000000000000000, 0.0000000000000000000, 1.496062999999999921 ) ) ;
#109 = DIRECTION ( 'NONE',  ( -1.000000000000000000, 0.0000000000000000000, 0.0000000000000000000 ) ) ;
#110 =( NAMED_UNIT ( * ) SI_UNIT ( $, .STERADIAN. ) SOLID_ANGLE_UNIT ( ) );
#111 = AXIS2_PLACEMENT_3D ( 'NONE', #25, #23, #217 ) ;
#112 =( CONVERSION_BASED_UNIT ( 'INCH', #14 ) LENGTH_UNIT ( ) NAMED_UNIT ( #170 ) );
#113 = CARTESIAN_POINT ( 'NONE',  ( 0.0000000000000000000, 0.0000000000000000000, 0.0000000000000000000 ) ) ;
#114 = ORIENTED_EDGE ( 'NONE', *, *, #63, .T. ) ;
#115 = ADVANCED_FACE ( 'NONE', ( #64 ), #48, .T. ) ;
#116 = CARTESIAN_POINT ( 'NONE',  ( 0.0000000000000000000, 0.0000000000000000000, 1.496062999999999921 ) ) ;
#117 = CYLINDRICAL_SURFACE ( 'NONE', #3, 0.05905500000000001720 ) ;
#118 = CARTESIAN_POINT ( 'NONE',  ( 0.003936999999999995191, 0.0000000000000000000, 0.0000000000000000000 ) ) ;
#119 = DIRECTION ( 'NONE',  ( 0.2588190451025216832, 0.0000000000000000000, 0.9659258262890679791 ) ) ;
#120 = VERTEX_POINT ( 'NONE', #204 ) ;
#121 = CARTESIAN_POINT ( 'NONE',  ( 0.0000000000000000000, 0.0000000000000000000, 0.0000000000000000000 ) ) ;
#122 = COLOUR_RGB ( '',0.7921568627450980005, 0.8196078431372548767, 0.9333333333333333481 ) ;
#123 = PRESENTATION_LAYER_ASSIGNMENT (  '', '', ( #246 ) ) ;
#124 = DIRECTION ( 'NONE',  ( 1.000000000000000000, 0.0000000000000000000, 0.0000000000000000000 ) ) ;
#125 = DIRECTION ( 'NONE',  ( 0.0000000000000000000, 0.0000000000000000000, 1.000000000000000000 ) ) ;
#126 = STYLED_ITEM ( 'NONE', ( #179 ), #208 ) ;
#127 = DIRECTION ( 'NONE',  ( 0.0000000000000000000, 0.0000000000000000000, -1.000000000000000000 ) ) ;
#128 = EDGE_LOOP ( 'NONE', ( #133, #220, #234, #196 ) ) ;
#129 = AXIS2_PLACEMENT_3D ( 'NONE', #159, #172, #5 ) ;
#130 = ORIENTED_EDGE ( 'NONE', *, *, #86, .F. ) ;
#131 = EDGE_CURVE ( 'NONE', #93, #120, #102, .T. ) ;
#132 = AXIS2_PLACEMENT_3D ( 'NONE', #99, #134, #6 ) ;
#133 = ORIENTED_EDGE ( 'NONE', *, *, #238, .T. ) ;
#134 = DIRECTION ( 'NONE',  ( -0.0000000000000000000, -0.0000000000000000000, -1.000000000000000000 ) ) ;
#135 = ORIENTED_EDGE ( 'NONE', *, *, #1, .F. ) ;
#136 = ADVANCED_FACE ( 'NONE', ( #26 ), #166, .T. ) ;
#137 = DIRECTION ( 'NONE',  ( -0.0000000000000000000, -0.0000000000000000000, -1.000000000000000000 ) ) ;
#138 = MECHANICAL_DESIGN_GEOMETRIC_PRESENTATION_REPRESENTATION (  '', ( #246 ), #152 ) ;
#139 = ORIENTED_EDGE ( 'NONE', *, *, #72, .T. ) ;
#140 = CARTESIAN_POINT ( 'NONE',  ( 0.003936999999999995191, 0.0000000000000000000, 0.0000000000000000000 ) ) ;
#141 = DIRECTION ( 'NONE',  ( 1.000000000000000000, 0.0000000000000000000, 0.0000000000000000000 ) ) ;
#142 = LENGTH_MEASURE_WITH_UNIT ( LENGTH_MEASURE( 0.02539999999999999897 ), #45 );
#143 = CARTESIAN_POINT ( 'NONE',  ( 0.04405499999999974020, 5.395181473643631161E-18, 1.496062999999999921 ) ) ;
#144 = DIRECTION ( 'NONE',  ( -0.0000000000000000000, -0.0000000000000000000, -1.000000000000000000 ) ) ;
#145 = AXIS2_PLACEMENT_3D ( 'NONE', #121, #61, #124 ) ;
#146 = SURFACE_STYLE_FILL_AREA ( #153 ) ;
#147 = UNCERTAINTY_MEASURE_WITH_UNIT (LENGTH_MEASURE( 1.000000000000000082E-05 ), #191, 'distance_accuracy_value', 'NONE');
#148 = CARTESIAN_POINT ( 'NONE',  ( 0.0000000000000000000, 0.0000000000000000000, 1.481062999999999574 ) ) ;
#149 =( LENGTH_UNIT ( ) NAMED_UNIT ( * ) SI_UNIT ( $, .METRE. ) );
#150 = ORIENTED_EDGE ( 'NONE', *, *, #74, .F. ) ;
#151 = PRESENTATION_LAYER_ASSIGNMENT (  '', '', ( #126 ) ) ;
#152 =( GEOMETRIC_REPRESENTATION_CONTEXT ( 3 ) GLOBAL_UNCERTAINTY_ASSIGNED_CONTEXT ( ( #147 ) ) GLOBAL_UNIT_ASSIGNED_CONTEXT ( ( #191, #15, #50 ) ) REPRESENTATION_CONTEXT ( 'NONE', 'WORKASPACE' ) );
#153 = FILL_AREA_STYLE ('',( #69 ) ) ;
#154 = ORIENTED_EDGE ( 'NONE', *, *, #180, .T. ) ;
#155 = ORIENTED_EDGE ( 'NONE', *, *, #63, .F. ) ;
#156 = LINE ( 'NONE', #174, #84 ) ;
#157 = CARTESIAN_POINT ( 'NONE',  ( -0.04405499999999974020, 0.0000000000000000000, 1.496062999999999921 ) ) ;
#158 = PRODUCT ( 'Micro_RTCM-030-1', 'Micro_RTCM-030-1', '', ( #49 ) ) ;
#159 = CARTESIAN_POINT ( 'NONE',  ( 0.0000000000000000000, 0.0000000000000000000, 0.2057031764115806738 ) ) ;
#160 = CARTESIAN_POINT ( 'NONE',  ( 0.0000000000000000000, 0.0000000000000000000, 0.2057031764115806738 ) ) ;
#161 = LINE ( 'NONE', #143, #214 ) ;
#162 = FACE_OUTER_BOUND ( 'NONE', #18, .T. ) ;
#163 = FILL_AREA_STYLE ('',( #66 ) ) ;
#164 = DIRECTION ( 'NONE',  ( 1.000000000000000000, 0.0000000000000000000, -0.0000000000000000000 ) ) ;
#165 = ORIENTED_EDGE ( 'NONE', *, *, #228, .F. ) ;
#166 = CONICAL_SURFACE ( 'NONE', #145, 0.003936999999999995191, 0.2617993877991502960 ) ;
#167 = ORIENTED_EDGE ( 'NONE', *, *, #107, .T. ) ;
#168 = VERTEX_POINT ( 'NONE', #140 ) ;
#169 = ORIENTED_EDGE ( 'NONE', *, *, #180, .F. ) ;
#170 = DIMENSIONAL_EXPONENTS ( 1.000000000000000000, 0.0000000000000000000, 0.0000000000000000000, 0.0000000000000000000, 0.0000000000000000000, 0.0000000000000000000, 0.0000000000000000000 ) ;
#171 = AXIS2_PLACEMENT_3D ( 'NONE', #103, #177, #10 ) ;
#172 = DIRECTION ( 'NONE',  ( -0.0000000000000000000, -0.0000000000000000000, -1.000000000000000000 ) ) ;
#173 = VERTEX_POINT ( 'NONE', #82 ) ;
#174 = CARTESIAN_POINT ( 'NONE',  ( -0.003936999999999995191, 4.821434448243123477E-19, 0.0000000000000000000 ) ) ;
#175 = CONICAL_SURFACE ( 'NONE', #225, 0.04405499999999974020, 0.7853981633974491672 ) ;
#176 = DIRECTION ( 'NONE',  ( -0.0000000000000000000, -0.0000000000000000000, -1.000000000000000000 ) ) ;
#177 = DIRECTION ( 'NONE',  ( 0.0000000000000000000, 0.0000000000000000000, 1.000000000000000000 ) ) ;
#178 = ADVANCED_BREP_SHAPE_REPRESENTATION ( 'Micro_RTCM-030-1', ( #208, #33 ), #47 ) ;
#179 = PRESENTATION_STYLE_ASSIGNMENT (( #223 ) ) ;
#180 = EDGE_CURVE ( 'NONE', #168, #2, #202, .T. ) ;
#181 = DIRECTION ( 'NONE',  ( -1.000000000000000000, 0.0000000000000000000, 0.0000000000000000000 ) ) ;
#182 = MECHANICAL_DESIGN_GEOMETRIC_PRESENTATION_REPRESENTATION (  '', ( #126 ), #32 ) ;
#183 = PRODUCT_DEFINITION_FORMATION_WITH_SPECIFIED_SOURCE ( 'ANY', '', #158, .NOT_KNOWN. ) ;
#184 = SHAPE_DEFINITION_REPRESENTATION ( #76, #178 ) ;
#185 = SURFACE_STYLE_FILL_AREA ( #163 ) ;
#186 =( NAMED_UNIT ( * ) SI_UNIT ( $, .STERADIAN. ) SOLID_ANGLE_UNIT ( ) );
#187 = AXIS2_PLACEMENT_3D ( 'NONE', #116, #194, #199 ) ;
#188 = ORIENTED_EDGE ( 'NONE', *, *, #28, .T. ) ;
#189 = SURFACE_STYLE_USAGE ( .BOTH. , #247 ) ;
#190 = ORIENTED_EDGE ( 'NONE', *, *, #131, .T. ) ;
#191 =( CONVERSION_BASED_UNIT ( 'INCH', #210 ) LENGTH_UNIT ( ) NAMED_UNIT ( #230 ) );
#192 = ORIENTED_EDGE ( 'NONE', *, *, #57, .F. ) ;
#193 = CIRCLE ( 'NONE', #111, 0.003936999999999995191 ) ;
#194 = DIRECTION ( 'NONE',  ( 0.0000000000000000000, 0.0000000000000000000, 1.000000000000000000 ) ) ;
#195 = ADVANCED_FACE ( 'NONE', ( #30 ), #11, .T. ) ;
#196 = ORIENTED_EDGE ( 'NONE', *, *, #72, .F. ) ;
#197 = CIRCLE ( 'NONE', #187, 0.04405499999999974020 ) ;
#198 = DIRECTION ( 'NONE',  ( -1.000000000000000000, 0.0000000000000000000, 0.0000000000000000000 ) ) ;
#199 = DIRECTION ( 'NONE',  ( 1.000000000000000000, 0.0000000000000000000, 0.0000000000000000000 ) ) ;
#200 = APPLICATION_CONTEXT ( 'automotive_design' ) ;
#201 = VERTEX_POINT ( 'NONE', #104 ) ;
#202 = CIRCLE ( 'NONE', #244, 0.003936999999999995191 ) ;
#203 = PLANE ( 'NONE',  #171 ) ;
#204 = CARTESIAN_POINT ( 'NONE',  ( -0.04405499999999974020, 0.0000000000000000000, 1.496062999999999921 ) ) ;
#205 = CIRCLE ( 'NONE', #129, 0.05905500000000001720 ) ;
#206 = ADVANCED_FACE ( 'NONE', ( #207 ), #233, .T. ) ;
#207 = FACE_OUTER_BOUND ( 'NONE', #236, .T. ) ;
#208 = MANIFOLD_SOLID_BREP ( 'Cut-Revolve1', #68 ) ;
#209 = AXIS2_PLACEMENT_3D ( 'NONE', #27, #105, #9 ) ;
#210 = LENGTH_MEASURE_WITH_UNIT ( LENGTH_MEASURE( 0.02539999999999999897 ), #149 );
#211 = ORIENTED_EDGE ( 'NONE', *, *, #86, .T. ) ;
#212 = ADVANCED_FACE ( 'NONE', ( #162 ), #203, .F. ) ;
#213 = ORIENTED_EDGE ( 'NONE', *, *, #238, .F. ) ;
#214 = VECTOR ( 'NONE', #242, 39.37007874015748143 ) ;
#215 = ORIENTED_EDGE ( 'NONE', *, *, #107, .F. ) ;
#216 = LINE ( 'NONE', #98, #38 ) ;
#217 = DIRECTION ( 'NONE',  ( -1.000000000000000000, 0.0000000000000000000, 0.0000000000000000000 ) ) ;
#218 = DIRECTION ( 'NONE',  ( -1.000000000000000000, 0.0000000000000000000, 0.0000000000000000000 ) ) ;
#219 = EDGE_CURVE ( 'NONE', #232, #52, #62, .T. ) ;
#220 = ORIENTED_EDGE ( 'NONE', *, *, #228, .T. ) ;
#221 = CARTESIAN_POINT ( 'NONE',  ( 0.0000000000000000000, 0.0000000000000000000, 0.0000000000000000000 ) ) ;
#222 =( NAMED_UNIT ( * ) PLANE_ANGLE_UNIT ( ) SI_UNIT ( $, .RADIAN. ) );
#223 = SURFACE_STYLE_USAGE ( .BOTH. , #241 ) ;
#224 = CARTESIAN_POINT ( 'NONE',  ( 0.0000000000000000000, 0.0000000000000000000, 0.0000000000000000000 ) ) ;
#225 = AXIS2_PLACEMENT_3D ( 'NONE', #42, #54, #4 ) ;
#226 = PRESENTATION_STYLE_ASSIGNMENT (( #189 ) ) ;
#227 = DIRECTION ( 'NONE',  ( 1.000000000000000000, 0.0000000000000000000, 0.0000000000000000000 ) ) ;
#228 = EDGE_CURVE ( 'NONE', #232, #201, #12, .T. ) ;
#229 = ORIENTED_EDGE ( 'NONE', *, *, #13, .T. ) ;
#230 = DIMENSIONAL_EXPONENTS ( 1.000000000000000000, 0.0000000000000000000, 0.0000000000000000000, 0.0000000000000000000, 0.0000000000000000000, 0.0000000000000000000, 0.0000000000000000000 ) ;
#231 = PRODUCT_RELATED_PRODUCT_CATEGORY ( 'part', '', ( #158 ) ) ;
#232 = VERTEX_POINT ( 'NONE', #90 ) ;
#233 = CONICAL_SURFACE ( 'NONE', #58, 0.04405499999999974020, 0.7853981633974491672 ) ;
#234 = ORIENTED_EDGE ( 'NONE', *, *, #13, .F. ) ;
#235 = DIMENSIONAL_EXPONENTS ( 1.000000000000000000, 0.0000000000000000000, 0.0000000000000000000, 0.0000000000000000000, 0.0000000000000000000, 0.0000000000000000000, 0.0000000000000000000 ) ;
#236 = EDGE_LOOP ( 'NONE', ( #20, #167, #213, #130 ) ) ;
#237 = CARTESIAN_POINT ( 'NONE',  ( 0.0000000000000000000, 0.0000000000000000000, 1.496062999999999921 ) ) ;
#238 = EDGE_CURVE ( 'NONE', #52, #232, #97, .T. ) ;
#239 = AXIS2_PLACEMENT_3D ( 'NONE', #243, #60, #81 ) ;
#240 = LINE ( 'NONE', #118, #92 ) ;
#241 = SURFACE_SIDE_STYLE ('',( #185 ) ) ;
#242 = DIRECTION ( 'NONE',  ( 0.7071067811865482389, 8.659560562354941486E-17, -0.7071067811865469066 ) ) ;
#243 = CARTESIAN_POINT ( 'NONE',  ( 0.0000000000000000000, 0.0000000000000000000, 1.496062999999999921 ) ) ;
#244 = AXIS2_PLACEMENT_3D ( 'NONE', #224, #144, #109 ) ;
#245 = APPLICATION_PROTOCOL_DEFINITION ( 'draft international standard', 'automotive_design', 1998, #55 ) ;
#246 = STYLED_ITEM ( 'NONE', ( #226 ), #178 ) ;
#247 = SURFACE_SIDE_STYLE ('',( #146 ) ) ;
#248 = ORIENTED_EDGE ( 'NONE', *, *, #74, .T. ) ;
#249 = EDGE_LOOP ( 'NONE', ( #165, #56, #139, #150 ) ) ;
ENDSEC;
END-ISO-10303-21;
