ISO-10303-21;
HEADER;
FILE_DESCRIPTION (( 'STEP AP214' ),
    '1' );
FILE_NAME ('Micro_AEMM-030-3.STEP',
    '2022-03-15T14:24:14',
    ( '' ),
    ( '' ),
    'SwSTEP 2.0',
    'SolidWorks 2022',
    '' );
FILE_SCHEMA (( 'AUTOMOTIVE_DESIGN' ));
ENDSEC;

DATA;
#1 = SURFACE_STYLE_USAGE ( .BOTH. , #231 ) ;
#2 = CIRCLE ( 'NONE', #167, 0.1031100000000002570 ) ;
#3 = DIRECTION ( 'NONE',  ( 0.000000000000000000, 0.000000000000000000, -1.000000000000000000 ) ) ;
#4 = CARTESIAN_POINT ( 'NONE',  ( 0.1031100000000002570, 1.262733314600838667E-17, 2.244094000000000033 ) ) ;
#5 = MECHANICAL_DESIGN_GEOMETRIC_PRESENTATION_REPRESENTATION (  '', ( #102 ), #278 ) ;
#6 = DIRECTION ( 'NONE',  ( -0.1736481776669311916, 2.126576849575783316E-17, 0.9848077530122080203 ) ) ;
#7 = CARTESIAN_POINT ( 'NONE',  ( 3.857159805062494824E-17, 0.000000000000000000, 0.3149609999999999910 ) ) ;
#8 = EDGE_LOOP ( 'NONE', ( #139, #210, #233, #259 ) ) ;
#9 = CYLINDRICAL_SURFACE ( 'NONE', #26, 0.1181100000000000066 ) ;
#10 = ORIENTED_EDGE ( 'NONE', *, *, #137, .T. ) ;
#11 = AXIS2_PLACEMENT_3D ( 'NONE', #134, #115, #234 ) ;
#12 = FACE_OUTER_BOUND ( 'NONE', #76, .T. ) ;
#13 = DIRECTION ( 'NONE',  ( -1.224646799147353207E-16, -0.000000000000000000, -1.000000000000000000 ) ) ;
#14 = ORIENTED_EDGE ( 'NONE', *, *, #279, .T. ) ;
#15 = ADVANCED_FACE ( 'NONE', ( #138 ), #249, .T. ) ;
#16 = CYLINDRICAL_SURFACE ( 'NONE', #27, 0.05899594499999998715 ) ;
#17 = DIRECTION ( 'NONE',  ( 1.000000000000000000, 0.000000000000000000, 0.000000000000000000 ) ) ;
#18 = CARTESIAN_POINT ( 'NONE',  ( -0.1181100000000000066, 0.000000000000000000, 2.229093999999999465 ) ) ;
#19 = CARTESIAN_POINT ( 'NONE',  ( -0.05899594500000000796, 0.000000000000000000, 1.444983904138465938E-17 ) ) ;
#20 = FILL_AREA_STYLE ('',( #63 ) ) ;
#21 = CIRCLE ( 'NONE', #247, 0.1181100000000000066 ) ;
#22 =( NAMED_UNIT ( * ) PLANE_ANGLE_UNIT ( ) SI_UNIT ( $, .RADIAN. ) );
#23 = DIRECTION ( 'NONE',  ( -0.7071067811865358044, 0.000000000000000000, -0.7071067811865590080 ) ) ;
#24 = ORIENTED_EDGE ( 'NONE', *, *, #103, .T. ) ;
#25 = EDGE_LOOP ( 'NONE', ( #156, #122, #124, #163 ) ) ;
#26 = AXIS2_PLACEMENT_3D ( 'NONE', #217, #94, #96 ) ;
#27 = AXIS2_PLACEMENT_3D ( 'NONE', #261, #175, #99 ) ;
#28 = VERTEX_POINT ( 'NONE', #189 ) ;
#29 = DIRECTION ( 'NONE',  ( -1.000000000000000000, 0.000000000000000000, 0.000000000000000000 ) ) ;
#30 = SURFACE_STYLE_USAGE ( .BOTH. , #196 ) ;
#31 = EDGE_LOOP ( 'NONE', ( #188, #171, #223, #35 ) ) ;
#32 = FILL_AREA_STYLE_COLOUR ( '', #179 ) ;
#33 = CIRCLE ( 'NONE', #78, 0.05899594500000000796 ) ;
#34 = CARTESIAN_POINT ( 'NONE',  ( 7.962818391712065690E-17, 0.000000000000000000, 0.6502134654053797203 ) ) ;
#35 = ORIENTED_EDGE ( 'NONE', *, *, #183, .F. ) ;
#36 = EDGE_CURVE ( 'NONE', #240, #252, #257, .T. ) ;
#37 = CONICAL_SURFACE ( 'NONE', #215, 0.1031100000000002570, 0.7853981633974318477 ) ;
#38 = DIRECTION ( 'NONE',  ( -1.224646799147353207E-16, -0.000000000000000000, -1.000000000000000000 ) ) ;
#39 = EDGE_CURVE ( 'NONE', #142, #264, #140, .T. ) ;
#40 = ORIENTED_EDGE ( 'NONE', *, *, #229, .T. ) ;
#41 = ADVANCED_FACE ( 'NONE', ( #114 ), #67, .F. ) ;
#42 = CONICAL_SURFACE ( 'NONE', #219, 0.1031100000000002570, 0.7853981633974318477 ) ;
#43 = DIRECTION ( 'NONE',  ( 1.000000000000000000, 0.000000000000000000, 0.000000000000000000 ) ) ;
#44 = DIRECTION ( 'NONE',  ( 1.224646799147353207E-16, 0.000000000000000000, 1.000000000000000000 ) ) ;
#45 = ORIENTED_EDGE ( 'NONE', *, *, #89, .T. ) ;
#46 = DIRECTION ( 'NONE',  ( 1.000000000000000000, 0.000000000000000000, 0.000000000000000000 ) ) ;
#47 = ADVANCED_FACE ( 'NONE', ( #136 ), #42, .T. ) ;
#48 = AXIS2_PLACEMENT_3D ( 'NONE', #276, #65, #66 ) ;
#49 = CIRCLE ( 'NONE', #154, 0.1181100000000000066 ) ;
#50 = LINE ( 'NONE', #4, #153 ) ;
#51 = ORIENTED_EDGE ( 'NONE', *, *, #133, .T. ) ;
#52 = DIRECTION ( 'NONE',  ( -1.224646799147353207E-16, -0.000000000000000000, -1.000000000000000000 ) ) ;
#53 = DIRECTION ( 'NONE',  ( -1.224646799147353207E-16, -0.000000000000000000, -1.000000000000000000 ) ) ;
#54 = ORIENTED_EDGE ( 'NONE', *, *, #202, .F. ) ;
#55 = LINE ( 'NONE', #241, #128 ) ;
#56 = CARTESIAN_POINT ( 'NONE',  ( 0.000000000000000000, 0.000000000000000000, 2.229093999999999465 ) ) ;
#57 = VERTEX_POINT ( 'NONE', #165 ) ;
#58 = CARTESIAN_POINT ( 'NONE',  ( 0.000000000000000000, 0.000000000000000000, 2.229093999999999465 ) ) ;
#59 = DIRECTION ( 'NONE',  ( -0.000000000000000000, -0.000000000000000000, -1.000000000000000000 ) ) ;
#60 = AXIS2_PLACEMENT_3D ( 'NONE', #260, #52, #206 ) ;
#61 =( LENGTH_UNIT ( ) NAMED_UNIT ( * ) SI_UNIT ( $, .METRE. ) );
#62 = EDGE_CURVE ( 'NONE', #57, #239, #50, .T. ) ;
#63 = FILL_AREA_STYLE_COLOUR ( '', #275 ) ;
#64 =( NAMED_UNIT ( * ) SI_UNIT ( $, .STERADIAN. ) SOLID_ANGLE_UNIT ( ) );
#65 = DIRECTION ( 'NONE',  ( 0.000000000000000000, 0.000000000000000000, 1.000000000000000000 ) ) ;
#66 = DIRECTION ( 'NONE',  ( 1.000000000000000000, 0.000000000000000000, 0.000000000000000000 ) ) ;
#67 = PLANE ( 'NONE',  #205 ) ;
#68 = CARTESIAN_POINT ( 'NONE',  ( 0.000000000000000000, 0.000000000000000000, 0.000000000000000000 ) ) ;
#69 = CARTESIAN_POINT ( 'NONE',  ( 0.000000000000000000, 0.000000000000000000, 2.244094000000000033 ) ) ;
#70 = PRESENTATION_LAYER_ASSIGNMENT (  '', '', ( #102 ) ) ;
#71 = DIRECTION ( 'NONE',  ( 1.224646799147353207E-16, 0.000000000000000000, 1.000000000000000000 ) ) ;
#72 = ORIENTED_EDGE ( 'NONE', *, *, #290, .F. ) ;
#73 = PRODUCT_DEFINITION ( 'UNKNOWN', '', #118, #84 ) ;
#74 = FILL_AREA_STYLE ('',( #32 ) ) ;
#75 = CARTESIAN_POINT ( 'NONE',  ( -0.1181099999999999234, 0.000000000000000000, 0.6502134654053797203 ) ) ;
#76 = EDGE_LOOP ( 'NONE', ( #288, #218, #72, #285 ) ) ;
#77 = DIRECTION ( 'NONE',  ( 0.000000000000000000, 0.000000000000000000, 1.000000000000000000 ) ) ;
#78 = AXIS2_PLACEMENT_3D ( 'NONE', #269, #108, #182 ) ;
#79 =( NAMED_UNIT ( * ) PLANE_ANGLE_UNIT ( ) SI_UNIT ( $, .RADIAN. ) );
#80 = CARTESIAN_POINT ( 'NONE',  ( 7.962818391712065690E-17, 0.000000000000000000, 0.6502134654053797203 ) ) ;
#81 = CARTESIAN_POINT ( 'NONE',  ( -0.05899594499999993857, 1.084461143271085796E-17, 0.3149609999999999910 ) ) ;
#82 = AXIS2_PLACEMENT_3D ( 'NONE', #148, #98, #267 ) ;
#83 = ORIENTED_EDGE ( 'NONE', *, *, #158, .F. ) ;
#84 = PRODUCT_DEFINITION_CONTEXT ( 'detailed design', #294, 'design' ) ;
#85 = DIRECTION ( 'NONE',  ( -1.000000000000000000, 0.000000000000000000, 1.224646799147353207E-16 ) ) ;
#86 = CARTESIAN_POINT ( 'NONE',  ( 0.000000000000000000, 0.000000000000000000, 0.000000000000000000 ) ) ;
#87 = DIRECTION ( 'NONE',  ( 0.000000000000000000, 0.000000000000000000, 1.000000000000000000 ) ) ;
#88 = DIRECTION ( 'NONE',  ( 0.7071067811865358044, 8.659560562354788645E-17, -0.7071067811865590080 ) ) ;
#89 = EDGE_CURVE ( 'NONE', #255, #166, #211, .T. ) ;
#90 = DIMENSIONAL_EXPONENTS ( 1.000000000000000000, 0.000000000000000000, 0.000000000000000000, 0.000000000000000000, 0.000000000000000000, 0.000000000000000000, 0.000000000000000000 ) ;
#91 = CARTESIAN_POINT ( 'NONE',  ( 0.000000000000000000, 0.000000000000000000, 2.244094000000000033 ) ) ;
#92 = AXIS2_PLACEMENT_3D ( 'NONE', #86, #87, #43 ) ;
#93 = ORIENTED_EDGE ( 'NONE', *, *, #170, .F. ) ;
#94 = DIRECTION ( 'NONE',  ( -0.000000000000000000, -0.000000000000000000, -1.000000000000000000 ) ) ;
#95 = PRODUCT ( 'Micro_AEMM-030-3', 'Micro_AEMM-030-3', '', ( #132 ) ) ;
#96 = DIRECTION ( 'NONE',  ( -1.000000000000000000, 0.000000000000000000, 0.000000000000000000 ) ) ;
#97 = AXIS2_PLACEMENT_3D ( 'NONE', #7, #44, #46 ) ;
#98 = DIRECTION ( 'NONE',  ( -0.000000000000000000, -0.000000000000000000, -1.000000000000000000 ) ) ;
#99 = DIRECTION ( 'NONE',  ( -1.000000000000000000, 0.000000000000000000, 1.224646799147353207E-16 ) ) ;
#100 = DIRECTION ( 'NONE',  ( -1.224646799147353207E-16, -0.000000000000000000, -1.000000000000000000 ) ) ;
#101 = EDGE_LOOP ( 'NONE', ( #127, #176, #54, #191 ) ) ;
#102 = STYLED_ITEM ( 'NONE', ( #287 ), #150 ) ;
#103 = EDGE_CURVE ( 'NONE', #252, #166, #281, .T. ) ;
#104 = APPLICATION_CONTEXT ( 'automotive_design' ) ;
#105 = CARTESIAN_POINT ( 'NONE',  ( 0.000000000000000000, 0.000000000000000000, 0.000000000000000000 ) ) ;
#106 = CARTESIAN_POINT ( 'NONE',  ( 0.1181100000000000066, 1.446430334472939084E-17, 2.244094000000000033 ) ) ;
#107 = UNCERTAINTY_MEASURE_WITH_UNIT (LENGTH_MEASURE( 1.000000000000000082E-05 ), #283, 'distance_accuracy_value', 'NONE');
#108 = DIRECTION ( 'NONE',  ( -1.224646799147353207E-16, -0.000000000000000000, -1.000000000000000000 ) ) ;
#109 = AXIS2_PLACEMENT_3D ( 'NONE', #200, #53, #262 ) ;
#110 =( LENGTH_UNIT ( ) NAMED_UNIT ( * ) SI_UNIT ( $, .METRE. ) );
#111 = DIMENSIONAL_EXPONENTS ( 1.000000000000000000, 0.000000000000000000, 0.000000000000000000, 0.000000000000000000, 0.000000000000000000, 0.000000000000000000, 0.000000000000000000 ) ;
#112 =( NAMED_UNIT ( * ) SI_UNIT ( $, .STERADIAN. ) SOLID_ANGLE_UNIT ( ) );
#113 = ADVANCED_FACE ( 'NONE', ( #277 ), #9, .T. ) ;
#114 = FACE_OUTER_BOUND ( 'NONE', #296, .T. ) ;
#115 = DIRECTION ( 'NONE',  ( -1.224646799147353207E-16, -0.000000000000000000, -1.000000000000000000 ) ) ;
#116 = ADVANCED_FACE ( 'NONE', ( #235 ), #282, .T. ) ;
#117 = DIRECTION ( 'NONE',  ( 0.000000000000000000, 0.000000000000000000, 1.000000000000000000 ) ) ;
#118 = PRODUCT_DEFINITION_FORMATION_WITH_SPECIFIED_SOURCE ( 'ANY', '', #95, .NOT_KNOWN. ) ;
#119 = ORIENTED_EDGE ( 'NONE', *, *, #290, .T. ) ;
#120 = ORIENTED_EDGE ( 'NONE', *, *, #216, .F. ) ;
#121 = LENGTH_MEASURE_WITH_UNIT ( LENGTH_MEASURE( 0.02539999999999999897 ), #129 );
#122 = ORIENTED_EDGE ( 'NONE', *, *, #190, .T. ) ;
#123 =( NAMED_UNIT ( * ) SI_UNIT ( $, .STERADIAN. ) SOLID_ANGLE_UNIT ( ) );
#124 = ORIENTED_EDGE ( 'NONE', *, *, #279, .F. ) ;
#125 = CARTESIAN_POINT ( 'NONE',  ( 0.05899594499999998715, 7.224919520692328148E-18, -7.224919520692328148E-18 ) ) ;
#126 = FACE_OUTER_BOUND ( 'NONE', #192, .T. ) ;
#127 = ORIENTED_EDGE ( 'NONE', *, *, #144, .F. ) ;
#128 = VECTOR ( 'NONE', #177, 39.37007874015748143 ) ;
#129 =( LENGTH_UNIT ( ) NAMED_UNIT ( * ) SI_UNIT ( $, .METRE. ) );
#130 = AXIS2_PLACEMENT_3D ( 'NONE', #34, #100, #17 ) ;
#131 = LENGTH_MEASURE_WITH_UNIT ( LENGTH_MEASURE( 0.02539999999999999897 ), #61 );
#132 = PRODUCT_CONTEXT ( 'NONE', #104, 'mechanical' ) ;
#133 = EDGE_CURVE ( 'NONE', #240, #57, #184, .T. ) ;
#134 = CARTESIAN_POINT ( 'NONE',  ( 8.847974565113091896E-34, 0.000000000000000000, 7.224919520692329689E-18 ) ) ;
#135 = SHAPE_DEFINITION_REPRESENTATION ( #242, #174 ) ;
#136 = FACE_OUTER_BOUND ( 'NONE', #31, .T. ) ;
#137 = EDGE_CURVE ( 'NONE', #255, #264, #55, .T. ) ;
#138 = FACE_OUTER_BOUND ( 'NONE', #8, .T. ) ;
#139 = ORIENTED_EDGE ( 'NONE', *, *, #89, .F. ) ;
#140 = CIRCLE ( 'NONE', #11, 0.05899594500000000796 ) ;
#141 = DIRECTION ( 'NONE',  ( 1.000000000000000000, 0.000000000000000000, -0.000000000000000000 ) ) ;
#142 = VERTEX_POINT ( 'NONE', #143 ) ;
#143 = CARTESIAN_POINT ( 'NONE',  ( 0.05899594500000001490, 7.224919520692329689E-18, -1.895600338963814870E-33 ) ) ;
#144 = EDGE_CURVE ( 'NONE', #57, #240, #2, .T. ) ;
#145 = LINE ( 'NONE', #125, #147 ) ;
#146 = ORIENTED_EDGE ( 'NONE', *, *, #190, .F. ) ;
#147 = VECTOR ( 'NONE', #13, 39.37007874015748143 ) ;
#148 = CARTESIAN_POINT ( 'NONE',  ( 0.000000000000000000, 0.000000000000000000, 2.244094000000000033 ) ) ;
#149 = ORIENTED_EDGE ( 'NONE', *, *, #183, .T. ) ;
#150 = MANIFOLD_SOLID_BREP ( 'Cut-Revolve1', #194 ) ;
#151 = DIRECTION ( 'NONE',  ( 1.000000000000000000, 0.000000000000000000, 0.000000000000000000 ) ) ;
#152 = CARTESIAN_POINT ( 'NONE',  ( 0.05899594500000002184, 0.000000000000000000, 0.3149609999999999910 ) ) ;
#153 = VECTOR ( 'NONE', #88, 39.37007874015748854 ) ;
#154 = AXIS2_PLACEMENT_3D ( 'NONE', #56, #265, #151 ) ;
#155 = DIRECTION ( 'NONE',  ( -1.000000000000000000, 0.000000000000000000, 0.000000000000000000 ) ) ;
#156 = ORIENTED_EDGE ( 'NONE', *, *, #158, .T. ) ;
#157 =( CONVERSION_BASED_UNIT ( 'INCH', #131 ) LENGTH_UNIT ( ) NAMED_UNIT ( #186 ) );
#158 = EDGE_CURVE ( 'NONE', #255, #254, #232, .T. ) ;
#159 = AXIS2_PLACEMENT_3D ( 'NONE', #69, #162, #141 ) ;
#160 = ADVANCED_FACE ( 'NONE', ( #12 ), #292, .T. ) ;
#161 =( NAMED_UNIT ( * ) PLANE_ANGLE_UNIT ( ) SI_UNIT ( $, .RADIAN. ) );
#162 = DIRECTION ( 'NONE',  ( 0.000000000000000000, 0.000000000000000000, 1.000000000000000000 ) ) ;
#163 = ORIENTED_EDGE ( 'NONE', *, *, #137, .F. ) ;
#164 = ORIENTED_EDGE ( 'NONE', *, *, #144, .T. ) ;
#165 = CARTESIAN_POINT ( 'NONE',  ( 0.1031100000000002570, 1.354581824536888722E-17, 2.244094000000000033 ) ) ;
#166 = VERTEX_POINT ( 'NONE', #75 ) ;
#167 = AXIS2_PLACEMENT_3D ( 'NONE', #289, #77, #198 ) ;
#168 = CIRCLE ( 'NONE', #60, 0.05899594499999998021 ) ;
#169 = DIRECTION ( 'NONE',  ( 1.000000000000000000, 0.000000000000000000, 0.000000000000000000 ) ) ;
#170 = EDGE_CURVE ( 'NONE', #28, #166, #173, .T. ) ;
#171 = ORIENTED_EDGE ( 'NONE', *, *, #133, .F. ) ;
#172 = ORIENTED_EDGE ( 'NONE', *, *, #39, .T. ) ;
#173 = CIRCLE ( 'NONE', #130, 0.1181100000000000066 ) ;
#174 = ADVANCED_BREP_SHAPE_REPRESENTATION ( 'Micro_AEMM-030-3', ( #150, #92 ), #220 ) ;
#175 = DIRECTION ( 'NONE',  ( -1.224646799147353207E-16, -0.000000000000000000, -1.000000000000000000 ) ) ;
#176 = ORIENTED_EDGE ( 'NONE', *, *, #62, .T. ) ;
#177 = DIRECTION ( 'NONE',  ( -1.224646799147353207E-16, -0.000000000000000000, -1.000000000000000000 ) ) ;
#178 = DIRECTION ( 'NONE',  ( 0.000000000000000000, 0.000000000000000000, -1.000000000000000000 ) ) ;
#179 = COLOUR_RGB ( '',0.7921568627450980005, 0.8196078431372548767, 0.9333333333333333481 ) ;
#180 = CARTESIAN_POINT ( 'NONE',  ( 0.1181100000000000066, 1.446430334472939084E-17, 2.229093999999999465 ) ) ;
#181 = ORIENTED_EDGE ( 'NONE', *, *, #268, .F. ) ;
#182 = DIRECTION ( 'NONE',  ( -1.000000000000000000, 0.000000000000000000, 1.224646799147352961E-16 ) ) ;
#183 = EDGE_CURVE ( 'NONE', #239, #252, #21, .T. ) ;
#184 = CIRCLE ( 'NONE', #48, 0.1031100000000002570 ) ;
#185 =( CONVERSION_BASED_UNIT ( 'INCH', #250 ) LENGTH_UNIT ( ) NAMED_UNIT ( #90 ) );
#186 = DIMENSIONAL_EXPONENTS ( 1.000000000000000000, 0.000000000000000000, 0.000000000000000000, 0.000000000000000000, 0.000000000000000000, 0.000000000000000000, 0.000000000000000000 ) ;
#187 = CARTESIAN_POINT ( 'NONE',  ( -0.05899594499999993857, 7.224919520692326607E-18, 0.3149609999999999910 ) ) ;
#188 = ORIENTED_EDGE ( 'NONE', *, *, #62, .F. ) ;
#189 = CARTESIAN_POINT ( 'NONE',  ( 0.1181100000000000899, 1.446430334472940009E-17, 0.6502134654053797203 ) ) ;
#190 = EDGE_CURVE ( 'NONE', #254, #142, #145, .T. ) ;
#191 = ORIENTED_EDGE ( 'NONE', *, *, #36, .F. ) ;
#192 = EDGE_LOOP ( 'NONE', ( #83, #45, #119, #120 ) ) ;
#193 = DIRECTION ( 'NONE',  ( 0.1736481776669313859, 0.000000000000000000, 0.9848077530122077983 ) ) ;
#194 = CLOSED_SHELL ( 'NONE', ( #197, #221, #299, #160, #113, #116, #47, #15, #248, #41 ) ) ;
#195 = CONICAL_SURFACE ( 'NONE', #291, 0.05899594499999998021, 0.1745329251994338915 ) ;
#196 = SURFACE_SIDE_STYLE ('',( #286 ) ) ;
#197 = ADVANCED_FACE ( 'NONE', ( #224 ), #16, .T. ) ;
#198 = DIRECTION ( 'NONE',  ( 1.000000000000000000, 0.000000000000000000, 0.000000000000000000 ) ) ;
#199 = CIRCLE ( 'NONE', #263, 0.1181100000000000066 ) ;
#200 = CARTESIAN_POINT ( 'NONE',  ( 3.857159805062494824E-17, 0.000000000000000000, 0.3149609999999999910 ) ) ;
#201 = CARTESIAN_POINT ( 'NONE',  ( -0.1031100000000002570, 0.000000000000000000, 2.244094000000000033 ) ) ;
#202 = EDGE_CURVE ( 'NONE', #252, #239, #49, .T. ) ;
#203 = DIRECTION ( 'NONE',  ( -1.224646799147353207E-16, -0.000000000000000000, -1.000000000000000000 ) ) ;
#204 = UNCERTAINTY_MEASURE_WITH_UNIT (LENGTH_MEASURE( 1.000000000000000082E-05 ), #157, 'distance_accuracy_value', 'NONE');
#205 = AXIS2_PLACEMENT_3D ( 'NONE', #68, #117, #213 ) ;
#206 = DIRECTION ( 'NONE',  ( -1.000000000000000000, 0.000000000000000000, 0.000000000000000000 ) ) ;
#207 = SURFACE_STYLE_FILL_AREA ( #20 ) ;
#208 = APPLICATION_PROTOCOL_DEFINITION ( 'draft international standard', 'automotive_design', 1998, #104 ) ;
#209 = AXIS2_PLACEMENT_3D ( 'NONE', #105, #38, #85 ) ;
#210 = ORIENTED_EDGE ( 'NONE', *, *, #229, .F. ) ;
#211 = LINE ( 'NONE', #187, #274 ) ;
#212 = APPLICATION_PROTOCOL_DEFINITION ( 'draft international standard', 'automotive_design', 1998, #294 ) ;
#213 = DIRECTION ( 'NONE',  ( 1.000000000000000000, 0.000000000000000000, -0.000000000000000000 ) ) ;
#214 = VECTOR ( 'NONE', #237, 39.37007874015748143 ) ;
#215 = AXIS2_PLACEMENT_3D ( 'NONE', #271, #178, #155 ) ;
#216 = EDGE_CURVE ( 'NONE', #254, #28, #244, .T. ) ;
#217 = CARTESIAN_POINT ( 'NONE',  ( 0.000000000000000000, 0.000000000000000000, 2.244094000000000033 ) ) ;
#218 = ORIENTED_EDGE ( 'NONE', *, *, #268, .T. ) ;
#219 = AXIS2_PLACEMENT_3D ( 'NONE', #91, #3, #29 ) ;
#220 =( GEOMETRIC_REPRESENTATION_CONTEXT ( 3 ) GLOBAL_UNCERTAINTY_ASSIGNED_CONTEXT ( ( #204 ) ) GLOBAL_UNIT_ASSIGNED_CONTEXT ( ( #157, #161, #64 ) ) REPRESENTATION_CONTEXT ( 'NONE', 'WORKASPACE' ) );
#221 = ADVANCED_FACE ( 'NONE', ( #126 ), #195, .T. ) ;
#222 = DIRECTION ( 'NONE',  ( 0.000000000000000000, 0.000000000000000000, -1.000000000000000000 ) ) ;
#223 = ORIENTED_EDGE ( 'NONE', *, *, #36, .T. ) ;
#224 = FACE_OUTER_BOUND ( 'NONE', #25, .T. ) ;
#225 = DIRECTION ( 'NONE',  ( 1.000000000000000000, 0.000000000000000000, 0.000000000000000000 ) ) ;
#226 = VECTOR ( 'NONE', #23, 39.37007874015748854 ) ;
#227 = LINE ( 'NONE', #106, #238 ) ;
#228 = CARTESIAN_POINT ( 'NONE',  ( 0.05899594500000002184, 0.000000000000000000, 0.3149609999999999910 ) ) ;
#229 = EDGE_CURVE ( 'NONE', #254, #255, #168, .T. ) ;
#230 = MECHANICAL_DESIGN_GEOMETRIC_PRESENTATION_REPRESENTATION (  '', ( #270 ), #253 ) ;
#231 = SURFACE_SIDE_STYLE ('',( #207 ) ) ;
#232 = CIRCLE ( 'NONE', #109, 0.05899594499999998021 ) ;
#233 = ORIENTED_EDGE ( 'NONE', *, *, #216, .T. ) ;
#234 = DIRECTION ( 'NONE',  ( -1.000000000000000000, 0.000000000000000000, 1.224646799147352961E-16 ) ) ;
#235 = FACE_OUTER_BOUND ( 'NONE', #266, .T. ) ;
#236 = CARTESIAN_POINT ( 'NONE',  ( -0.1031100000000002570, 0.000000000000000000, 2.244094000000000033 ) ) ;
#237 = DIRECTION ( 'NONE',  ( -0.000000000000000000, -0.000000000000000000, -1.000000000000000000 ) ) ;
#238 = VECTOR ( 'NONE', #59, 39.37007874015748143 ) ;
#239 = VERTEX_POINT ( 'NONE', #180 ) ;
#240 = VERTEX_POINT ( 'NONE', #201 ) ;
#241 = CARTESIAN_POINT ( 'NONE',  ( -0.05899594499999998715, 0.000000000000000000, 7.224919520692328148E-18 ) ) ;
#242 = PRODUCT_DEFINITION_SHAPE ( 'NONE', 'NONE',  #73 ) ;
#243 = EDGE_LOOP ( 'NONE', ( #181, #149, #24, #93 ) ) ;
#244 = LINE ( 'NONE', #152, #258 ) ;
#245 = EDGE_LOOP ( 'NONE', ( #146, #40, #10, #280 ) ) ;
#246 = CARTESIAN_POINT ( 'NONE',  ( 3.857159805062494824E-17, 0.000000000000000000, 0.3149609999999999910 ) ) ;
#247 = AXIS2_PLACEMENT_3D ( 'NONE', #58, #222, #225 ) ;
#248 = ADVANCED_FACE ( 'NONE', ( #298 ), #293, .T. ) ;
#249 = CONICAL_SURFACE ( 'NONE', #97, 0.05899594499999998021, 0.1745329251994338915 ) ;
#250 = LENGTH_MEASURE_WITH_UNIT ( LENGTH_MEASURE( 0.02539999999999999897 ), #110 );
#251 = PRESENTATION_STYLE_ASSIGNMENT (( #1 ) ) ;
#252 = VERTEX_POINT ( 'NONE', #18 ) ;
#253 =( GEOMETRIC_REPRESENTATION_CONTEXT ( 3 ) GLOBAL_UNCERTAINTY_ASSIGNED_CONTEXT ( ( #295 ) ) GLOBAL_UNIT_ASSIGNED_CONTEXT ( ( #185, #22, #112 ) ) REPRESENTATION_CONTEXT ( 'NONE', 'WORKASPACE' ) );
#254 = VERTEX_POINT ( 'NONE', #228 ) ;
#255 = VERTEX_POINT ( 'NONE', #81 ) ;
#256 = CARTESIAN_POINT ( 'NONE',  ( -0.1181100000000000066, 0.000000000000000000, 2.244094000000000033 ) ) ;
#257 = LINE ( 'NONE', #236, #226 ) ;
#258 = VECTOR ( 'NONE', #193, 39.37007874015748143 ) ;
#259 = ORIENTED_EDGE ( 'NONE', *, *, #170, .T. ) ;
#260 = CARTESIAN_POINT ( 'NONE',  ( 3.857159805062494824E-17, 0.000000000000000000, 0.3149609999999999910 ) ) ;
#261 = CARTESIAN_POINT ( 'NONE',  ( 0.000000000000000000, 0.000000000000000000, 0.000000000000000000 ) ) ;
#262 = DIRECTION ( 'NONE',  ( -1.000000000000000000, 0.000000000000000000, 0.000000000000000000 ) ) ;
#264 = VERTEX_POINT ( 'NONE', #19 ) ;
#263 = AXIS2_PLACEMENT_3D ( 'NONE', #80, #203, #297 ) ;
#265 = DIRECTION ( 'NONE',  ( 0.000000000000000000, 0.000000000000000000, -1.000000000000000000 ) ) ;
#266 = EDGE_LOOP ( 'NONE', ( #51, #164 ) ) ;
#267 = DIRECTION ( 'NONE',  ( -1.000000000000000000, 0.000000000000000000, 0.000000000000000000 ) ) ;
#268 = EDGE_CURVE ( 'NONE', #239, #28, #227, .T. ) ;
#269 = CARTESIAN_POINT ( 'NONE',  ( 8.847974565113091896E-34, 0.000000000000000000, 7.224919520692329689E-18 ) ) ;
#270 = STYLED_ITEM ( 'NONE', ( #251 ), #174 ) ;
#271 = CARTESIAN_POINT ( 'NONE',  ( 0.000000000000000000, 0.000000000000000000, 2.244094000000000033 ) ) ;
#272 = FACE_OUTER_BOUND ( 'NONE', #101, .T. ) ;
#273 = PRODUCT_RELATED_PRODUCT_CATEGORY ( 'part', '', ( #95 ) ) ;
#274 = VECTOR ( 'NONE', #6, 39.37007874015747433 ) ;
#275 = COLOUR_RGB ( '',0.7921568627450980005, 0.8196078431372548767, 0.9333333333333333481 ) ;
#276 = CARTESIAN_POINT ( 'NONE',  ( 0.000000000000000000, 0.000000000000000000, 2.244094000000000033 ) ) ;
#277 = FACE_OUTER_BOUND ( 'NONE', #243, .T. ) ;
#278 =( GEOMETRIC_REPRESENTATION_CONTEXT ( 3 ) GLOBAL_UNCERTAINTY_ASSIGNED_CONTEXT ( ( #107 ) ) GLOBAL_UNIT_ASSIGNED_CONTEXT ( ( #283, #79, #123 ) ) REPRESENTATION_CONTEXT ( 'NONE', 'WORKASPACE' ) );
#279 = EDGE_CURVE ( 'NONE', #264, #142, #33, .T. ) ;
#280 = ORIENTED_EDGE ( 'NONE', *, *, #39, .F. ) ;
#281 = LINE ( 'NONE', #256, #214 ) ;
#282 = PLANE ( 'NONE',  #159 ) ;
#283 =( CONVERSION_BASED_UNIT ( 'INCH', #121 ) LENGTH_UNIT ( ) NAMED_UNIT ( #111 ) );
#284 = PRESENTATION_LAYER_ASSIGNMENT (  '', '', ( #270 ) ) ;
#285 = ORIENTED_EDGE ( 'NONE', *, *, #103, .F. ) ;
#286 = SURFACE_STYLE_FILL_AREA ( #74 ) ;
#287 = PRESENTATION_STYLE_ASSIGNMENT (( #30 ) ) ;
#288 = ORIENTED_EDGE ( 'NONE', *, *, #202, .T. ) ;
#289 = CARTESIAN_POINT ( 'NONE',  ( 0.000000000000000000, 0.000000000000000000, 2.244094000000000033 ) ) ;
#290 = EDGE_CURVE ( 'NONE', #166, #28, #199, .T. ) ;
#291 = AXIS2_PLACEMENT_3D ( 'NONE', #246, #71, #169 ) ;
#292 = CYLINDRICAL_SURFACE ( 'NONE', #82, 0.1181100000000000066 ) ;
#293 = CYLINDRICAL_SURFACE ( 'NONE', #209, 0.05899594499999998715 ) ;
#294 = APPLICATION_CONTEXT ( 'automotive_design' ) ;
#295 = UNCERTAINTY_MEASURE_WITH_UNIT (LENGTH_MEASURE( 1.000000000000000082E-05 ), #185, 'distance_accuracy_value', 'NONE');
#296 = EDGE_LOOP ( 'NONE', ( #14, #172 ) ) ;
#297 = DIRECTION ( 'NONE',  ( 1.000000000000000000, 0.000000000000000000, 0.000000000000000000 ) ) ;
#298 = FACE_OUTER_BOUND ( 'NONE', #245, .T. ) ;
#299 = ADVANCED_FACE ( 'NONE', ( #272 ), #37, .T. ) ;
ENDSEC;
END-ISO-10303-21;
