ISO-10303-21;
HEADER;
FILE_DESCRIPTION (( 'STEP AP214' ),
    '1' );
FILE_NAME ('06048.STEP',
    '2023-07-05T16:00:28',
    ( '' ),
    ( '' ),
    'SwSTEP 2.0',
    'SolidWorks 2023',
    '' );
FILE_SCHEMA (( 'AUTOMOTIVE_DESIGN' ));
ENDSEC;

DATA;
#1 = PRODUCT_CONTEXT ( 'NONE', #249, 'mechanical' ) ;
#2 = PRESENTATION_STYLE_ASSIGNMENT (( #205 ) ) ;
#3 = SURFACE_STYLE_USAGE ( .BOTH. , #160 ) ;
#4 = AXIS2_PLACEMENT_3D ( 'NONE', #138, #34, #146 ) ;
#5 = EDGE_CURVE ( 'NONE', #259, #233, #68, .T. ) ;
#6 = DIRECTION ( 'NONE',  ( -1.228345323885430886E-16, 1.000000000000000000, -0.000000000000000000 ) ) ;
#7 = STYLED_ITEM ( 'NONE', ( #225 ), #64 ) ;
#8 = EDGE_CURVE ( 'NONE', #48, #251, #103, .T. ) ;
#9 = FACE_OUTER_BOUND ( 'NONE', #61, .T. ) ;
#10 = ORIENTED_EDGE ( 'NONE', *, *, #222, .F. ) ;
#11 =( NAMED_UNIT ( * ) SI_UNIT ( $, .STERADIAN. ) SOLID_ANGLE_UNIT ( ) );
#12 = AXIS2_PLACEMENT_3D ( 'NONE', #20, #6, #162 ) ;
#13 = CARTESIAN_POINT ( 'NONE',  ( 0.1249999999999999584, 0.1249999999999996392, 1.530808498934190893E-17 ) ) ;
#14 = DIRECTION ( 'NONE',  ( 0.000000000000000000, 0.000000000000000000, -1.000000000000000000 ) ) ;
#15 = FILL_AREA_STYLE ('',( #199 ) ) ;
#16 = VECTOR ( 'NONE', #127, 39.37007874015748854 ) ;
#17 = UNCERTAINTY_MEASURE_WITH_UNIT (LENGTH_MEASURE( 1.000000000000000082E-05 ), #94, 'distance_accuracy_value', 'NONE');
#18 = ORIENTED_EDGE ( 'NONE', *, *, #84, .T. ) ;
#19 = ORIENTED_EDGE ( 'NONE', *, *, #125, .T. ) ;
#20 = CARTESIAN_POINT ( 'NONE',  ( 2.304996744654222029E-16, 0.1249999999999996253, 0.000000000000000000 ) ) ;
#21 = PRODUCT ( '06048', '06048', '', ( #1 ) ) ;
#22 =( NAMED_UNIT ( * ) SI_UNIT ( $, .STERADIAN. ) SOLID_ANGLE_UNIT ( ) );
#23 =( LENGTH_UNIT ( ) NAMED_UNIT ( * ) SI_UNIT ( $, .METRE. ) );
#24 = DIRECTION ( 'NONE',  ( 0.000000000000000000, 1.000000000000000000, 0.000000000000000000 ) ) ;
#25 = DIMENSIONAL_EXPONENTS ( 1.000000000000000000, 0.000000000000000000, 0.000000000000000000, 0.000000000000000000, 0.000000000000000000, 0.000000000000000000, 0.000000000000000000 ) ;
#26 =( GEOMETRIC_REPRESENTATION_CONTEXT ( 3 ) GLOBAL_UNCERTAINTY_ASSIGNED_CONTEXT ( ( #155 ) ) GLOBAL_UNIT_ASSIGNED_CONTEXT ( ( #51, #140, #52 ) ) REPRESENTATION_CONTEXT ( 'NONE', 'WORKASPACE' ) );
#27 =( LENGTH_UNIT ( ) NAMED_UNIT ( * ) SI_UNIT ( $, .METRE. ) );
#28 =( NAMED_UNIT ( * ) PLANE_ANGLE_UNIT ( ) SI_UNIT ( $, .RADIAN. ) );
#29 = CARTESIAN_POINT ( 'NONE',  ( 0.000000000000000000, 0.1249999999999995559, 0.1249999999999999861 ) ) ;
#30 = DIRECTION ( 'NONE',  ( -1.228345323885430886E-16, 1.000000000000000000, -0.000000000000000000 ) ) ;
#31 = PRESENTATION_LAYER_ASSIGNMENT (  '', '', ( #244 ) ) ;
#32 = ORIENTED_EDGE ( 'NONE', *, *, #242, .T. ) ;
#33 = FILL_AREA_STYLE_COLOUR ( '', #108 ) ;
#34 = DIRECTION ( 'NONE',  ( 0.000000000000000000, 1.000000000000000000, 0.000000000000000000 ) ) ;
#35 = FILL_AREA_STYLE_COLOUR ( '', #227 ) ;
#36 = DIMENSIONAL_EXPONENTS ( 1.000000000000000000, 0.000000000000000000, 0.000000000000000000, 0.000000000000000000, 0.000000000000000000, 0.000000000000000000, 0.000000000000000000 ) ;
#37 = FILL_AREA_STYLE ('',( #185 ) ) ;
#38 = UNCERTAINTY_MEASURE_WITH_UNIT (LENGTH_MEASURE( 1.000000000000000082E-05 ), #156, 'distance_accuracy_value', 'NONE');
#39 = AXIS2_PLACEMENT_3D ( 'NONE', #216, #24, #246 ) ;
#40 =( NAMED_UNIT ( * ) SI_UNIT ( $, .STERADIAN. ) SOLID_ANGLE_UNIT ( ) );
#41 = FACE_OUTER_BOUND ( 'NONE', #158, .T. ) ;
#42 =( GEOMETRIC_REPRESENTATION_CONTEXT ( 3 ) GLOBAL_UNCERTAINTY_ASSIGNED_CONTEXT ( ( #17 ) ) GLOBAL_UNIT_ASSIGNED_CONTEXT ( ( #94, #28, #54 ) ) REPRESENTATION_CONTEXT ( 'NONE', 'WORKASPACE' ) );
#43 = CARTESIAN_POINT ( 'NONE',  ( -6.123233995736766036E-17, 2.500000000000000000, 0.000000000000000000 ) ) ;
#44 = CYLINDRICAL_SURFACE ( 'NONE', #229, 0.1249999999999999029 ) ;
#45 = CARTESIAN_POINT ( 'NONE',  ( 1.530808498934191509E-17, 0.1249999999999995559, -0.1249999999999999861 ) ) ;
#46 = AXIS2_PLACEMENT_3D ( 'NONE', #62, #260, #67 ) ;
#47 = ORIENTED_EDGE ( 'NONE', *, *, #92, .F. ) ;
#48 = VERTEX_POINT ( 'NONE', #45 ) ;
#49 = MECHANICAL_DESIGN_GEOMETRIC_PRESENTATION_REPRESENTATION (  '', ( #192 ), #26 ) ;
#50 = ORIENTED_EDGE ( 'NONE', *, *, #5, .T. ) ;
#51 =( CONVERSION_BASED_UNIT ( 'INCH', #223 ) LENGTH_UNIT ( ) NAMED_UNIT ( #36 ) );
#52 =( NAMED_UNIT ( * ) SI_UNIT ( $, .STERADIAN. ) SOLID_ANGLE_UNIT ( ) );
#53 =( GEOMETRIC_REPRESENTATION_CONTEXT ( 3 ) GLOBAL_UNCERTAINTY_ASSIGNED_CONTEXT ( ( #209 ) ) GLOBAL_UNIT_ASSIGNED_CONTEXT ( ( #170, #148, #11 ) ) REPRESENTATION_CONTEXT ( 'NONE', 'WORKASPACE' ) );
#54 =( NAMED_UNIT ( * ) SI_UNIT ( $, .STERADIAN. ) SOLID_ANGLE_UNIT ( ) );
#55 = VECTOR ( 'NONE', #164, 39.37007874015748854 ) ;
#56 = FILL_AREA_STYLE_COLOUR ( '', #126 ) ;
#57 = SURFACE_STYLE_FILL_AREA ( #187 ) ;
#58 = EDGE_CURVE ( 'NONE', #233, #239, #190, .T. ) ;
#59 = MECHANICAL_DESIGN_GEOMETRIC_PRESENTATION_REPRESENTATION (  '', ( #143 ), #53 ) ;
#60 = PRESENTATION_STYLE_ASSIGNMENT (( #72 ) ) ;
#61 = EDGE_LOOP ( 'NONE', ( #179, #18, #50, #10 ) ) ;
#62 = CARTESIAN_POINT ( 'NONE',  ( -6.123233995736766036E-17, 2.500000000000000000, 0.000000000000000000 ) ) ;
#63 = DIRECTION ( 'NONE',  ( 1.228345323885430886E-16, -1.000000000000000000, 0.000000000000000000 ) ) ;
#64 = ADVANCED_FACE ( 'NONE', ( #152 ), #120, .T. ) ;
#65 = DIRECTION ( 'NONE',  ( -1.000000000000000000, 0.000000000000000000, 0.000000000000000000 ) ) ;
#66 = FACE_OUTER_BOUND ( 'NONE', #253, .T. ) ;
#67 = DIRECTION ( 'NONE',  ( -1.000000000000000000, 0.000000000000000000, 0.000000000000000000 ) ) ;
#68 = LINE ( 'NONE', #178, #224 ) ;
#69 = CLOSED_SHELL ( 'NONE', ( #202, #149, #235, #248 ) ) ;
#70 = DIRECTION ( 'NONE',  ( -1.228345323885430886E-16, 1.000000000000000000, -0.000000000000000000 ) ) ;
#71 = SURFACE_STYLE_FILL_AREA ( #116 ) ;
#72 = SURFACE_STYLE_USAGE ( .BOTH. , #189 ) ;
#73 = PRESENTATION_STYLE_ASSIGNMENT (( #3 ) ) ;
#74 = DIRECTION ( 'NONE',  ( 0.000000000000000000, 0.000000000000000000, -1.000000000000000000 ) ) ;
#75 = CARTESIAN_POINT ( 'NONE',  ( 2.304996744654222029E-16, 0.1249999999999996253, 0.000000000000000000 ) ) ;
#76 = SURFACE_STYLE_USAGE ( .BOTH. , #154 ) ;
#77 =( CONVERSION_BASED_UNIT ( 'INCH', #226 ) LENGTH_UNIT ( ) NAMED_UNIT ( #263 ) );
#78 = ORIENTED_EDGE ( 'NONE', *, *, #206, .T. ) ;
#79 = ORIENTED_EDGE ( 'NONE', *, *, #222, .T. ) ;
#80 = CARTESIAN_POINT ( 'NONE',  ( -6.123233995736766036E-17, 2.500000000000000000, 0.000000000000000000 ) ) ;
#81 = PRESENTATION_LAYER_ASSIGNMENT (  '', '', ( #181 ) ) ;
#82 =( LENGTH_UNIT ( ) NAMED_UNIT ( * ) SI_UNIT ( $, .METRE. ) );
#83 = CARTESIAN_POINT ( 'NONE',  ( -6.123233995736766036E-17, 2.500000000000000000, 0.000000000000000000 ) ) ;
#84 = EDGE_CURVE ( 'NONE', #264, #259, #100, .T. ) ;
#85 = CARTESIAN_POINT ( 'NONE',  ( 0.1249999999999999861, 2.500000000000000000, 1.530808498934191201E-17 ) ) ;
#86 = ADVANCED_BREP_SHAPE_REPRESENTATION ( '06048', ( #105, #113, #110 ), #204 ) ;
#87 = ORIENTED_EDGE ( 'NONE', *, *, #242, .F. ) ;
#88 = MECHANICAL_DESIGN_GEOMETRIC_PRESENTATION_REPRESENTATION (  '', ( #7 ), #231 ) ;
#89 = AXIS2_PLACEMENT_3D ( 'NONE', #111, #211, #210 ) ;
#90 = EDGE_LOOP ( 'NONE', ( #166, #79 ) ) ;
#91 = UNCERTAINTY_MEASURE_WITH_UNIT (LENGTH_MEASURE( 1.000000000000000082E-05 ), #77, 'distance_accuracy_value', 'NONE');
#92 = EDGE_CURVE ( 'NONE', #259, #264, #200, .T. ) ;
#93 = LENGTH_MEASURE_WITH_UNIT ( LENGTH_MEASURE( 0.02539999999999999897 ), #23 );
#94 =( CONVERSION_BASED_UNIT ( 'INCH', #188 ) LENGTH_UNIT ( ) NAMED_UNIT ( #177 ) );
#95 = SURFACE_STYLE_USAGE ( .BOTH. , #139 ) ;
#96 = AXIS2_PLACEMENT_3D ( 'NONE', #182, #171, #122 ) ;
#97 = SURFACE_SIDE_STYLE ('',( #230 ) ) ;
#98 = FILL_AREA_STYLE ('',( #56 ) ) ;
#99 = VERTEX_POINT ( 'NONE', #221 ) ;
#100 = CIRCLE ( 'NONE', #169, 0.1249999999999997641 ) ;
#101 = CARTESIAN_POINT ( 'NONE',  ( -0.1249999999999995143, 0.1249999999999996114, 0.000000000000000000 ) ) ;
#102 = EDGE_LOOP ( 'NONE', ( #87, #219, #19 ) ) ;
#103 = CIRCLE ( 'NONE', #159, 0.1249999999999999861 ) ;
#104 = PLANE ( 'NONE',  #89 ) ;
#105 = MANIFOLD_SOLID_BREP ( 'Revolve - Cutting Edge', #153 ) ;
#106 = CARTESIAN_POINT ( 'NONE',  ( 0.1249999999999998335, 2.500000000000000000, 1.530808498934190276E-17 ) ) ;
#107 = AXIS2_PLACEMENT_3D ( 'NONE', #83, #128, #196 ) ;
#108 = COLOUR_RGB ( '',0.7921568627450980005, 0.8196078431372548767, 0.9333333333333333481 ) ;
#109 = PLANE ( 'NONE',  #117 ) ;
#110 = AXIS2_PLACEMENT_3D ( 'NONE', #238, #130, #198 ) ;
#111 = CARTESIAN_POINT ( 'NONE',  ( 2.304996744654222029E-16, 0.1249999999999995559, 0.000000000000000000 ) ) ;
#112 = CIRCLE ( 'NONE', #46, 0.1250000000000000555 ) ;
#113 = MANIFOLD_SOLID_BREP ( 'Revolve - Tool Body (Pointed)', #69 ) ;
#114 = ORIENTED_EDGE ( 'NONE', *, *, #58, .F. ) ;
#115 = SHAPE_DEFINITION_REPRESENTATION ( #141, #86 ) ;
#116 = FILL_AREA_STYLE ('',( #33 ) ) ;
#117 = AXIS2_PLACEMENT_3D ( 'NONE', #255, #63, #193 ) ;
#118 =( LENGTH_UNIT ( ) NAMED_UNIT ( * ) SI_UNIT ( $, .METRE. ) );
#119 =( LENGTH_UNIT ( ) NAMED_UNIT ( * ) SI_UNIT ( $, .METRE. ) );
#120 = CONICAL_SURFACE ( 'NONE', #39, 39.37007874015762354, 0.7853981633974500554 ) ;
#121 = CONICAL_SURFACE ( 'NONE', #96, 39.37007874015762354, 0.7853981633974500554 ) ;
#122 = DIRECTION ( 'NONE',  ( 0.000000000000000000, 0.000000000000000000, 1.000000000000000000 ) ) ;
#123 = LENGTH_MEASURE_WITH_UNIT ( LENGTH_MEASURE( 0.02539999999999999897 ), #82 );
#124 = CARTESIAN_POINT ( 'NONE',  ( -0.1250000000000001110, 2.500000000000000000, 0.000000000000000000 ) ) ;
#125 = EDGE_CURVE ( 'NONE', #251, #48, #236, .T. ) ;
#126 = COLOUR_RGB ( '',1.000000000000000000, 0.000000000000000000, 0.000000000000000000 ) ;
#127 = DIRECTION ( 'NONE',  ( 0.000000000000000000, 0.7071067811865462405, 0.7071067811865486830 ) ) ;
#128 = DIRECTION ( 'NONE',  ( -1.228345323885430886E-16, 1.000000000000000000, -0.000000000000000000 ) ) ;
#129 = UNCERTAINTY_MEASURE_WITH_UNIT (LENGTH_MEASURE( 1.000000000000000082E-05 ), #137, 'distance_accuracy_value', 'NONE');
#130 = DIRECTION ( 'NONE',  ( 0.000000000000000000, 0.000000000000000000, 1.000000000000000000 ) ) ;
#131 = COLOUR_RGB ( '',1.000000000000000000, 0.000000000000000000, 0.000000000000000000 ) ;
#132 = EDGE_LOOP ( 'NONE', ( #214, #240 ) ) ;
#133 = CARTESIAN_POINT ( 'NONE',  ( 0.000000000000000000, 0.1249999999999995559, 0.000000000000000000 ) ) ;
#134 = ADVANCED_FACE ( 'NONE', ( #247 ), #232, .T. ) ;
#135 = DIRECTION ( 'NONE',  ( -1.228345323885430886E-16, 1.000000000000000000, -0.000000000000000000 ) ) ;
#136 = PRESENTATION_LAYER_ASSIGNMENT (  '', '', ( #7 ) ) ;
#137 =( CONVERSION_BASED_UNIT ( 'INCH', #93 ) LENGTH_UNIT ( ) NAMED_UNIT ( #25 ) );
#138 = CARTESIAN_POINT ( 'NONE',  ( 0.000000000000000000, 0.1249999999999995559, 0.000000000000000000 ) ) ;
#139 = SURFACE_SIDE_STYLE ('',( #57 ) ) ;
#140 =( NAMED_UNIT ( * ) PLANE_ANGLE_UNIT ( ) SI_UNIT ( $, .RADIAN. ) );
#141 = PRODUCT_DEFINITION_SHAPE ( 'NONE', 'NONE',  #184 ) ;
#142 = SURFACE_STYLE_FILL_AREA ( #98 ) ;
#143 = STYLED_ITEM ( 'NONE', ( #2 ), #145 ) ;
#144 = ORIENTED_EDGE ( 'NONE', *, *, #92, .T. ) ;
#145 = ADVANCED_FACE ( 'NONE', ( #41 ), #121, .T. ) ;
#146 = DIRECTION ( 'NONE',  ( 0.000000000000000000, -0.000000000000000000, 1.000000000000000000 ) ) ;
#147 =( GEOMETRIC_REPRESENTATION_CONTEXT ( 3 ) GLOBAL_UNCERTAINTY_ASSIGNED_CONTEXT ( ( #91 ) ) GLOBAL_UNIT_ASSIGNED_CONTEXT ( ( #77, #163, #40 ) ) REPRESENTATION_CONTEXT ( 'NONE', 'WORKASPACE' ) );
#148 =( NAMED_UNIT ( * ) PLANE_ANGLE_UNIT ( ) SI_UNIT ( $, .RADIAN. ) );
#149 = ADVANCED_FACE ( 'NONE', ( #168 ), #104, .F. ) ;
#150 = CYLINDRICAL_SURFACE ( 'NONE', #256, 0.1249999999999999029 ) ;
#151 = DIRECTION ( 'NONE',  ( -1.000000000000000000, 0.000000000000000000, 0.000000000000000000 ) ) ;
#152 = FACE_OUTER_BOUND ( 'NONE', #102, .T. ) ;
#153 = CLOSED_SHELL ( 'NONE', ( #145, #134, #64 ) ) ;
#154 = SURFACE_SIDE_STYLE ('',( #176 ) ) ;
#155 = UNCERTAINTY_MEASURE_WITH_UNIT (LENGTH_MEASURE( 1.000000000000000082E-05 ), #51, 'distance_accuracy_value', 'NONE');
#156 =( CONVERSION_BASED_UNIT ( 'INCH', #123 ) LENGTH_UNIT ( ) NAMED_UNIT ( #165 ) );
#157 = PRESENTATION_LAYER_ASSIGNMENT (  '', '', ( #192 ) ) ;
#158 = EDGE_LOOP ( 'NONE', ( #262, #32, #173 ) ) ;
#159 = AXIS2_PLACEMENT_3D ( 'NONE', #133, #194, #14 ) ;
#160 = SURFACE_SIDE_STYLE ('',( #71 ) ) ;
#161 = VECTOR ( 'NONE', #30, 39.37007874015748143 ) ;
#162 = DIRECTION ( 'NONE',  ( -1.000000000000000000, -1.365923996832134074E-16, 0.000000000000000000 ) ) ;
#163 =( NAMED_UNIT ( * ) PLANE_ANGLE_UNIT ( ) SI_UNIT ( $, .RADIAN. ) );
#164 = DIRECTION ( 'NONE',  ( 8.659560562354947649E-17, 0.7071067811865462405, -0.7071067811865486830 ) ) ;
#165 = DIMENSIONAL_EXPONENTS ( 1.000000000000000000, 0.000000000000000000, 0.000000000000000000, 0.000000000000000000, 0.000000000000000000, 0.000000000000000000, 0.000000000000000000 ) ;
#166 = ORIENTED_EDGE ( 'NONE', *, *, #58, .T. ) ;
#167 = APPLICATION_CONTEXT ( 'automotive_design' ) ;
#168 = FACE_OUTER_BOUND ( 'NONE', #237, .T. ) ;
#169 = AXIS2_PLACEMENT_3D ( 'NONE', #75, #135, #208 ) ;
#170 =( CONVERSION_BASED_UNIT ( 'INCH', #195 ) LENGTH_UNIT ( ) NAMED_UNIT ( #254 ) );
#171 = DIRECTION ( 'NONE',  ( 0.000000000000000000, 1.000000000000000000, 0.000000000000000000 ) ) ;
#172 = CARTESIAN_POINT ( 'NONE',  ( 0.000000000000000000, 0.000000000000000000, 0.000000000000000000 ) ) ;
#173 = ORIENTED_EDGE ( 'NONE', *, *, #8, .T. ) ;
#174 = PRESENTATION_LAYER_ASSIGNMENT (  '', '', ( #143 ) ) ;
#175 =( NAMED_UNIT ( * ) PLANE_ANGLE_UNIT ( ) SI_UNIT ( $, .RADIAN. ) );
#176 = SURFACE_STYLE_FILL_AREA ( #15 ) ;
#177 = DIMENSIONAL_EXPONENTS ( 1.000000000000000000, 0.000000000000000000, 0.000000000000000000, 0.000000000000000000, 0.000000000000000000, 0.000000000000000000, 0.000000000000000000 ) ;
#178 = CARTESIAN_POINT ( 'NONE',  ( -0.1249999999999999584, 2.500000000000000000, 0.000000000000000000 ) ) ;
#179 = ORIENTED_EDGE ( 'NONE', *, *, #206, .F. ) ;
#180 =( NAMED_UNIT ( * ) SI_UNIT ( $, .STERADIAN. ) SOLID_ANGLE_UNIT ( ) );
#181 = STYLED_ITEM ( 'NONE', ( #60 ), #134 ) ;
#182 = CARTESIAN_POINT ( 'NONE',  ( 0.000000000000000000, 39.37007874015748143, 0.000000000000000000 ) ) ;
#183 = CARTESIAN_POINT ( 'NONE',  ( 0.000000000000000000, 0.1249999999999995559, 0.000000000000000000 ) ) ;
#184 = PRODUCT_DEFINITION ( 'UNKNOWN', '', #241, #228 ) ;
#185 = FILL_AREA_STYLE_COLOUR ( '', #131 ) ;
#186 = MECHANICAL_DESIGN_GEOMETRIC_PRESENTATION_REPRESENTATION (  '', ( #181 ), #147 ) ;
#187 = FILL_AREA_STYLE ('',( #35 ) ) ;
#188 = LENGTH_MEASURE_WITH_UNIT ( LENGTH_MEASURE( 0.02539999999999999897 ), #118 );
#189 = SURFACE_SIDE_STYLE ('',( #142 ) ) ;
#190 = CIRCLE ( 'NONE', #107, 0.1250000000000000555 ) ;
#191 = LINE ( 'NONE', #172, #16 ) ;
#192 = STYLED_ITEM ( 'NONE', ( #243 ), #105 ) ;
#193 = DIRECTION ( 'NONE',  ( 1.000000000000000000, 1.228345323885430886E-16, 0.000000000000000000 ) ) ;
#194 = DIRECTION ( 'NONE',  ( -0.000000000000000000, -1.000000000000000000, -0.000000000000000000 ) ) ;
#195 = LENGTH_MEASURE_WITH_UNIT ( LENGTH_MEASURE( 0.02539999999999999897 ), #258 );
#196 = DIRECTION ( 'NONE',  ( -1.000000000000000000, 0.000000000000000000, 0.000000000000000000 ) ) ;
#197 = EDGE_CURVE ( 'NONE', #99, #251, #191, .T. ) ;
#198 = DIRECTION ( 'NONE',  ( 1.000000000000000000, 0.000000000000000000, 0.000000000000000000 ) ) ;
#199 = FILL_AREA_STYLE_COLOUR ( '', #250 ) ;
#200 = CIRCLE ( 'NONE', #12, 0.1249999999999997641 ) ;
#201 = ORIENTED_EDGE ( 'NONE', *, *, #84, .F. ) ;
#202 = ADVANCED_FACE ( 'NONE', ( #66 ), #150, .T. ) ;
#203 =( NAMED_UNIT ( * ) PLANE_ANGLE_UNIT ( ) SI_UNIT ( $, .RADIAN. ) );
#204 =( GEOMETRIC_REPRESENTATION_CONTEXT ( 3 ) GLOBAL_UNCERTAINTY_ASSIGNED_CONTEXT ( ( #38 ) ) GLOBAL_UNIT_ASSIGNED_CONTEXT ( ( #156, #175, #180 ) ) REPRESENTATION_CONTEXT ( 'NONE', 'WORKASPACE' ) );
#205 = SURFACE_STYLE_USAGE ( .BOTH. , #97 ) ;
#206 = EDGE_CURVE ( 'NONE', #264, #239, #234, .T. ) ;
#207 = MECHANICAL_DESIGN_GEOMETRIC_PRESENTATION_REPRESENTATION (  '', ( #244 ), #42 ) ;
#208 = DIRECTION ( 'NONE',  ( -1.000000000000000000, -1.365923996832134074E-16, 0.000000000000000000 ) ) ;
#209 = UNCERTAINTY_MEASURE_WITH_UNIT (LENGTH_MEASURE( 1.000000000000000082E-05 ), #170, 'distance_accuracy_value', 'NONE');
#210 = DIRECTION ( 'NONE',  ( -1.000000000000000000, -1.228345323885430886E-16, 0.000000000000000000 ) ) ;
#211 = DIRECTION ( 'NONE',  ( -1.228345323885430886E-16, 1.000000000000000000, 0.000000000000000000 ) ) ;
#212 = DIRECTION ( 'NONE',  ( -1.228345323885430886E-16, 1.000000000000000000, -0.000000000000000000 ) ) ;
#213 = LINE ( 'NONE', #215, #55 ) ;
#214 = ORIENTED_EDGE ( 'NONE', *, *, #125, .F. ) ;
#215 = CARTESIAN_POINT ( 'NONE',  ( 0.000000000000000000, 0.000000000000000000, 0.000000000000000000 ) ) ;
#216 = CARTESIAN_POINT ( 'NONE',  ( 0.000000000000000000, 39.37007874015748143, 0.000000000000000000 ) ) ;
#217 = APPLICATION_PROTOCOL_DEFINITION ( 'draft international standard', 'automotive_design', 1998, #167 ) ;
#218 = APPLICATION_PROTOCOL_DEFINITION ( 'draft international standard', 'automotive_design', 1998, #249 ) ;
#219 = ORIENTED_EDGE ( 'NONE', *, *, #197, .T. ) ;
#220 = PRODUCT_RELATED_PRODUCT_CATEGORY ( 'part', '', ( #21 ) ) ;
#221 = CARTESIAN_POINT ( 'NONE',  ( 0.000000000000000000, 0.000000000000000000, 0.000000000000000000 ) ) ;
#222 = EDGE_CURVE ( 'NONE', #239, #233, #112, .T. ) ;
#223 = LENGTH_MEASURE_WITH_UNIT ( LENGTH_MEASURE( 0.02539999999999999897 ), #119 );
#224 = VECTOR ( 'NONE', #70, 39.37007874015748143 ) ;
#225 = PRESENTATION_STYLE_ASSIGNMENT (( #76 ) ) ;
#226 = LENGTH_MEASURE_WITH_UNIT ( LENGTH_MEASURE( 0.02539999999999999897 ), #27 );
#227 = COLOUR_RGB ( '',0.7921568627450980005, 0.8196078431372548767, 0.9333333333333333481 ) ;
#228 = PRODUCT_DEFINITION_CONTEXT ( 'detailed design', #167, 'design' ) ;
#229 = AXIS2_PLACEMENT_3D ( 'NONE', #43, #212, #151 ) ;
#230 = SURFACE_STYLE_FILL_AREA ( #37 ) ;
#231 =( GEOMETRIC_REPRESENTATION_CONTEXT ( 3 ) GLOBAL_UNCERTAINTY_ASSIGNED_CONTEXT ( ( #129 ) ) GLOBAL_UNIT_ASSIGNED_CONTEXT ( ( #137, #203, #22 ) ) REPRESENTATION_CONTEXT ( 'NONE', 'WORKASPACE' ) );
#232 = PLANE ( 'NONE',  #4 ) ;
#233 = VERTEX_POINT ( 'NONE', #124 ) ;
#234 = LINE ( 'NONE', #106, #161 ) ;
#235 = ADVANCED_FACE ( 'NONE', ( #9 ), #44, .T. ) ;
#236 = CIRCLE ( 'NONE', #265, 0.1249999999999999861 ) ;
#237 = EDGE_LOOP ( 'NONE', ( #47, #201 ) ) ;
#238 = CARTESIAN_POINT ( 'NONE',  ( 0.000000000000000000, 0.000000000000000000, 0.000000000000000000 ) ) ;
#239 = VERTEX_POINT ( 'NONE', #85 ) ;
#240 = ORIENTED_EDGE ( 'NONE', *, *, #8, .F. ) ;
#241 = PRODUCT_DEFINITION_FORMATION_WITH_SPECIFIED_SOURCE ( 'ANY', '', #21, .NOT_KNOWN. ) ;
#242 = EDGE_CURVE ( 'NONE', #99, #48, #213, .T. ) ;
#243 = PRESENTATION_STYLE_ASSIGNMENT (( #95 ) ) ;
#244 = STYLED_ITEM ( 'NONE', ( #73 ), #113 ) ;
#245 = DIRECTION ( 'NONE',  ( -0.000000000000000000, -1.000000000000000000, -0.000000000000000000 ) ) ;
#246 = DIRECTION ( 'NONE',  ( 0.000000000000000000, 0.000000000000000000, 1.000000000000000000 ) ) ;
#247 = FACE_OUTER_BOUND ( 'NONE', #132, .T. ) ;
#248 = ADVANCED_FACE ( 'NONE', ( #252 ), #109, .F. ) ;
#249 = APPLICATION_CONTEXT ( 'automotive_design' ) ;
#250 = COLOUR_RGB ( '',1.000000000000000000, 0.000000000000000000, 0.000000000000000000 ) ;
#251 = VERTEX_POINT ( 'NONE', #29 ) ;
#252 = FACE_OUTER_BOUND ( 'NONE', #90, .T. ) ;
#253 = EDGE_LOOP ( 'NONE', ( #144, #78, #114, #261 ) ) ;
#254 = DIMENSIONAL_EXPONENTS ( 1.000000000000000000, 0.000000000000000000, 0.000000000000000000, 0.000000000000000000, 0.000000000000000000, 0.000000000000000000, 0.000000000000000000 ) ;
#255 = CARTESIAN_POINT ( 'NONE',  ( 0.1249999999999999861, 2.500000000000000000, 0.000000000000000000 ) ) ;
#256 = AXIS2_PLACEMENT_3D ( 'NONE', #80, #257, #65 ) ;
#257 = DIRECTION ( 'NONE',  ( -1.228345323885430886E-16, 1.000000000000000000, -0.000000000000000000 ) ) ;
#258 =( LENGTH_UNIT ( ) NAMED_UNIT ( * ) SI_UNIT ( $, .METRE. ) );
#259 = VERTEX_POINT ( 'NONE', #101 ) ;
#260 = DIRECTION ( 'NONE',  ( -1.228345323885430886E-16, 1.000000000000000000, -0.000000000000000000 ) ) ;
#261 = ORIENTED_EDGE ( 'NONE', *, *, #5, .F. ) ;
#262 = ORIENTED_EDGE ( 'NONE', *, *, #197, .F. ) ;
#263 = DIMENSIONAL_EXPONENTS ( 1.000000000000000000, 0.000000000000000000, 0.000000000000000000, 0.000000000000000000, 0.000000000000000000, 0.000000000000000000, 0.000000000000000000 ) ;
#264 = VERTEX_POINT ( 'NONE', #13 ) ;
#265 = AXIS2_PLACEMENT_3D ( 'NONE', #183, #245, #74 ) ;
ENDSEC;
END-ISO-10303-21;
