ISO-10303-21;
HEADER;
FILE_DESCRIPTION (( 'STEP AP214' ),
    '1' );
FILE_NAME ('Micro_DMM-050-290X.STEP',
    '2021-09-02T16:20:48',
    ( '' ),
    ( '' ),
    'SwSTEP 2.0',
    'SolidWorks 2020',
    '' );
FILE_SCHEMA (( 'AUTOMOTIVE_DESIGN' ));
ENDSEC;

DATA;
#1 = EDGE_CURVE ( 'NONE', #314, #285, #79, .T. ) ;
#2 = DIRECTION ( 'NONE',  ( -1.000000000000000000, 0.0000000000000000000, 0.0000000000000000000 ) ) ;
#3 = AXIS2_PLACEMENT_3D ( 'NONE', #103, #35, #6 ) ;
#4 = APPLICATION_CONTEXT ( 'automotive_design' ) ;
#5 =( NAMED_UNIT ( * ) SI_UNIT ( $, .STERADIAN. ) SOLID_ANGLE_UNIT ( ) );
#6 = DIRECTION ( 'NONE',  ( -1.000000000000000000, 0.0000000000000000000, 0.0000000000000000000 ) ) ;
#7 = APPLICATION_CONTEXT ( 'automotive_design' ) ;
#8 = LENGTH_MEASURE_WITH_UNIT ( LENGTH_MEASURE( 0.02539999999999999897 ), #65 );
#9 = AXIS2_PLACEMENT_3D ( 'NONE', #121, #216, #93 ) ;
#10 =( NAMED_UNIT ( * ) SI_UNIT ( $, .STERADIAN. ) SOLID_ANGLE_UNIT ( ) );
#11 = ORIENTED_EDGE ( 'NONE', *, *, #21, .F. ) ;
#12 = DIMENSIONAL_EXPONENTS ( 1.000000000000000000, 0.0000000000000000000, 0.0000000000000000000, 0.0000000000000000000, 0.0000000000000000000, 0.0000000000000000000, 0.0000000000000000000 ) ;
#13 = EDGE_LOOP ( 'NONE', ( #95, #168, #233, #68 ) ) ;
#14 = FACE_OUTER_BOUND ( 'NONE', #13, .T. ) ;
#15 = EDGE_CURVE ( 'NONE', #238, #163, #200, .T. ) ;
#16 = LINE ( 'NONE', #111, #182 ) ;
#17 = VERTEX_POINT ( 'NONE', #261 ) ;
#18 = DIRECTION ( 'NONE',  ( -0.7071067811865358044, 0.0000000000000000000, -0.7071067811865590080 ) ) ;
#19 = CONICAL_SURFACE ( 'NONE', #78, 0.007499999999999999722, 0.7853981633974503884 ) ;
#20 = CARTESIAN_POINT ( 'NONE',  ( 0.09837500000000003186, 0.0000000000000000000, 0.09087499999999965050 ) ) ;
#21 = EDGE_CURVE ( 'NONE', #22, #17, #249, .T. ) ;
#22 = VERTEX_POINT ( 'NONE', #139 ) ;
#23 = CARTESIAN_POINT ( 'NONE',  ( 0.0000000000000000000, 0.0000000000000000000, 1.707404996040164512E-17 ) ) ;
#24 = DIRECTION ( 'NONE',  ( -1.000000000000000000, 0.0000000000000000000, 0.0000000000000000000 ) ) ;
#25 = ADVANCED_FACE ( 'NONE', ( #141 ), #228, .T. ) ;
#26 = ORIENTED_EDGE ( 'NONE', *, *, #56, .T. ) ;
#27 = CARTESIAN_POINT ( 'NONE',  ( 0.0000000000000000000, 0.0000000000000000000, 0.5118110000000001270 ) ) ;
#28 = ORIENTED_EDGE ( 'NONE', *, *, #100, .T. ) ;
#29 = SHAPE_DEFINITION_REPRESENTATION ( #174, #251 ) ;
#30 = EDGE_CURVE ( 'NONE', #17, #22, #55, .T. ) ;
#31 = VECTOR ( 'NONE', #114, 39.37007874015748854 ) ;
#32 = CARTESIAN_POINT ( 'NONE',  ( -0.1031100000000002570, 0.0000000000000000000, 2.244094000000000033 ) ) ;
#33 = VECTOR ( 'NONE', #18, 39.37007874015748854 ) ;
#34 = VECTOR ( 'NONE', #262, 39.37007874015748143 ) ;
#35 = DIRECTION ( 'NONE',  ( 0.0000000000000000000, 0.0000000000000000000, -1.000000000000000000 ) ) ;
#36 =( NAMED_UNIT ( * ) PLANE_ANGLE_UNIT ( ) SI_UNIT ( $, .RADIAN. ) );
#37 = LENGTH_MEASURE_WITH_UNIT ( LENGTH_MEASURE( 0.02539999999999999897 ), #81 );
#38 = FILL_AREA_STYLE ('',( #317 ) ) ;
#39 = AXIS2_PLACEMENT_3D ( 'NONE', #82, #59, #156 ) ;
#40 = DIRECTION ( 'NONE',  ( -0.0000000000000000000, -0.0000000000000000000, -1.000000000000000000 ) ) ;
#41 = CARTESIAN_POINT ( 'NONE',  ( -0.007499999999999999722, 6.482973992986302093E-18, 1.707404996040164512E-17 ) ) ;
#42 = APPLICATION_PROTOCOL_DEFINITION ( 'draft international standard', 'automotive_design', 1998, #7 ) ;
#43 = ORIENTED_EDGE ( 'NONE', *, *, #61, .T. ) ;
#44 = VERTEX_POINT ( 'NONE', #316 ) ;
#45 = CARTESIAN_POINT ( 'NONE',  ( 0.0000000000000000000, 0.0000000000000000000, 2.244094000000000033 ) ) ;
#46 =( CONVERSION_BASED_UNIT ( 'INCH', #309 ) LENGTH_UNIT ( ) NAMED_UNIT ( #12 ) );
#47 = CIRCLE ( 'NONE', #58, 0.09837500000000001799 ) ;
#48 = LINE ( 'NONE', #180, #80 ) ;
#49 = VERTEX_POINT ( 'NONE', #230 ) ;
#50 = CYLINDRICAL_SURFACE ( 'NONE', #9, 0.1181100000000000066 ) ;
#51 = DIRECTION ( 'NONE',  ( -1.000000000000000000, 0.0000000000000000000, 0.0000000000000000000 ) ) ;
#52 = CARTESIAN_POINT ( 'NONE',  ( -0.1181100000000000066, 0.0000000000000000000, 0.5118110000000001270 ) ) ;
#53 = COLOUR_RGB ( '',0.7921568627450980005, 0.8196078431372548767, 0.9333333333333333481 ) ;
#54 = EDGE_CURVE ( 'NONE', #314, #97, #122, .T. ) ;
#55 = CIRCLE ( 'NONE', #246, 0.09837500000000004574 ) ;
#56 = EDGE_CURVE ( 'NONE', #285, #49, #70, .T. ) ;
#57 = FILL_AREA_STYLE_COLOUR ( '', #53 ) ;
#58 = AXIS2_PLACEMENT_3D ( 'NONE', #207, #300, #169 ) ;
#59 = DIRECTION ( 'NONE',  ( -0.0000000000000000000, -0.0000000000000000000, -1.000000000000000000 ) ) ;
#60 = ORIENTED_EDGE ( 'NONE', *, *, #319, .F. ) ;
#61 = EDGE_CURVE ( 'NONE', #212, #322, #224, .T. ) ;
#62 = CARTESIAN_POINT ( 'NONE',  ( 0.0000000000000000000, 0.0000000000000000000, 2.244094000000000033 ) ) ;
#63 = AXIS2_PLACEMENT_3D ( 'NONE', #109, #67, #328 ) ;
#64 = CARTESIAN_POINT ( 'NONE',  ( 0.0000000000000000000, 0.0000000000000000000, 0.5118110000000000159 ) ) ;
#65 =( LENGTH_UNIT ( ) NAMED_UNIT ( * ) SI_UNIT ( $, .METRE. ) );
#66 = ORIENTED_EDGE ( 'NONE', *, *, #116, .F. ) ;
#67 = DIRECTION ( 'NONE',  ( 0.0000000000000000000, 0.0000000000000000000, -1.000000000000000000 ) ) ;
#68 = ORIENTED_EDGE ( 'NONE', *, *, #100, .F. ) ;
#69 = DIRECTION ( 'NONE',  ( 0.0000000000000000000, 0.0000000000000000000, 1.000000000000000000 ) ) ;
#70 = LINE ( 'NONE', #146, #279 ) ;
#71 = ORIENTED_EDGE ( 'NONE', *, *, #304, .F. ) ;
#72 = AXIS2_PLACEMENT_3D ( 'NONE', #217, #240, #51 ) ;
#73 = COLOUR_RGB ( '',0.7921568627450980005, 0.8196078431372548767, 0.9333333333333333481 ) ;
#74 = PRODUCT_DEFINITION ( 'UNKNOWN', '', #312, #227 ) ;
#75 = ORIENTED_EDGE ( 'NONE', *, *, #30, .T. ) ;
#76 = DIRECTION ( 'NONE',  ( 0.0000000000000000000, 0.0000000000000000000, 1.000000000000000000 ) ) ;
#77 = CIRCLE ( 'NONE', #253, 0.007499999999999999722 ) ;
#78 = AXIS2_PLACEMENT_3D ( 'NONE', #234, #204, #206 ) ;
#79 = CIRCLE ( 'NONE', #266, 0.007499999999999999722 ) ;
#80 = VECTOR ( 'NONE', #263, 39.37007874015748143 ) ;
#81 =( LENGTH_UNIT ( ) NAMED_UNIT ( * ) SI_UNIT ( $, .METRE. ) );
#82 = CARTESIAN_POINT ( 'NONE',  ( 0.0000000000000000000, 0.0000000000000000000, 0.0000000000000000000 ) ) ;
#83 = EDGE_CURVE ( 'NONE', #17, #97, #48, .T. ) ;
#84 = DIMENSIONAL_EXPONENTS ( 1.000000000000000000, 0.0000000000000000000, 0.0000000000000000000, 0.0000000000000000000, 0.0000000000000000000, 0.0000000000000000000, 0.0000000000000000000 ) ;
#85 = FACE_OUTER_BOUND ( 'NONE', #298, .T. ) ;
#86 = DIRECTION ( 'NONE',  ( 0.7071067811865490160, 0.0000000000000000000, 0.7071067811865460184 ) ) ;
#87 = SURFACE_SIDE_STYLE ('',( #133 ) ) ;
#88 = STYLED_ITEM ( 'NONE', ( #290 ), #251 ) ;
#89 = EDGE_LOOP ( 'NONE', ( #11, #184 ) ) ;
#90 = CARTESIAN_POINT ( 'NONE',  ( 0.1181100000000000066, 1.446430334472939084E-17, 2.244094000000000033 ) ) ;
#91 = VECTOR ( 'NONE', #86, 39.37007874015748143 ) ;
#92 = ORIENTED_EDGE ( 'NONE', *, *, #21, .T. ) ;
#93 = DIRECTION ( 'NONE',  ( -1.000000000000000000, 0.0000000000000000000, 0.0000000000000000000 ) ) ;
#94 = EDGE_LOOP ( 'NONE', ( #71, #320, #28, #294 ) ) ;
#95 = ORIENTED_EDGE ( 'NONE', *, *, #164, .T. ) ;
#96 = CARTESIAN_POINT ( 'NONE',  ( 0.0000000000000000000, 0.0000000000000000000, 2.229093999999999465 ) ) ;
#97 = VERTEX_POINT ( 'NONE', #20 ) ;
#98 = ORIENTED_EDGE ( 'NONE', *, *, #83, .T. ) ;
#99 = AXIS2_PLACEMENT_3D ( 'NONE', #278, #245, #196 ) ;
#100 = EDGE_CURVE ( 'NONE', #324, #238, #16, .T. ) ;
#101 = CARTESIAN_POINT ( 'NONE',  ( -0.09837500000000003186, 0.0000000000000000000, 0.0000000000000000000 ) ) ;
#102 = VECTOR ( 'NONE', #281, 39.37007874015748143 ) ;
#103 = CARTESIAN_POINT ( 'NONE',  ( 0.0000000000000000000, 0.0000000000000000000, 2.244094000000000033 ) ) ;
#104 = FACE_OUTER_BOUND ( 'NONE', #235, .T. ) ;
#105 = LINE ( 'NONE', #101, #102 ) ;
#106 = AXIS2_PLACEMENT_3D ( 'NONE', #64, #144, #24 ) ;
#107 = AXIS2_PLACEMENT_3D ( 'NONE', #45, #76, #303 ) ;
#108 =( NAMED_UNIT ( * ) SI_UNIT ( $, .STERADIAN. ) SOLID_ANGLE_UNIT ( ) );
#109 = CARTESIAN_POINT ( 'NONE',  ( 0.0000000000000000000, 0.0000000000000000000, 2.244094000000000033 ) ) ;
#110 = DIRECTION ( 'NONE',  ( -1.000000000000000000, 0.0000000000000000000, 0.0000000000000000000 ) ) ;
#111 = CARTESIAN_POINT ( 'NONE',  ( -0.1181100000000000066, 0.0000000000000000000, 2.244094000000000033 ) ) ;
#112 =( GEOMETRIC_REPRESENTATION_CONTEXT ( 3 ) GLOBAL_UNCERTAINTY_ASSIGNED_CONTEXT ( ( #255 ) ) GLOBAL_UNIT_ASSIGNED_CONTEXT ( ( #46, #185, #108 ) ) REPRESENTATION_CONTEXT ( 'NONE', 'WORKASPACE' ) );
#113 = ORIENTED_EDGE ( 'NONE', *, *, #1, .F. ) ;
#114 = DIRECTION ( 'NONE',  ( 0.7071067811865358044, 8.659560562354788645E-17, -0.7071067811865590080 ) ) ;
#115 = EDGE_LOOP ( 'NONE', ( #243, #75, #205, #188 ) ) ;
#116 = EDGE_CURVE ( 'NONE', #49, #97, #47, .T. ) ;
#117 = ORIENTED_EDGE ( 'NONE', *, *, #248, .T. ) ;
#118 = CARTESIAN_POINT ( 'NONE',  ( -0.1031100000000002570, 0.0000000000000000000, 2.244094000000000033 ) ) ;
#119 = DIRECTION ( 'NONE',  ( -1.000000000000000000, 0.0000000000000000000, 0.0000000000000000000 ) ) ;
#120 = ORIENTED_EDGE ( 'NONE', *, *, #116, .T. ) ;
#121 = CARTESIAN_POINT ( 'NONE',  ( 0.0000000000000000000, 0.0000000000000000000, 2.244094000000000033 ) ) ;
#122 = LINE ( 'NONE', #232, #91 ) ;
#123 = CYLINDRICAL_SURFACE ( 'NONE', #99, 0.09837500000000003186 ) ;
#124 = EDGE_CURVE ( 'NONE', #22, #49, #105, .T. ) ;
#125 = UNCERTAINTY_MEASURE_WITH_UNIT (LENGTH_MEASURE( 1.000000000000000082E-05 ), #313, 'distance_accuracy_value', 'NONE');
#126 = CIRCLE ( 'NONE', #201, 0.1181100000000000066 ) ;
#127 = ADVANCED_FACE ( 'NONE', ( #176, #130 ), #197, .T. ) ;
#128 = CARTESIAN_POINT ( 'NONE',  ( 0.0000000000000000000, 0.0000000000000000000, 0.0000000000000000000 ) ) ;
#129 = AXIS2_PLACEMENT_3D ( 'NONE', #27, #274, #242 ) ;
#130 = FACE_OUTER_BOUND ( 'NONE', #302, .T. ) ;
#131 = EDGE_CURVE ( 'NONE', #44, #324, #329, .T. ) ;
#132 = CYLINDRICAL_SURFACE ( 'NONE', #39, 0.09837500000000003186 ) ;
#133 = SURFACE_STYLE_FILL_AREA ( #38 ) ;
#134 = MANIFOLD_SOLID_BREP ( 'Cut-Revolve4', #223 ) ;
#135 = FACE_OUTER_BOUND ( 'NONE', #192, .T. ) ;
#136 = AXIS2_PLACEMENT_3D ( 'NONE', #293, #148, #166 ) ;
#137 = ADVANCED_FACE ( 'NONE', ( #104 ), #198, .T. ) ;
#138 = ORIENTED_EDGE ( 'NONE', *, *, #56, .F. ) ;
#139 = CARTESIAN_POINT ( 'NONE',  ( -0.09837500000000004574, 0.0000000000000000000, 0.5118110000000000159 ) ) ;
#140 = CARTESIAN_POINT ( 'NONE',  ( 0.0000000000000000000, 0.0000000000000000000, 0.09087499999999965050 ) ) ;
#141 = FACE_OUTER_BOUND ( 'NONE', #326, .T. ) ;
#142 = CARTESIAN_POINT ( 'NONE',  ( 0.1031100000000002570, 1.354581824536888722E-17, 2.244094000000000033 ) ) ;
#143 = ADVANCED_FACE ( 'NONE', ( #254 ), #132, .T. ) ;
#144 = DIRECTION ( 'NONE',  ( -0.0000000000000000000, -0.0000000000000000000, -1.000000000000000000 ) ) ;
#145 = ORIENTED_EDGE ( 'NONE', *, *, #226, .T. ) ;
#146 = CARTESIAN_POINT ( 'NONE',  ( -0.007499999999999999722, 9.184850993605147975E-19, 1.707404996040164512E-17 ) ) ;
#147 = DIRECTION ( 'NONE',  ( 0.0000000000000000000, 0.0000000000000000000, -1.000000000000000000 ) ) ;
#148 = DIRECTION ( 'NONE',  ( 0.0000000000000000000, 0.0000000000000000000, 1.000000000000000000 ) ) ;
#149 = ADVANCED_FACE ( 'NONE', ( #135 ), #19, .T. ) ;
#150 = CARTESIAN_POINT ( 'NONE',  ( 0.007499999999999999722, 0.0000000000000000000, 1.707404996040164512E-17 ) ) ;
#151 = CIRCLE ( 'NONE', #276, 0.1031100000000002570 ) ;
#152 = DIRECTION ( 'NONE',  ( 0.0000000000000000000, 0.0000000000000000000, 1.000000000000000000 ) ) ;
#153 = CARTESIAN_POINT ( 'NONE',  ( 0.09837500000000004574, 0.0000000000000000000, 0.5118110000000000159 ) ) ;
#154 = SURFACE_STYLE_FILL_AREA ( #308 ) ;
#155 = MECHANICAL_DESIGN_GEOMETRIC_PRESENTATION_REPRESENTATION (  '', ( #195 ), #269 ) ;
#156 = DIRECTION ( 'NONE',  ( -1.000000000000000000, 0.0000000000000000000, 0.0000000000000000000 ) ) ;
#157 =( NAMED_UNIT ( * ) PLANE_ANGLE_UNIT ( ) SI_UNIT ( $, .RADIAN. ) );
#158 = ORIENTED_EDGE ( 'NONE', *, *, #177, .T. ) ;
#159 = DIRECTION ( 'NONE',  ( -0.0000000000000000000, 0.0000000000000000000, -1.000000000000000000 ) ) ;
#160 = DIRECTION ( 'NONE',  ( -1.000000000000000000, 0.0000000000000000000, 0.0000000000000000000 ) ) ;
#161 = AXIS2_PLACEMENT_3D ( 'NONE', #199, #175, #286 ) ;
#162 = DIRECTION ( 'NONE',  ( -0.0000000000000000000, -0.0000000000000000000, -1.000000000000000000 ) ) ;
#163 = VERTEX_POINT ( 'NONE', #187 ) ;
#164 = EDGE_CURVE ( 'NONE', #324, #44, #126, .T. ) ;
#165 = LINE ( 'NONE', #90, #34 ) ;
#166 = DIRECTION ( 'NONE',  ( 1.000000000000000000, 0.0000000000000000000, 0.0000000000000000000 ) ) ;
#167 = ORIENTED_EDGE ( 'NONE', *, *, #164, .F. ) ;
#168 = ORIENTED_EDGE ( 'NONE', *, *, #304, .T. ) ;
#169 = DIRECTION ( 'NONE',  ( -1.000000000000000000, 0.0000000000000000000, 0.0000000000000000000 ) ) ;
#170 = CARTESIAN_POINT ( 'NONE',  ( 0.0000000000000000000, 0.0000000000000000000, 2.244094000000000033 ) ) ;
#171 = DIRECTION ( 'NONE',  ( 1.000000000000000000, 0.0000000000000000000, -0.0000000000000000000 ) ) ;
#172 =( LENGTH_UNIT ( ) NAMED_UNIT ( * ) SI_UNIT ( $, .METRE. ) );
#173 = CIRCLE ( 'NONE', #218, 0.09837500000000001799 ) ;
#174 = PRODUCT_DEFINITION_SHAPE ( 'NONE', 'NONE',  #74 ) ;
#175 = DIRECTION ( 'NONE',  ( 0.0000000000000000000, 0.0000000000000000000, -1.000000000000000000 ) ) ;
#176 = FACE_BOUND ( 'NONE', #89, .T. ) ;
#177 = EDGE_CURVE ( 'NONE', #163, #238, #301, .T. ) ;
#178 = CARTESIAN_POINT ( 'NONE',  ( 0.0000000000000000000, 0.0000000000000000000, 0.5118110000000000159 ) ) ;
#179 = FACE_OUTER_BOUND ( 'NONE', #94, .T. ) ;
#180 = CARTESIAN_POINT ( 'NONE',  ( 0.09837500000000003186, 1.204746288661209131E-17, 0.0000000000000000000 ) ) ;
#181 = SURFACE_STYLE_USAGE ( .BOTH. , #87 ) ;
#182 = VECTOR ( 'NONE', #191, 39.37007874015748143 ) ;
#183 = FACE_OUTER_BOUND ( 'NONE', #270, .T. ) ;
#184 = ORIENTED_EDGE ( 'NONE', *, *, #30, .F. ) ;
#185 =( NAMED_UNIT ( * ) PLANE_ANGLE_UNIT ( ) SI_UNIT ( $, .RADIAN. ) );
#186 = ORIENTED_EDGE ( 'NONE', *, *, #319, .T. ) ;
#187 = CARTESIAN_POINT ( 'NONE',  ( 0.1181100000000000066, 1.446430334472939084E-17, 0.5118110000000001270 ) ) ;
#188 = ORIENTED_EDGE ( 'NONE', *, *, #295, .F. ) ;
#189 = ORIENTED_EDGE ( 'NONE', *, *, #194, .T. ) ;
#190 = PLANE ( 'NONE',  #107 ) ;
#191 = DIRECTION ( 'NONE',  ( -0.0000000000000000000, -0.0000000000000000000, -1.000000000000000000 ) ) ;
#192 = EDGE_LOOP ( 'NONE', ( #60, #26, #120, #297 ) ) ;
#193 = DIRECTION ( 'NONE',  ( 1.000000000000000000, 0.0000000000000000000, 0.0000000000000000000 ) ) ;
#194 = EDGE_CURVE ( 'NONE', #322, #324, #265, .T. ) ;
#195 = STYLED_ITEM ( 'NONE', ( #252 ), #134 ) ;
#196 = DIRECTION ( 'NONE',  ( -1.000000000000000000, 0.0000000000000000000, 0.0000000000000000000 ) ) ;
#197 = PLANE ( 'NONE',  #275 ) ;
#198 = CONICAL_SURFACE ( 'NONE', #3, 0.1031100000000002570, 0.7853981633974318477 ) ;
#199 = CARTESIAN_POINT ( 'NONE',  ( 0.0000000000000000000, 0.0000000000000000000, 2.229093999999999465 ) ) ;
#200 = CIRCLE ( 'NONE', #72, 0.1181100000000000066 ) ;
#201 = AXIS2_PLACEMENT_3D ( 'NONE', #96, #147, #271 ) ;
#202 = SURFACE_SIDE_STYLE ('',( #154 ) ) ;
#203 = ORIENTED_EDGE ( 'NONE', *, *, #248, .F. ) ;
#204 = DIRECTION ( 'NONE',  ( 0.0000000000000000000, 0.0000000000000000000, 1.000000000000000000 ) ) ;
#205 = ORIENTED_EDGE ( 'NONE', *, *, #124, .T. ) ;
#206 = DIRECTION ( 'NONE',  ( 1.000000000000000000, 0.0000000000000000000, 0.0000000000000000000 ) ) ;
#207 = CARTESIAN_POINT ( 'NONE',  ( 0.0000000000000000000, 0.0000000000000000000, 0.09087499999999965050 ) ) ;
#208 = AXIS2_PLACEMENT_3D ( 'NONE', #210, #321, #171 ) ;
#209 = ORIENTED_EDGE ( 'NONE', *, *, #1, .T. ) ;
#210 = CARTESIAN_POINT ( 'NONE',  ( 0.0000000000000000000, 0.0000000000000000000, 0.0000000000000000000 ) ) ;
#211 = EDGE_LOOP ( 'NONE', ( #92, #98, #66, #214 ) ) ;
#212 = VERTEX_POINT ( 'NONE', #142 ) ;
#213 = DIRECTION ( 'NONE',  ( 1.000000000000000000, 0.0000000000000000000, 0.0000000000000000000 ) ) ;
#214 = ORIENTED_EDGE ( 'NONE', *, *, #124, .F. ) ;
#215 = ADVANCED_FACE ( 'NONE', ( #14 ), #50, .T. ) ;
#216 = DIRECTION ( 'NONE',  ( -0.0000000000000000000, -0.0000000000000000000, -1.000000000000000000 ) ) ;
#217 = CARTESIAN_POINT ( 'NONE',  ( 0.0000000000000000000, 0.0000000000000000000, 0.5118110000000001270 ) ) ;
#218 = AXIS2_PLACEMENT_3D ( 'NONE', #140, #231, #110 ) ;
#219 = DIRECTION ( 'NONE',  ( -0.0000000000000000000, -0.0000000000000000000, -1.000000000000000000 ) ) ;
#220 = UNCERTAINTY_MEASURE_WITH_UNIT (LENGTH_MEASURE( 1.000000000000000082E-05 ), #225, 'distance_accuracy_value', 'NONE');
#221 = CARTESIAN_POINT ( 'NONE',  ( -0.1181100000000000066, 0.0000000000000000000, 2.229093999999999465 ) ) ;
#222 = ADVANCED_FACE ( 'NONE', ( #327 ), #190, .T. ) ;
#223 = CLOSED_SHELL ( 'NONE', ( #143, #149, #25, #215, #284, #222, #137, #127, #282, #310, #305 ) ) ;
#224 = CIRCLE ( 'NONE', #136, 0.1031100000000002570 ) ;
#225 =( CONVERSION_BASED_UNIT ( 'INCH', #37 ) LENGTH_UNIT ( ) NAMED_UNIT ( #84 ) );
#226 = EDGE_CURVE ( 'NONE', #322, #212, #151, .T. ) ;
#227 = PRODUCT_DEFINITION_CONTEXT ( 'detailed design', #4, 'design' ) ;
#228 = CONICAL_SURFACE ( 'NONE', #63, 0.1031100000000002570, 0.7853981633974318477 ) ;
#229 = PRODUCT ( 'Micro_DMM-050-290X', 'Micro_DMM-050-290X', '', ( #268 ) ) ;
#230 = CARTESIAN_POINT ( 'NONE',  ( -0.09837500000000003186, 1.204746288661208977E-17, 0.09087499999999965050 ) ) ;
#231 = DIRECTION ( 'NONE',  ( -0.0000000000000000000, -0.0000000000000000000, -1.000000000000000000 ) ) ;
#232 = CARTESIAN_POINT ( 'NONE',  ( 0.007499999999999999722, 0.0000000000000000000, 1.707404996040164512E-17 ) ) ;
#233 = ORIENTED_EDGE ( 'NONE', *, *, #15, .F. ) ;
#234 = CARTESIAN_POINT ( 'NONE',  ( 0.0000000000000000000, 0.0000000000000000000, 1.707404996040164512E-17 ) ) ;
#235 = EDGE_LOOP ( 'NONE', ( #203, #325, #189, #264 ) ) ;
#236 = PRESENTATION_LAYER_ASSIGNMENT (  '', '', ( #88 ) ) ;
#237 = AXIS2_PLACEMENT_3D ( 'NONE', #128, #152, #213 ) ;
#238 = VERTEX_POINT ( 'NONE', #52 ) ;
#239 = CARTESIAN_POINT ( 'NONE',  ( 0.1031100000000002570, 1.262733314600838667E-17, 2.244094000000000033 ) ) ;
#240 = DIRECTION ( 'NONE',  ( -0.0000000000000000000, -0.0000000000000000000, -1.000000000000000000 ) ) ;
#241 = ORIENTED_EDGE ( 'NONE', *, *, #295, .T. ) ;
#242 = DIRECTION ( 'NONE',  ( -1.000000000000000000, 0.0000000000000000000, 0.0000000000000000000 ) ) ;
#243 = ORIENTED_EDGE ( 'NONE', *, *, #83, .F. ) ;
#244 = APPLICATION_PROTOCOL_DEFINITION ( 'draft international standard', 'automotive_design', 1998, #4 ) ;
#245 = DIRECTION ( 'NONE',  ( -0.0000000000000000000, -0.0000000000000000000, -1.000000000000000000 ) ) ;
#246 = AXIS2_PLACEMENT_3D ( 'NONE', #178, #40, #119 ) ;
#247 = CARTESIAN_POINT ( 'NONE',  ( 0.0000000000000000000, 0.0000000000000000000, 1.707404996040164512E-17 ) ) ;
#248 = EDGE_CURVE ( 'NONE', #212, #44, #315, .T. ) ;
#249 = CIRCLE ( 'NONE', #106, 0.09837500000000004574 ) ;
#250 = CONICAL_SURFACE ( 'NONE', #258, 0.007499999999999999722, 0.7853981633974503884 ) ;
#251 = ADVANCED_BREP_SHAPE_REPRESENTATION ( 'Micro_DMM-050-290X', ( #134, #237 ), #112 ) ;
#252 = PRESENTATION_STYLE_ASSIGNMENT (( #280 ) ) ;
#253 = AXIS2_PLACEMENT_3D ( 'NONE', #247, #219, #2 ) ;
#254 = FACE_OUTER_BOUND ( 'NONE', #211, .T. ) ;
#255 = UNCERTAINTY_MEASURE_WITH_UNIT (LENGTH_MEASURE( 1.000000000000000082E-05 ), #46, 'distance_accuracy_value', 'NONE');
#256 = ORIENTED_EDGE ( 'NONE', *, *, #194, .F. ) ;
#257 = DIRECTION ( 'NONE',  ( -1.000000000000000000, 0.0000000000000000000, 0.0000000000000000000 ) ) ;
#258 = AXIS2_PLACEMENT_3D ( 'NONE', #23, #69, #299 ) ;
#259 = ORIENTED_EDGE ( 'NONE', *, *, #54, .T. ) ;
#260 = DIRECTION ( 'NONE',  ( -1.000000000000000000, 0.0000000000000000000, 0.0000000000000000000 ) ) ;
#261 = CARTESIAN_POINT ( 'NONE',  ( 0.09837500000000004574, 1.204746288661209285E-17, 0.5118110000000000159 ) ) ;
#262 = DIRECTION ( 'NONE',  ( -0.0000000000000000000, -0.0000000000000000000, -1.000000000000000000 ) ) ;
#263 = DIRECTION ( 'NONE',  ( -0.0000000000000000000, -0.0000000000000000000, -1.000000000000000000 ) ) ;
#264 = ORIENTED_EDGE ( 'NONE', *, *, #131, .F. ) ;
#265 = LINE ( 'NONE', #118, #33 ) ;
#266 = AXIS2_PLACEMENT_3D ( 'NONE', #289, #287, #160 ) ;
#267 = DIRECTION ( 'NONE',  ( -0.7071067811865490160, 8.659560562354951347E-17, 0.7071067811865460184 ) ) ;
#268 = PRODUCT_CONTEXT ( 'NONE', #7, 'mechanical' ) ;
#269 =( GEOMETRIC_REPRESENTATION_CONTEXT ( 3 ) GLOBAL_UNCERTAINTY_ASSIGNED_CONTEXT ( ( #220 ) ) GLOBAL_UNIT_ASSIGNED_CONTEXT ( ( #225, #36, #5 ) ) REPRESENTATION_CONTEXT ( 'NONE', 'WORKASPACE' ) );
#270 = EDGE_LOOP ( 'NONE', ( #209, #186 ) ) ;
#271 = DIRECTION ( 'NONE',  ( 1.000000000000000000, 0.0000000000000000000, 0.0000000000000000000 ) ) ;
#272 = ORIENTED_EDGE ( 'NONE', *, *, #15, .T. ) ;
#273 = DIMENSIONAL_EXPONENTS ( 1.000000000000000000, 0.0000000000000000000, 0.0000000000000000000, 0.0000000000000000000, 0.0000000000000000000, 0.0000000000000000000, 0.0000000000000000000 ) ;
#274 = DIRECTION ( 'NONE',  ( -0.0000000000000000000, -0.0000000000000000000, -1.000000000000000000 ) ) ;
#275 = AXIS2_PLACEMENT_3D ( 'NONE', #153, #159, #257 ) ;
#276 = AXIS2_PLACEMENT_3D ( 'NONE', #170, #296, #193 ) ;
#277 = FACE_OUTER_BOUND ( 'NONE', #115, .T. ) ;
#278 = CARTESIAN_POINT ( 'NONE',  ( 0.0000000000000000000, 0.0000000000000000000, 0.0000000000000000000 ) ) ;
#279 = VECTOR ( 'NONE', #267, 39.37007874015748143 ) ;
#280 = SURFACE_STYLE_USAGE ( .BOTH. , #202 ) ;
#281 = DIRECTION ( 'NONE',  ( -0.0000000000000000000, -0.0000000000000000000, -1.000000000000000000 ) ) ;
#282 = ADVANCED_FACE ( 'NONE', ( #85 ), #250, .T. ) ;
#283 = MECHANICAL_DESIGN_GEOMETRIC_PRESENTATION_REPRESENTATION (  '', ( #88 ), #307 ) ;
#284 = ADVANCED_FACE ( 'NONE', ( #179 ), #288, .T. ) ;
#285 = VERTEX_POINT ( 'NONE', #41 ) ;
#286 = DIRECTION ( 'NONE',  ( 1.000000000000000000, 0.0000000000000000000, 0.0000000000000000000 ) ) ;
#287 = DIRECTION ( 'NONE',  ( -0.0000000000000000000, -0.0000000000000000000, -1.000000000000000000 ) ) ;
#288 = CYLINDRICAL_SURFACE ( 'NONE', #311, 0.1181100000000000066 ) ;
#289 = CARTESIAN_POINT ( 'NONE',  ( 0.0000000000000000000, 0.0000000000000000000, 1.707404996040164512E-17 ) ) ;
#290 = PRESENTATION_STYLE_ASSIGNMENT (( #181 ) ) ;
#291 = ORIENTED_EDGE ( 'NONE', *, *, #61, .F. ) ;
#292 = PLANE ( 'NONE',  #208 ) ;
#293 = CARTESIAN_POINT ( 'NONE',  ( 0.0000000000000000000, 0.0000000000000000000, 2.244094000000000033 ) ) ;
#294 = ORIENTED_EDGE ( 'NONE', *, *, #177, .F. ) ;
#295 = EDGE_CURVE ( 'NONE', #97, #49, #173, .T. ) ;
#296 = DIRECTION ( 'NONE',  ( 0.0000000000000000000, 0.0000000000000000000, 1.000000000000000000 ) ) ;
#297 = ORIENTED_EDGE ( 'NONE', *, *, #54, .F. ) ;
#298 = EDGE_LOOP ( 'NONE', ( #138, #113, #259, #241 ) ) ;
#299 = DIRECTION ( 'NONE',  ( 1.000000000000000000, 0.0000000000000000000, 0.0000000000000000000 ) ) ;
#300 = DIRECTION ( 'NONE',  ( -0.0000000000000000000, -0.0000000000000000000, -1.000000000000000000 ) ) ;
#301 = CIRCLE ( 'NONE', #129, 0.1181100000000000066 ) ;
#302 = EDGE_LOOP ( 'NONE', ( #272, #158 ) ) ;
#303 = DIRECTION ( 'NONE',  ( 1.000000000000000000, 0.0000000000000000000, -0.0000000000000000000 ) ) ;
#304 = EDGE_CURVE ( 'NONE', #44, #163, #165, .T. ) ;
#305 = ADVANCED_FACE ( 'NONE', ( #183 ), #292, .F. ) ;
#306 = PRESENTATION_LAYER_ASSIGNMENT (  '', '', ( #195 ) ) ;
#307 =( GEOMETRIC_REPRESENTATION_CONTEXT ( 3 ) GLOBAL_UNCERTAINTY_ASSIGNED_CONTEXT ( ( #125 ) ) GLOBAL_UNIT_ASSIGNED_CONTEXT ( ( #313, #157, #10 ) ) REPRESENTATION_CONTEXT ( 'NONE', 'WORKASPACE' ) );
#308 = FILL_AREA_STYLE ('',( #57 ) ) ;
#309 = LENGTH_MEASURE_WITH_UNIT ( LENGTH_MEASURE( 0.02539999999999999897 ), #172 );
#310 = ADVANCED_FACE ( 'NONE', ( #277 ), #123, .T. ) ;
#311 = AXIS2_PLACEMENT_3D ( 'NONE', #62, #162, #260 ) ;
#312 = PRODUCT_DEFINITION_FORMATION_WITH_SPECIFIED_SOURCE ( 'ANY', '', #229, .NOT_KNOWN. ) ;
#313 =( CONVERSION_BASED_UNIT ( 'INCH', #8 ) LENGTH_UNIT ( ) NAMED_UNIT ( #273 ) );
#314 = VERTEX_POINT ( 'NONE', #150 ) ;
#315 = LINE ( 'NONE', #239, #31 ) ;
#316 = CARTESIAN_POINT ( 'NONE',  ( 0.1181100000000000066, 1.446430334472939084E-17, 2.229093999999999465 ) ) ;
#317 = FILL_AREA_STYLE_COLOUR ( '', #73 ) ;
#318 = EDGE_LOOP ( 'NONE', ( #145, #43 ) ) ;
#319 = EDGE_CURVE ( 'NONE', #285, #314, #77, .T. ) ;
#320 = ORIENTED_EDGE ( 'NONE', *, *, #131, .T. ) ;
#321 = DIRECTION ( 'NONE',  ( 0.0000000000000000000, 0.0000000000000000000, 1.000000000000000000 ) ) ;
#322 = VERTEX_POINT ( 'NONE', #32 ) ;
#323 = PRODUCT_RELATED_PRODUCT_CATEGORY ( 'part', '', ( #229 ) ) ;
#324 = VERTEX_POINT ( 'NONE', #221 ) ;
#325 = ORIENTED_EDGE ( 'NONE', *, *, #226, .F. ) ;
#326 = EDGE_LOOP ( 'NONE', ( #291, #117, #167, #256 ) ) ;
#327 = FACE_OUTER_BOUND ( 'NONE', #318, .T. ) ;
#328 = DIRECTION ( 'NONE',  ( -1.000000000000000000, 0.0000000000000000000, 0.0000000000000000000 ) ) ;
#329 = CIRCLE ( 'NONE', #161, 0.1181100000000000066 ) ;
ENDSEC;
END-ISO-10303-21;
