ISO-10303-21;
HEADER;
FILE_DESCRIPTION (( 'STEP AP214' ),
    '1' );
FILE_NAME ('Micro_DM-375-2120X.STEP',
    '2021-09-02T16:04:05',
    ( '' ),
    ( '' ),
    'SwSTEP 2.0',
    'SolidWorks 2020',
    '' );
FILE_SCHEMA (( 'AUTOMOTIVE_DESIGN' ));
ENDSEC;

DATA;
#1 = DIRECTION ( 'NONE',  ( -0.0000000000000000000, -0.0000000000000000000, -1.000000000000000000 ) ) ;
#2 = CIRCLE ( 'NONE', #189, 0.1875000000000000278 ) ;
#3 = AXIS2_PLACEMENT_3D ( 'NONE', #180, #7, #158 ) ;
#4 = EDGE_CURVE ( 'NONE', #283, #270, #216, .T. ) ;
#5 = DIRECTION ( 'NONE',  ( 1.000000000000000000, 0.0000000000000000000, 0.0000000000000000000 ) ) ;
#6 = VERTEX_POINT ( 'NONE', #323 ) ;
#7 = DIRECTION ( 'NONE',  ( 0.0000000000000000000, 0.0000000000000000000, 1.000000000000000000 ) ) ;
#8 = VECTOR ( 'NONE', #151, 39.37007874015748854 ) ;
#9 = ORIENTED_EDGE ( 'NONE', *, *, #43, .F. ) ;
#10 = ORIENTED_EDGE ( 'NONE', *, *, #149, .T. ) ;
#11 = CYLINDRICAL_SURFACE ( 'NONE', #275, 0.1875000000000000278 ) ;
#12 = ORIENTED_EDGE ( 'NONE', *, *, #168, .F. ) ;
#13 = PRODUCT_CONTEXT ( 'NONE', #329, 'mechanical' ) ;
#14 = EDGE_LOOP ( 'NONE', ( #138, #115 ) ) ;
#15 = AXIS2_PLACEMENT_3D ( 'NONE', #205, #101, #303 ) ;
#16 = CONICAL_SURFACE ( 'NONE', #24, 0.1724999999999995981, 0.7853981633974357335 ) ;
#17 = CARTESIAN_POINT ( 'NONE',  ( 0.007499999999999999722, 0.0000000000000000000, 1.707404996040164512E-17 ) ) ;
#18 = ADVANCED_FACE ( 'NONE', ( #119 ), #324, .T. ) ;
#19 = CARTESIAN_POINT ( 'NONE',  ( 0.0000000000000000000, 0.0000000000000000000, 0.1038941809406725564 ) ) ;
#20 = DIRECTION ( 'NONE',  ( -0.0000000000000000000, -0.0000000000000000000, -1.000000000000000000 ) ) ;
#21 = DIRECTION ( 'NONE',  ( -0.0000000000000000000, -0.0000000000000000000, -1.000000000000000000 ) ) ;
#22 = EDGE_LOOP ( 'NONE', ( #213, #271 ) ) ;
#23 = UNCERTAINTY_MEASURE_WITH_UNIT (LENGTH_MEASURE( 1.000000000000000082E-05 ), #56, 'distance_accuracy_value', 'NONE');
#24 = AXIS2_PLACEMENT_3D ( 'NONE', #224, #250, #42 ) ;
#25 = PRODUCT_DEFINITION ( 'UNKNOWN', '', #121, #55 ) ;
#26 = SURFACE_STYLE_FILL_AREA ( #234 ) ;
#27 = AXIS2_PLACEMENT_3D ( 'NONE', #322, #95, #49 ) ;
#28 = CARTESIAN_POINT ( 'NONE',  ( -0.1875000000000000278, 0.0000000000000000000, 1.000000000000000000 ) ) ;
#29 = DIRECTION ( 'NONE',  ( -0.0000000000000000000, 0.0000000000000000000, -1.000000000000000000 ) ) ;
#30 = ORIENTED_EDGE ( 'NONE', *, *, #4, .T. ) ;
#31 = CARTESIAN_POINT ( 'NONE',  ( 0.1874500000000001443, 0.0000000000000000000, 1.000000000000000000 ) ) ;
#32 = VERTEX_POINT ( 'NONE', #17 ) ;
#33 = EDGE_CURVE ( 'NONE', #167, #283, #40, .T. ) ;
#34 = ORIENTED_EDGE ( 'NONE', *, *, #196, .T. ) ;
#35 = FACE_OUTER_BOUND ( 'NONE', #67, .T. ) ;
#36 = ORIENTED_EDGE ( 'NONE', *, *, #254, .T. ) ;
#37 = DIMENSIONAL_EXPONENTS ( 1.000000000000000000, 0.0000000000000000000, 0.0000000000000000000, 0.0000000000000000000, 0.0000000000000000000, 0.0000000000000000000, 0.0000000000000000000 ) ;
#38 = CARTESIAN_POINT ( 'NONE',  ( 0.0000000000000000000, 0.0000000000000000000, 1.707404996040164512E-17 ) ) ;
#39 =( GEOMETRIC_REPRESENTATION_CONTEXT ( 3 ) GLOBAL_UNCERTAINTY_ASSIGNED_CONTEXT ( ( #23 ) ) GLOBAL_UNIT_ASSIGNED_CONTEXT ( ( #56, #220, #142 ) ) REPRESENTATION_CONTEXT ( 'NONE', 'WORKASPACE' ) );
#40 = LINE ( 'NONE', #298, #87 ) ;
#41 = APPLICATION_PROTOCOL_DEFINITION ( 'draft international standard', 'automotive_design', 1998, #222 ) ;
#42 = DIRECTION ( 'NONE',  ( -1.000000000000000000, 0.0000000000000000000, 0.0000000000000000000 ) ) ;
#43 = EDGE_CURVE ( 'NONE', #32, #6, #143, .T. ) ;
#44 = LINE ( 'NONE', #69, #268 ) ;
#45 = ORIENTED_EDGE ( 'NONE', *, *, #83, .T. ) ;
#46 = DIRECTION ( 'NONE',  ( -1.000000000000000000, 0.0000000000000000000, 0.0000000000000000000 ) ) ;
#47 = AXIS2_PLACEMENT_3D ( 'NONE', #231, #327, #328 ) ;
#48 = LENGTH_MEASURE_WITH_UNIT ( LENGTH_MEASURE( 0.02539999999999999897 ), #99 );
#49 = DIRECTION ( 'NONE',  ( -1.000000000000000000, 0.0000000000000000000, 0.0000000000000000000 ) ) ;
#50 = DIRECTION ( 'NONE',  ( -0.0000000000000000000, -0.0000000000000000000, -1.000000000000000000 ) ) ;
#51 = AXIS2_PLACEMENT_3D ( 'NONE', #31, #29, #86 ) ;
#52 = AXIS2_PLACEMENT_3D ( 'NONE', #134, #312, #84 ) ;
#53 = VERTEX_POINT ( 'NONE', #70 ) ;
#54 = VERTEX_POINT ( 'NONE', #246 ) ;
#55 = PRODUCT_DEFINITION_CONTEXT ( 'detailed design', #222, 'design' ) ;
#56 =( CONVERSION_BASED_UNIT ( 'INCH', #108 ) LENGTH_UNIT ( ) NAMED_UNIT ( #65 ) );
#57 = ADVANCED_FACE ( 'NONE', ( #91 ), #276, .T. ) ;
#58 = CARTESIAN_POINT ( 'NONE',  ( -0.1874500000000001443, 0.0000000000000000000, 1.000000000000000000 ) ) ;
#59 = AXIS2_PLACEMENT_3D ( 'NONE', #125, #232, #157 ) ;
#60 = ORIENTED_EDGE ( 'NONE', *, *, #124, .F. ) ;
#61 = VECTOR ( 'NONE', #135, 39.37007874015748143 ) ;
#62 = DIRECTION ( 'NONE',  ( 1.000000000000000000, 0.0000000000000000000, 0.0000000000000000000 ) ) ;
#63 = PRESENTATION_STYLE_ASSIGNMENT (( #89 ) ) ;
#64 = EDGE_LOOP ( 'NONE', ( #72, #10, #296, #123 ) ) ;
#65 = DIMENSIONAL_EXPONENTS ( 1.000000000000000000, 0.0000000000000000000, 0.0000000000000000000, 0.0000000000000000000, 0.0000000000000000000, 0.0000000000000000000, 0.0000000000000000000 ) ;
#66 = APPLICATION_PROTOCOL_DEFINITION ( 'draft international standard', 'automotive_design', 1998, #329 ) ;
#67 = EDGE_LOOP ( 'NONE', ( #30, #36 ) ) ;
#68 = AXIS2_PLACEMENT_3D ( 'NONE', #137, #184, #261 ) ;
#69 = CARTESIAN_POINT ( 'NONE',  ( -0.007499999999999999722, 9.184850993605147975E-19, 1.707404996040164512E-17 ) ) ;
#70 = CARTESIAN_POINT ( 'NONE',  ( -0.1724999999999995981, 0.0000000000000000000, 2.500000000000000000 ) ) ;
#71 = EDGE_CURVE ( 'NONE', #111, #315, #44, .T. ) ;
#72 = ORIENTED_EDGE ( 'NONE', *, *, #102, .F. ) ;
#73 = CARTESIAN_POINT ( 'NONE',  ( 0.1875000000000000278, 2.296212748401287726E-17, 2.484999999999999432 ) ) ;
#74 = CARTESIAN_POINT ( 'NONE',  ( 0.1874500000000000610, 2.295600425001714235E-17, 0.0000000000000000000 ) ) ;
#75 = ADVANCED_FACE ( 'NONE', ( #292 ), #16, .T. ) ;
#76 = FACE_OUTER_BOUND ( 'NONE', #265, .T. ) ;
#77 = CIRCLE ( 'NONE', #203, 0.1874500000000001443 ) ;
#78 = LINE ( 'NONE', #100, #8 ) ;
#79 = PLANE ( 'NONE',  #3 ) ;
#80 = AXIS2_PLACEMENT_3D ( 'NONE', #19, #21, #118 ) ;
#81 = CARTESIAN_POINT ( 'NONE',  ( 0.0000000000000000000, 0.0000000000000000000, 2.500000000000000000 ) ) ;
#82 = PRESENTATION_LAYER_ASSIGNMENT (  '', '', ( #249 ) ) ;
#83 = EDGE_CURVE ( 'NONE', #6, #315, #237, .T. ) ;
#84 = DIRECTION ( 'NONE',  ( 1.000000000000000000, 0.0000000000000000000, 0.0000000000000000000 ) ) ;
#85 = ORIENTED_EDGE ( 'NONE', *, *, #33, .F. ) ;
#86 = DIRECTION ( 'NONE',  ( -1.000000000000000000, 0.0000000000000000000, 0.0000000000000000000 ) ) ;
#87 = VECTOR ( 'NONE', #94, 39.37007874015748143 ) ;
#88 = ADVANCED_FACE ( 'NONE', ( #221 ), #319, .T. ) ;
#89 = SURFACE_STYLE_USAGE ( .BOTH. , #297 ) ;
#90 = ORIENTED_EDGE ( 'NONE', *, *, #168, .T. ) ;
#91 = FACE_OUTER_BOUND ( 'NONE', #22, .T. ) ;
#92 = CARTESIAN_POINT ( 'NONE',  ( 0.0000000000000000000, 0.0000000000000000000, 2.500000000000000000 ) ) ;
#93 = CIRCLE ( 'NONE', #255, 0.007499999999999999722 ) ;
#94 = DIRECTION ( 'NONE',  ( -0.0000000000000000000, -0.0000000000000000000, -1.000000000000000000 ) ) ;
#95 = DIRECTION ( 'NONE',  ( -0.0000000000000000000, -0.0000000000000000000, -1.000000000000000000 ) ) ;
#96 = DIRECTION ( 'NONE',  ( 0.0000000000000000000, 0.0000000000000000000, 1.000000000000000000 ) ) ;
#97 = VECTOR ( 'NONE', #1, 39.37007874015748143 ) ;
#98 = ADVANCED_FACE ( 'NONE', ( #226 ), #169, .T. ) ;
#99 =( LENGTH_UNIT ( ) NAMED_UNIT ( * ) SI_UNIT ( $, .METRE. ) );
#100 = CARTESIAN_POINT ( 'NONE',  ( -0.1724999999999995981, 0.0000000000000000000, 2.500000000000000000 ) ) ;
#101 = DIRECTION ( 'NONE',  ( -0.0000000000000000000, -0.0000000000000000000, -1.000000000000000000 ) ) ;
#102 = EDGE_CURVE ( 'NONE', #54, #6, #302, .T. ) ;
#103 = AXIS2_PLACEMENT_3D ( 'NONE', #202, #128, #259 ) ;
#104 = DIRECTION ( 'NONE',  ( 0.0000000000000000000, 0.0000000000000000000, -1.000000000000000000 ) ) ;
#105 = DIRECTION ( 'NONE',  ( -1.000000000000000000, 0.0000000000000000000, 0.0000000000000000000 ) ) ;
#106 = LINE ( 'NONE', #209, #61 ) ;
#107 = EDGE_LOOP ( 'NONE', ( #217, #159, #187, #165 ) ) ;
#108 = LENGTH_MEASURE_WITH_UNIT ( LENGTH_MEASURE( 0.02539999999999999897 ), #235 );
#109 = ORIENTED_EDGE ( 'NONE', *, *, #272, .F. ) ;
#110 = CARTESIAN_POINT ( 'NONE',  ( 0.0000000000000000000, 0.0000000000000000000, 1.000000000000000000 ) ) ;
#111 = VERTEX_POINT ( 'NONE', #206 ) ;
#112 = CARTESIAN_POINT ( 'NONE',  ( 0.0000000000000000000, 0.0000000000000000000, 1.000000000000000000 ) ) ;
#113 = EDGE_LOOP ( 'NONE', ( #12, #294, #172, #9 ) ) ;
#114 = DIMENSIONAL_EXPONENTS ( 1.000000000000000000, 0.0000000000000000000, 0.0000000000000000000, 0.0000000000000000000, 0.0000000000000000000, 0.0000000000000000000, 0.0000000000000000000 ) ;
#115 = ORIENTED_EDGE ( 'NONE', *, *, #149, .F. ) ;
#116 = CIRCLE ( 'NONE', #52, 0.1724999999999995981 ) ;
#117 = ORIENTED_EDGE ( 'NONE', *, *, #4, .F. ) ;
#118 = DIRECTION ( 'NONE',  ( -1.000000000000000000, 0.0000000000000000000, 0.0000000000000000000 ) ) ;
#119 = FACE_OUTER_BOUND ( 'NONE', #236, .T. ) ;
#120 = ADVANCED_FACE ( 'NONE', ( #150 ), #305, .T. ) ;
#121 = PRODUCT_DEFINITION_FORMATION_WITH_SPECIFIED_SOURCE ( 'ANY', '', #193, .NOT_KNOWN. ) ;
#122 = DIRECTION ( 'NONE',  ( -0.0000000000000000000, -0.0000000000000000000, -1.000000000000000000 ) ) ;
#123 = ORIENTED_EDGE ( 'NONE', *, *, #83, .F. ) ;
#124 = EDGE_CURVE ( 'NONE', #32, #111, #93, .T. ) ;
#125 = CARTESIAN_POINT ( 'NONE',  ( 0.0000000000000000000, 0.0000000000000000000, 1.707404996040164512E-17 ) ) ;
#126 = VECTOR ( 'NONE', #266, 39.37007874015748143 ) ;
#127 =( NAMED_UNIT ( * ) PLANE_ANGLE_UNIT ( ) SI_UNIT ( $, .RADIAN. ) );
#128 = DIRECTION ( 'NONE',  ( -0.0000000000000000000, -0.0000000000000000000, -1.000000000000000000 ) ) ;
#129 = MANIFOLD_SOLID_BREP ( 'Cut-Revolve4', #181 ) ;
#130 = EDGE_CURVE ( 'NONE', #53, #167, #78, .T. ) ;
#131 = PRESENTATION_LAYER_ASSIGNMENT (  '', '', ( #293 ) ) ;
#132 = CIRCLE ( 'NONE', #317, 0.1875000000000000278 ) ;
#133 = CARTESIAN_POINT ( 'NONE',  ( 0.0000000000000000000, 0.0000000000000000000, 1.707404996040164512E-17 ) ) ;
#134 = CARTESIAN_POINT ( 'NONE',  ( 0.0000000000000000000, 0.0000000000000000000, 2.500000000000000000 ) ) ;
#135 = DIRECTION ( 'NONE',  ( -0.0000000000000000000, -0.0000000000000000000, -1.000000000000000000 ) ) ;
#136 = EDGE_LOOP ( 'NONE', ( #148, #90 ) ) ;
#137 = CARTESIAN_POINT ( 'NONE',  ( 0.0000000000000000000, 0.0000000000000000000, 0.1038941809406725564 ) ) ;
#138 = ORIENTED_EDGE ( 'NONE', *, *, #230, .F. ) ;
#139 = PLANE ( 'NONE',  #51 ) ;
#140 = CIRCLE ( 'NONE', #183, 0.1874500000000001443 ) ;
#141 = EDGE_LOOP ( 'NONE', ( #164, #287, #117, #85 ) ) ;
#142 =( NAMED_UNIT ( * ) SI_UNIT ( $, .STERADIAN. ) SOLID_ANGLE_UNIT ( ) );
#143 = LINE ( 'NONE', #219, #166 ) ;
#144 =( LENGTH_UNIT ( ) NAMED_UNIT ( * ) SI_UNIT ( $, .METRE. ) );
#145 = DIRECTION ( 'NONE',  ( 1.000000000000000000, 0.0000000000000000000, 0.0000000000000000000 ) ) ;
#146 = ORIENTED_EDGE ( 'NONE', *, *, #43, .T. ) ;
#147 = DIRECTION ( 'NONE',  ( 0.0000000000000000000, 0.0000000000000000000, 1.000000000000000000 ) ) ;
#148 = ORIENTED_EDGE ( 'NONE', *, *, #124, .T. ) ;
#149 = EDGE_CURVE ( 'NONE', #54, #210, #77, .T. ) ;
#150 = FACE_OUTER_BOUND ( 'NONE', #107, .T. ) ;
#151 = DIRECTION ( 'NONE',  ( -0.7071067811865385799, 0.0000000000000000000, -0.7071067811865563435 ) ) ;
#152 =( GEOMETRIC_REPRESENTATION_CONTEXT ( 3 ) GLOBAL_UNCERTAINTY_ASSIGNED_CONTEXT ( ( #308 ) ) GLOBAL_UNIT_ASSIGNED_CONTEXT ( ( #281, #127, #176 ) ) REPRESENTATION_CONTEXT ( 'NONE', 'WORKASPACE' ) );
#153 = UNCERTAINTY_MEASURE_WITH_UNIT (LENGTH_MEASURE( 1.000000000000000082E-05 ), #218, 'distance_accuracy_value', 'NONE');
#154 = PRESENTATION_STYLE_ASSIGNMENT (( #253 ) ) ;
#155 = PRODUCT_RELATED_PRODUCT_CATEGORY ( 'part', '', ( #193 ) ) ;
#156 = DIRECTION ( 'NONE',  ( -1.000000000000000000, 0.0000000000000000000, 0.0000000000000000000 ) ) ;
#157 = DIRECTION ( 'NONE',  ( 1.000000000000000000, 0.0000000000000000000, 0.0000000000000000000 ) ) ;
#158 = DIRECTION ( 'NONE',  ( 1.000000000000000000, 0.0000000000000000000, -0.0000000000000000000 ) ) ;
#159 = ORIENTED_EDGE ( 'NONE', *, *, #163, .F. ) ;
#160 = ORIENTED_EDGE ( 'NONE', *, *, #200, .F. ) ;
#161 = ORIENTED_EDGE ( 'NONE', *, *, #230, .T. ) ;
#162 = CONICAL_SURFACE ( 'NONE', #59, 0.007499999999999999722, 1.047197551196600518 ) ;
#163 = EDGE_CURVE ( 'NONE', #53, #192, #288, .T. ) ;
#164 = ORIENTED_EDGE ( 'NONE', *, *, #200, .T. ) ;
#165 = ORIENTED_EDGE ( 'NONE', *, *, #295, .F. ) ;
#166 = VECTOR ( 'NONE', #318, 39.37007874015748143 ) ;
#167 = VERTEX_POINT ( 'NONE', #178 ) ;
#168 = EDGE_CURVE ( 'NONE', #111, #32, #320, .T. ) ;
#169 = CYLINDRICAL_SURFACE ( 'NONE', #27, 0.1874500000000000610 ) ;
#170 = CARTESIAN_POINT ( 'NONE',  ( 0.0000000000000000000, 0.0000000000000000000, 2.500000000000000000 ) ) ;
#171 =( NAMED_UNIT ( * ) SI_UNIT ( $, .STERADIAN. ) SOLID_ANGLE_UNIT ( ) );
#172 = ORIENTED_EDGE ( 'NONE', *, *, #272, .T. ) ;
#173 = MECHANICAL_DESIGN_GEOMETRIC_PRESENTATION_REPRESENTATION (  '', ( #293 ), #152 ) ;
#174 = DIRECTION ( 'NONE',  ( 0.0000000000000000000, 0.0000000000000000000, -1.000000000000000000 ) ) ;
#175 = CARTESIAN_POINT ( 'NONE',  ( 0.0000000000000000000, 0.0000000000000000000, 2.500000000000000000 ) ) ;
#176 =( NAMED_UNIT ( * ) SI_UNIT ( $, .STERADIAN. ) SOLID_ANGLE_UNIT ( ) );
#177 = ADVANCED_FACE ( 'NONE', ( #280 ), #162, .T. ) ;
#178 = CARTESIAN_POINT ( 'NONE',  ( -0.1875000000000000278, 0.0000000000000000000, 2.484999999999999432 ) ) ;
#179 = CYLINDRICAL_SURFACE ( 'NONE', #103, 0.1874500000000000610 ) ;
#180 = CARTESIAN_POINT ( 'NONE',  ( 0.0000000000000000000, 0.0000000000000000000, 0.0000000000000000000 ) ) ;
#181 = CLOSED_SHELL ( 'NONE', ( #188, #177, #75, #88, #214, #57, #120, #251, #18, #98, #258 ) ) ;
#182 = AXIS2_PLACEMENT_3D ( 'NONE', #38, #96, #145 ) ;
#183 = AXIS2_PLACEMENT_3D ( 'NONE', #110, #310, #238 ) ;
#184 = DIRECTION ( 'NONE',  ( -0.0000000000000000000, -0.0000000000000000000, -1.000000000000000000 ) ) ;
#185 = ORIENTED_EDGE ( 'NONE', *, *, #102, .T. ) ;
#186 = CARTESIAN_POINT ( 'NONE',  ( 0.1875000000000000278, 2.296212748401287726E-17, 1.000000000000000000 ) ) ;
#187 = ORIENTED_EDGE ( 'NONE', *, *, #130, .T. ) ;
#188 = ADVANCED_FACE ( 'NONE', ( #76 ), #179, .T. ) ;
#189 = AXIS2_PLACEMENT_3D ( 'NONE', #204, #174, #62 ) ;
#190 = ORIENTED_EDGE ( 'NONE', *, *, #313, .F. ) ;
#191 = SHAPE_DEFINITION_REPRESENTATION ( #244, #260 ) ;
#192 = VERTEX_POINT ( 'NONE', #233 ) ;
#193 = PRODUCT ( 'Micro_DM-375-2120X', 'Micro_DM-375-2120X', '', ( #13 ) ) ;
#194 =( NAMED_UNIT ( * ) PLANE_ANGLE_UNIT ( ) SI_UNIT ( $, .RADIAN. ) );
#195 = DIRECTION ( 'NONE',  ( -0.8660254037844400399, 1.060575238724908640E-16, 0.4999999999999976685 ) ) ;
#196 = EDGE_CURVE ( 'NONE', #192, #199, #208, .T. ) ;
#197 = SURFACE_STYLE_FILL_AREA ( #245 ) ;
#198 = DIRECTION ( 'NONE',  ( -1.000000000000000000, 0.0000000000000000000, 0.0000000000000000000 ) ) ;
#199 = VERTEX_POINT ( 'NONE', #73 ) ;
#200 = EDGE_CURVE ( 'NONE', #167, #199, #2, .T. ) ;
#201 = ORIENTED_EDGE ( 'NONE', *, *, #284, .F. ) ;
#202 = CARTESIAN_POINT ( 'NONE',  ( 0.0000000000000000000, 0.0000000000000000000, 0.0000000000000000000 ) ) ;
#203 = AXIS2_PLACEMENT_3D ( 'NONE', #277, #304, #278 ) ;
#204 = CARTESIAN_POINT ( 'NONE',  ( 0.0000000000000000000, 0.0000000000000000000, 2.484999999999999432 ) ) ;
#205 = CARTESIAN_POINT ( 'NONE',  ( 0.0000000000000000000, 0.0000000000000000000, 1.707404996040164512E-17 ) ) ;
#206 = CARTESIAN_POINT ( 'NONE',  ( -0.007499999999999999722, 1.193724467468882761E-17, 1.707404996040164512E-17 ) ) ;
#207 = COLOUR_RGB ( '',0.7921568627450980005, 0.8196078431372548767, 0.9333333333333333481 ) ;
#208 = LINE ( 'NONE', #301, #248 ) ;
#209 = CARTESIAN_POINT ( 'NONE',  ( -0.1874500000000000610, 0.0000000000000000000, 0.0000000000000000000 ) ) ;
#210 = VERTEX_POINT ( 'NONE', #58 ) ;
#211 = ORIENTED_EDGE ( 'NONE', *, *, #239, .F. ) ;
#212 = CARTESIAN_POINT ( 'NONE',  ( 0.1875000000000000278, 2.296212748401287726E-17, 2.500000000000000000 ) ) ;
#213 = ORIENTED_EDGE ( 'NONE', *, *, #163, .T. ) ;
#214 = ADVANCED_FACE ( 'NONE', ( #289 ), #11, .T. ) ;
#215 = DIRECTION ( 'NONE',  ( -0.0000000000000000000, -0.0000000000000000000, -1.000000000000000000 ) ) ;
#216 = CIRCLE ( 'NONE', #228, 0.1875000000000000278 ) ;
#217 = ORIENTED_EDGE ( 'NONE', *, *, #196, .F. ) ;
#218 =( CONVERSION_BASED_UNIT ( 'INCH', #225 ) LENGTH_UNIT ( ) NAMED_UNIT ( #37 ) );
#219 = CARTESIAN_POINT ( 'NONE',  ( 0.007499999999999999722, 0.0000000000000000000, 1.707404996040164512E-17 ) ) ;
#220 =( NAMED_UNIT ( * ) PLANE_ANGLE_UNIT ( ) SI_UNIT ( $, .RADIAN. ) );
#221 = FACE_OUTER_BOUND ( 'NONE', #141, .T. ) ;
#222 = APPLICATION_CONTEXT ( 'automotive_design' ) ;
#223 = AXIS2_PLACEMENT_3D ( 'NONE', #92, #122, #198 ) ;
#224 = CARTESIAN_POINT ( 'NONE',  ( 0.0000000000000000000, 0.0000000000000000000, 2.500000000000000000 ) ) ;
#225 = LENGTH_MEASURE_WITH_UNIT ( LENGTH_MEASURE( 0.02539999999999999897 ), #144 );
#226 = FACE_OUTER_BOUND ( 'NONE', #64, .T. ) ;
#227 = CARTESIAN_POINT ( 'NONE',  ( 0.0000000000000000000, 0.0000000000000000000, 1.000000000000000000 ) ) ;
#228 = AXIS2_PLACEMENT_3D ( 'NONE', #227, #20, #242 ) ;
#229 = COLOUR_RGB ( '',0.7921568627450980005, 0.8196078431372548767, 0.9333333333333333481 ) ;
#230 = EDGE_CURVE ( 'NONE', #210, #54, #140, .T. ) ;
#231 = CARTESIAN_POINT ( 'NONE',  ( 0.0000000000000000000, 0.0000000000000000000, 2.500000000000000000 ) ) ;
#232 = DIRECTION ( 'NONE',  ( 0.0000000000000000000, 0.0000000000000000000, 1.000000000000000000 ) ) ;
#233 = CARTESIAN_POINT ( 'NONE',  ( 0.1724999999999995981, 2.204364238465233357E-17, 2.500000000000000000 ) ) ;
#234 = FILL_AREA_STYLE ('',( #279 ) ) ;
#235 =( LENGTH_UNIT ( ) NAMED_UNIT ( * ) SI_UNIT ( $, .METRE. ) );
#236 = EDGE_LOOP ( 'NONE', ( #273, #60, #146, #45 ) ) ;
#237 = CIRCLE ( 'NONE', #80, 0.1874500000000000333 ) ;
#238 = DIRECTION ( 'NONE',  ( -1.000000000000000000, 0.0000000000000000000, 0.0000000000000000000 ) ) ;
#239 = EDGE_CURVE ( 'NONE', #199, #270, #282, .T. ) ;
#240 = FACE_BOUND ( 'NONE', #14, .T. ) ;
#241 = AXIS2_PLACEMENT_3D ( 'NONE', #247, #147, #291 ) ;
#242 = DIRECTION ( 'NONE',  ( -1.000000000000000000, 0.0000000000000000000, 0.0000000000000000000 ) ) ;
#243 = ORIENTED_EDGE ( 'NONE', *, *, #295, .T. ) ;
#244 = PRODUCT_DEFINITION_SHAPE ( 'NONE', 'NONE',  #25 ) ;
#245 = FILL_AREA_STYLE ('',( #274 ) ) ;
#246 = CARTESIAN_POINT ( 'NONE',  ( 0.1874500000000001443, 2.295600425001715468E-17, 1.000000000000000000 ) ) ;
#247 = CARTESIAN_POINT ( 'NONE',  ( 0.0000000000000000000, 0.0000000000000000000, 0.0000000000000000000 ) ) ;
#248 = VECTOR ( 'NONE', #307, 39.37007874015748854 ) ;
#249 = STYLED_ITEM ( 'NONE', ( #63 ), #260 ) ;
#250 = DIRECTION ( 'NONE',  ( 0.0000000000000000000, 0.0000000000000000000, -1.000000000000000000 ) ) ;
#251 = ADVANCED_FACE ( 'NONE', ( #240, #35 ), #139, .T. ) ;
#252 = DIRECTION ( 'NONE',  ( 0.0000000000000000000, 0.0000000000000000000, 1.000000000000000000 ) ) ;
#253 = SURFACE_STYLE_USAGE ( .BOTH. , #326 ) ;
#254 = EDGE_CURVE ( 'NONE', #270, #283, #132, .T. ) ;
#255 = AXIS2_PLACEMENT_3D ( 'NONE', #133, #257, #46 ) ;
#256 = CIRCLE ( 'NONE', #68, 0.1874500000000000333 ) ;
#257 = DIRECTION ( 'NONE',  ( -0.0000000000000000000, -0.0000000000000000000, -1.000000000000000000 ) ) ;
#258 = ADVANCED_FACE ( 'NONE', ( #309 ), #79, .F. ) ;
#259 = DIRECTION ( 'NONE',  ( -1.000000000000000000, 0.0000000000000000000, 0.0000000000000000000 ) ) ;
#260 = ADVANCED_BREP_SHAPE_REPRESENTATION ( 'Micro_DM-375-2120X', ( #129, #241 ), #39 ) ;
#261 = DIRECTION ( 'NONE',  ( -1.000000000000000000, 0.0000000000000000000, 0.0000000000000000000 ) ) ;
#262 = ORIENTED_EDGE ( 'NONE', *, *, #33, .T. ) ;
#263 = ORIENTED_EDGE ( 'NONE', *, *, #254, .F. ) ;
#264 = CARTESIAN_POINT ( 'NONE',  ( -0.1874500000000000610, 2.295600425001714852E-17, 0.1038941809406725564 ) ) ;
#265 = EDGE_LOOP ( 'NONE', ( #161, #185, #109, #190 ) ) ;
#266 = DIRECTION ( 'NONE',  ( -0.0000000000000000000, -0.0000000000000000000, -1.000000000000000000 ) ) ;
#267 = EDGE_LOOP ( 'NONE', ( #211, #243, #262, #263 ) ) ;
#268 = VECTOR ( 'NONE', #195, 39.37007874015748143 ) ;
#269 =( GEOMETRIC_REPRESENTATION_CONTEXT ( 3 ) GLOBAL_UNCERTAINTY_ASSIGNED_CONTEXT ( ( #153 ) ) GLOBAL_UNIT_ASSIGNED_CONTEXT ( ( #218, #194, #171 ) ) REPRESENTATION_CONTEXT ( 'NONE', 'WORKASPACE' ) );
#270 = VERTEX_POINT ( 'NONE', #186 ) ;
#271 = ORIENTED_EDGE ( 'NONE', *, *, #284, .T. ) ;
#272 = EDGE_CURVE ( 'NONE', #315, #6, #256, .T. ) ;
#273 = ORIENTED_EDGE ( 'NONE', *, *, #71, .F. ) ;
#274 = FILL_AREA_STYLE_COLOUR ( '', #229 ) ;
#275 = AXIS2_PLACEMENT_3D ( 'NONE', #81, #50, #105 ) ;
#276 = PLANE ( 'NONE',  #316 ) ;
#277 = CARTESIAN_POINT ( 'NONE',  ( 0.0000000000000000000, 0.0000000000000000000, 1.000000000000000000 ) ) ;
#278 = DIRECTION ( 'NONE',  ( -1.000000000000000000, 0.0000000000000000000, 0.0000000000000000000 ) ) ;
#279 = FILL_AREA_STYLE_COLOUR ( '', #207 ) ;
#280 = FACE_OUTER_BOUND ( 'NONE', #113, .T. ) ;
#281 =( CONVERSION_BASED_UNIT ( 'INCH', #48 ) LENGTH_UNIT ( ) NAMED_UNIT ( #114 ) );
#282 = LINE ( 'NONE', #212, #126 ) ;
#283 = VERTEX_POINT ( 'NONE', #28 ) ;
#284 = EDGE_CURVE ( 'NONE', #192, #53, #116, .T. ) ;
#285 = DIRECTION ( 'NONE',  ( 0.0000000000000000000, 0.0000000000000000000, -1.000000000000000000 ) ) ;
#286 = CARTESIAN_POINT ( 'NONE',  ( 0.0000000000000000000, 0.0000000000000000000, 2.484999999999999432 ) ) ;
#287 = ORIENTED_EDGE ( 'NONE', *, *, #239, .T. ) ;
#288 = CIRCLE ( 'NONE', #47, 0.1724999999999995981 ) ;
#289 = FACE_OUTER_BOUND ( 'NONE', #267, .T. ) ;
#290 = DIRECTION ( 'NONE',  ( 1.000000000000000000, 0.0000000000000000000, -0.0000000000000000000 ) ) ;
#291 = DIRECTION ( 'NONE',  ( 1.000000000000000000, 0.0000000000000000000, 0.0000000000000000000 ) ) ;
#292 = FACE_OUTER_BOUND ( 'NONE', #311, .T. ) ;
#293 = STYLED_ITEM ( 'NONE', ( #154 ), #129 ) ;
#294 = ORIENTED_EDGE ( 'NONE', *, *, #71, .T. ) ;
#295 = EDGE_CURVE ( 'NONE', #199, #167, #306, .T. ) ;
#296 = ORIENTED_EDGE ( 'NONE', *, *, #313, .T. ) ;
#297 = SURFACE_SIDE_STYLE ('',( #197 ) ) ;
#298 = CARTESIAN_POINT ( 'NONE',  ( -0.1875000000000000278, 0.0000000000000000000, 2.500000000000000000 ) ) ;
#299 = AXIS2_PLACEMENT_3D ( 'NONE', #175, #104, #156 ) ;
#300 = MECHANICAL_DESIGN_GEOMETRIC_PRESENTATION_REPRESENTATION (  '', ( #249 ), #269 ) ;
#301 = CARTESIAN_POINT ( 'NONE',  ( 0.1724999999999995981, 2.112515728529179297E-17, 2.500000000000000000 ) ) ;
#302 = LINE ( 'NONE', #74, #97 ) ;
#303 = DIRECTION ( 'NONE',  ( -1.000000000000000000, 0.0000000000000000000, 0.0000000000000000000 ) ) ;
#304 = DIRECTION ( 'NONE',  ( -0.0000000000000000000, -0.0000000000000000000, -1.000000000000000000 ) ) ;
#305 = CONICAL_SURFACE ( 'NONE', #299, 0.1724999999999995981, 0.7853981633974357335 ) ;
#306 = CIRCLE ( 'NONE', #325, 0.1875000000000000278 ) ;
#307 = DIRECTION ( 'NONE',  ( 0.7071067811865385799, 8.659560562354823157E-17, -0.7071067811865563435 ) ) ;
#308 = UNCERTAINTY_MEASURE_WITH_UNIT (LENGTH_MEASURE( 1.000000000000000082E-05 ), #281, 'distance_accuracy_value', 'NONE');
#309 = FACE_OUTER_BOUND ( 'NONE', #136, .T. ) ;
#310 = DIRECTION ( 'NONE',  ( -0.0000000000000000000, -0.0000000000000000000, -1.000000000000000000 ) ) ;
#311 = EDGE_LOOP ( 'NONE', ( #201, #34, #160, #321 ) ) ;
#312 = DIRECTION ( 'NONE',  ( 0.0000000000000000000, 0.0000000000000000000, 1.000000000000000000 ) ) ;
#313 = EDGE_CURVE ( 'NONE', #210, #315, #106, .T. ) ;
#314 = DIRECTION ( 'NONE',  ( -1.000000000000000000, 0.0000000000000000000, 0.0000000000000000000 ) ) ;
#315 = VERTEX_POINT ( 'NONE', #264 ) ;
#316 = AXIS2_PLACEMENT_3D ( 'NONE', #170, #252, #290 ) ;
#317 = AXIS2_PLACEMENT_3D ( 'NONE', #112, #215, #314 ) ;
#318 = DIRECTION ( 'NONE',  ( 0.8660254037844400399, 0.0000000000000000000, 0.4999999999999976685 ) ) ;
#319 = CYLINDRICAL_SURFACE ( 'NONE', #223, 0.1875000000000000278 ) ;
#320 = CIRCLE ( 'NONE', #15, 0.007499999999999999722 ) ;
#321 = ORIENTED_EDGE ( 'NONE', *, *, #130, .F. ) ;
#322 = CARTESIAN_POINT ( 'NONE',  ( 0.0000000000000000000, 0.0000000000000000000, 0.0000000000000000000 ) ) ;
#323 = CARTESIAN_POINT ( 'NONE',  ( 0.1874500000000000610, 0.0000000000000000000, 0.1038941809406725564 ) ) ;
#324 = CONICAL_SURFACE ( 'NONE', #182, 0.007499999999999999722, 1.047197551196600518 ) ;
#325 = AXIS2_PLACEMENT_3D ( 'NONE', #286, #285, #5 ) ;
#326 = SURFACE_SIDE_STYLE ('',( #26 ) ) ;
#327 = DIRECTION ( 'NONE',  ( 0.0000000000000000000, 0.0000000000000000000, 1.000000000000000000 ) ) ;
#328 = DIRECTION ( 'NONE',  ( 1.000000000000000000, 0.0000000000000000000, 0.0000000000000000000 ) ) ;
#329 = APPLICATION_CONTEXT ( 'automotive_design' ) ;
ENDSEC;
END-ISO-10303-21;
