ISO-10303-21;
HEADER;
FILE_DESCRIPTION (( 'STEP AP214' ),
    '1' );
FILE_NAME ('Micro_GEM-250-4.STEP',
    '2021-09-01T20:19:34',
    ( '' ),
    ( '' ),
    'SwSTEP 2.0',
    'SolidWorks 2020',
    '' );
FILE_SCHEMA (( 'AUTOMOTIVE_DESIGN' ));
ENDSEC;

DATA;
#1 = EDGE_LOOP ( 'NONE', ( #246, #269, #147, #296 ) ) ;
#2 = EDGE_LOOP ( 'NONE', ( #108, #60 ) ) ;
#3 = APPLICATION_PROTOCOL_DEFINITION ( 'draft international standard', 'automotive_design', 1998, #164 ) ;
#4 = MECHANICAL_DESIGN_GEOMETRIC_PRESENTATION_REPRESENTATION (  '', ( #245 ), #70 ) ;
#5 = PRESENTATION_STYLE_ASSIGNMENT (( #162 ) ) ;
#6 = ADVANCED_FACE ( 'NONE', ( #226 ), #253, .T. ) ;
#7 =( CONVERSION_BASED_UNIT ( 'INCH', #119 ) LENGTH_UNIT ( ) NAMED_UNIT ( #35 ) );
#8 = DIRECTION ( 'NONE',  ( 0.0000000000000000000, 0.0000000000000000000, -1.000000000000000000 ) ) ;
#9 = CIRCLE ( 'NONE', #103, 0.1248749999999999999 ) ;
#10 = FACE_OUTER_BOUND ( 'NONE', #189, .T. ) ;
#11 = AXIS2_PLACEMENT_3D ( 'NONE', #217, #145, #190 ) ;
#12 = ADVANCED_FACE ( 'NONE', ( #276 ), #238, .T. ) ;
#13 = CARTESIAN_POINT ( 'NONE',  ( 0.0000000000000000000, 0.0000000000000000000, 2.485000000000000320 ) ) ;
#14 = ORIENTED_EDGE ( 'NONE', *, *, #111, .F. ) ;
#15 = EDGE_CURVE ( 'NONE', #42, #216, #283, .T. ) ;
#16 =( CONVERSION_BASED_UNIT ( 'INCH', #215 ) LENGTH_UNIT ( ) NAMED_UNIT ( #98 ) );
#17 = EDGE_LOOP ( 'NONE', ( #241, #188, #202, #167 ) ) ;
#18 = EDGE_LOOP ( 'NONE', ( #123, #293 ) ) ;
#19 = ORIENTED_EDGE ( 'NONE', *, *, #77, .F. ) ;
#20 = CONICAL_SURFACE ( 'NONE', #254, 0.1248749999999999999, 0.1745329251994339192 ) ;
#21 = EDGE_CURVE ( 'NONE', #185, #174, #133, .T. ) ;
#22 = DIRECTION ( 'NONE',  ( -1.000000000000000000, 0.0000000000000000000, 0.0000000000000000000 ) ) ;
#23 = SURFACE_STYLE_FILL_AREA ( #273 ) ;
#24 = DIRECTION ( 'NONE',  ( -1.000000000000000000, 0.0000000000000000000, 1.224646799147353454E-16 ) ) ;
#25 = FACE_OUTER_BOUND ( 'NONE', #212, .T. ) ;
#26 = PRODUCT_RELATED_PRODUCT_CATEGORY ( 'part', '', ( #150 ) ) ;
#27 = AXIS2_PLACEMENT_3D ( 'NONE', #163, #79, #59 ) ;
#28 = CARTESIAN_POINT ( 'NONE',  ( 0.0000000000000000000, 0.0000000000000000000, 0.0000000000000000000 ) ) ;
#29 = CARTESIAN_POINT ( 'NONE',  ( 0.1250000000000000000, 1.530808498934191509E-17, 2.500000000000000000 ) ) ;
#30 = SURFACE_STYLE_USAGE ( .BOTH. , #232 ) ;
#31 = ADVANCED_FACE ( 'NONE', ( #252 ), #51, .F. ) ;
#32 = AXIS2_PLACEMENT_3D ( 'NONE', #179, #52, #153 ) ;
#33 = CONICAL_SURFACE ( 'NONE', #11, 0.1100000000000001948, 0.7853981633974517207 ) ;
#34 = DIRECTION ( 'NONE',  ( -1.224646799147353207E-16, -0.0000000000000000000, -1.000000000000000000 ) ) ;
#35 = DIMENSIONAL_EXPONENTS ( 1.000000000000000000, 0.0000000000000000000, 0.0000000000000000000, 0.0000000000000000000, 0.0000000000000000000, 0.0000000000000000000, 0.0000000000000000000 ) ;
#36 = CARTESIAN_POINT ( 'NONE',  ( 0.1250000000000000000, 1.530808498934191509E-17, 2.485000000000000320 ) ) ;
#37 = ORIENTED_EDGE ( 'NONE', *, *, #90, .F. ) ;
#38 = DIRECTION ( 'NONE',  ( -1.224646799147353207E-16, -0.0000000000000000000, -1.000000000000000000 ) ) ;
#39 = ORIENTED_EDGE ( 'NONE', *, *, #142, .F. ) ;
#40 =( LENGTH_UNIT ( ) NAMED_UNIT ( * ) SI_UNIT ( $, .METRE. ) );
#41 = ADVANCED_FACE ( 'NONE', ( #151 ), #72, .T. ) ;
#42 = VERTEX_POINT ( 'NONE', #197 ) ;
#43 = VECTOR ( 'NONE', #118, 39.37007874015748143 ) ;
#44 = ORIENTED_EDGE ( 'NONE', *, *, #142, .T. ) ;
#45 = ORIENTED_EDGE ( 'NONE', *, *, #266, .T. ) ;
#46 = ADVANCED_FACE ( 'NONE', ( #25 ), #271, .T. ) ;
#47 = DIRECTION ( 'NONE',  ( -1.224646799147353207E-16, -0.0000000000000000000, -1.000000000000000000 ) ) ;
#48 = CARTESIAN_POINT ( 'NONE',  ( -0.1248749999999999999, 0.0000000000000000000, 3.058555380870514950E-17 ) ) ;
#49 = COLOUR_RGB ( '',0.7921568627450980005, 0.8196078431372548767, 0.9333333333333333481 ) ;
#50 = FACE_OUTER_BOUND ( 'NONE', #71, .T. ) ;
#51 = PLANE ( 'NONE',  #78 ) ;
#52 = DIRECTION ( 'NONE',  ( 1.224646799147353207E-16, 0.0000000000000000000, 1.000000000000000000 ) ) ;
#53 = VECTOR ( 'NONE', #156, 39.37007874015747433 ) ;
#54 = CARTESIAN_POINT ( 'NONE',  ( 0.0000000000000000000, 0.0000000000000000000, 2.500000000000000000 ) ) ;
#55 = AXIS2_PLACEMENT_3D ( 'NONE', #275, #47, #69 ) ;
#56 = AXIS2_PLACEMENT_3D ( 'NONE', #191, #249, #289 ) ;
#57 = CARTESIAN_POINT ( 'NONE',  ( -0.1248749999999999166, 1.530043094684724646E-17, 0.7500000000000001110 ) ) ;
#58 = CARTESIAN_POINT ( 'NONE',  ( 0.0000000000000000000, 0.0000000000000000000, 2.500000000000000000 ) ) ;
#59 = DIRECTION ( 'NONE',  ( 1.000000000000000000, 0.0000000000000000000, -0.0000000000000000000 ) ) ;
#60 = ORIENTED_EDGE ( 'NONE', *, *, #77, .T. ) ;
#61 = CARTESIAN_POINT ( 'NONE',  ( 0.1100000000000001948, 1.438959988998141146E-17, 2.500000000000000000 ) ) ;
#62 = EDGE_CURVE ( 'NONE', #174, #288, #149, .T. ) ;
#63 = ORIENTED_EDGE ( 'NONE', *, *, #15, .T. ) ;
#64 = UNCERTAINTY_MEASURE_WITH_UNIT (LENGTH_MEASURE( 1.000000000000000082E-05 ), #7, 'distance_accuracy_value', 'NONE');
#65 = CARTESIAN_POINT ( 'NONE',  ( -0.1250000000000000000, 0.0000000000000000000, 2.500000000000000000 ) ) ;
#66 = VERTEX_POINT ( 'NONE', #203 ) ;
#67 = ORIENTED_EDGE ( 'NONE', *, *, #126, .T. ) ;
#68 = CARTESIAN_POINT ( 'NONE',  ( -0.1249999999999999167, 0.0000000000000000000, 0.7507089102274522308 ) ) ;
#69 = DIRECTION ( 'NONE',  ( -1.000000000000000000, 0.0000000000000000000, 1.224646799147353454E-16 ) ) ;
#70 =( GEOMETRIC_REPRESENTATION_CONTEXT ( 3 ) GLOBAL_UNCERTAINTY_ASSIGNED_CONTEXT ( ( #64 ) ) GLOBAL_UNIT_ASSIGNED_CONTEXT ( ( #7, #278, #160 ) ) REPRESENTATION_CONTEXT ( 'NONE', 'WORKASPACE' ) );
#71 = EDGE_LOOP ( 'NONE', ( #45, #141, #107, #104 ) ) ;
#72 = CYLINDRICAL_SURFACE ( 'NONE', #183, 0.1250000000000000000 ) ;
#73 = CARTESIAN_POINT ( 'NONE',  ( 0.0000000000000000000, 0.0000000000000000000, 2.485000000000000320 ) ) ;
#74 = DIRECTION ( 'NONE',  ( -1.224646799147353207E-16, -0.0000000000000000000, -1.000000000000000000 ) ) ;
#75 = CIRCLE ( 'NONE', #298, 0.1100000000000001948 ) ;
#76 = EDGE_CURVE ( 'NONE', #290, #221, #233, .T. ) ;
#77 = EDGE_CURVE ( 'NONE', #221, #290, #9, .T. ) ;
#78 = AXIS2_PLACEMENT_3D ( 'NONE', #297, #89, #279 ) ;
#79 = DIRECTION ( 'NONE',  ( 0.0000000000000000000, 0.0000000000000000000, 1.000000000000000000 ) ) ;
#80 = DIRECTION ( 'NONE',  ( 1.000000000000000000, 0.0000000000000000000, 0.0000000000000000000 ) ) ;
#81 =( GEOMETRIC_REPRESENTATION_CONTEXT ( 3 ) GLOBAL_UNCERTAINTY_ASSIGNED_CONTEXT ( ( #84 ) ) GLOBAL_UNIT_ASSIGNED_CONTEXT ( ( #16, #280, #158 ) ) REPRESENTATION_CONTEXT ( 'NONE', 'WORKASPACE' ) );
#82 = ORIENTED_EDGE ( 'NONE', *, *, #90, .T. ) ;
#83 = PRODUCT_DEFINITION_CONTEXT ( 'detailed design', #87, 'design' ) ;
#84 = UNCERTAINTY_MEASURE_WITH_UNIT (LENGTH_MEASURE( 1.000000000000000082E-05 ), #16, 'distance_accuracy_value', 'NONE');
#85 = VERTEX_POINT ( 'NONE', #68 ) ;
#86 = VECTOR ( 'NONE', #213, 39.37007874015748143 ) ;
#87 = APPLICATION_CONTEXT ( 'automotive_design' ) ;
#88 = DIRECTION ( 'NONE',  ( 0.0000000000000000000, 0.0000000000000000000, -1.000000000000000000 ) ) ;
#89 = DIRECTION ( 'NONE',  ( 0.0000000000000000000, 0.0000000000000000000, 1.000000000000000000 ) ) ;
#90 = EDGE_CURVE ( 'NONE', #216, #85, #177, .T. ) ;
#91 = LINE ( 'NONE', #154, #137 ) ;
#92 = DIRECTION ( 'NONE',  ( -1.000000000000000000, 0.0000000000000000000, 1.224646799147353454E-16 ) ) ;
#93 = ORIENTED_EDGE ( 'NONE', *, *, #205, .F. ) ;
#94 = ADVANCED_FACE ( 'NONE', ( #50 ), #231, .T. ) ;
#95 = CARTESIAN_POINT ( 'NONE',  ( 0.0000000000000000000, 0.0000000000000000000, 0.0000000000000000000 ) ) ;
#96 = CIRCLE ( 'NONE', #129, 0.1250000000000000000 ) ;
#97 = PRODUCT_CONTEXT ( 'NONE', #164, 'mechanical' ) ;
#98 = DIMENSIONAL_EXPONENTS ( 1.000000000000000000, 0.0000000000000000000, 0.0000000000000000000, 0.0000000000000000000, 0.0000000000000000000, 0.0000000000000000000, 0.0000000000000000000 ) ;
#99 = ADVANCED_FACE ( 'NONE', ( #223 ), #131, .T. ) ;
#100 =( NAMED_UNIT ( * ) SI_UNIT ( $, .STERADIAN. ) SOLID_ANGLE_UNIT ( ) );
#101 = ORIENTED_EDGE ( 'NONE', *, *, #266, .F. ) ;
#102 = DIRECTION ( 'NONE',  ( 1.000000000000000000, 0.0000000000000000000, 0.0000000000000000000 ) ) ;
#103 = AXIS2_PLACEMENT_3D ( 'NONE', #172, #247, #24 ) ;
#104 = ORIENTED_EDGE ( 'NONE', *, *, #282, .F. ) ;
#105 = ORIENTED_EDGE ( 'NONE', *, *, #138, .F. ) ;
#106 = DIRECTION ( 'NONE',  ( 0.1736481776669314137, 0.0000000000000000000, 0.9848077530122077983 ) ) ;
#107 = ORIENTED_EDGE ( 'NONE', *, *, #76, .F. ) ;
#108 = ORIENTED_EDGE ( 'NONE', *, *, #76, .T. ) ;
#109 = CIRCLE ( 'NONE', #222, 0.1250000000000000000 ) ;
#110 = ORIENTED_EDGE ( 'NONE', *, *, #138, .T. ) ;
#111 = EDGE_CURVE ( 'NONE', #42, #221, #209, .T. ) ;
#112 = DIRECTION ( 'NONE',  ( -1.000000000000000000, 0.0000000000000000000, 0.0000000000000000000 ) ) ;
#113 = DIRECTION ( 'NONE',  ( -1.000000000000000000, 0.0000000000000000000, 1.224646799147353454E-16 ) ) ;
#114 = AXIS2_PLACEMENT_3D ( 'NONE', #54, #88, #299 ) ;
#115 = PRESENTATION_STYLE_ASSIGNMENT (( #30 ) ) ;
#116 = DIRECTION ( 'NONE',  ( -1.224646799147353207E-16, -0.0000000000000000000, -1.000000000000000000 ) ) ;
#117 = DIMENSIONAL_EXPONENTS ( 1.000000000000000000, 0.0000000000000000000, 0.0000000000000000000, 0.0000000000000000000, 0.0000000000000000000, 0.0000000000000000000, 0.0000000000000000000 ) ;
#118 = DIRECTION ( 'NONE',  ( -0.0000000000000000000, -0.0000000000000000000, -1.000000000000000000 ) ) ;
#119 = LENGTH_MEASURE_WITH_UNIT ( LENGTH_MEASURE( 0.02539999999999999897 ), #257 );
#120 = FILL_AREA_STYLE ('',( #261 ) ) ;
#121 =( CONVERSION_BASED_UNIT ( 'INCH', #236 ) LENGTH_UNIT ( ) NAMED_UNIT ( #117 ) );
#122 = DIRECTION ( 'NONE',  ( 1.000000000000000000, 0.0000000000000000000, 0.0000000000000000000 ) ) ;
#123 = ORIENTED_EDGE ( 'NONE', *, *, #225, .T. ) ;
#124 = PLANE ( 'NONE',  #27 ) ;
#125 = VECTOR ( 'NONE', #106, 39.37007874015748143 ) ;
#126 = EDGE_CURVE ( 'NONE', #174, #66, #175, .T. ) ;
#127 = EDGE_LOOP ( 'NONE', ( #198, #67, #195, #105 ) ) ;
#128 = DIRECTION ( 'NONE',  ( -0.0000000000000000000, -0.0000000000000000000, -1.000000000000000000 ) ) ;
#129 = AXIS2_PLACEMENT_3D ( 'NONE', #242, #38, #102 ) ;
#130 = FILL_AREA_STYLE_COLOUR ( '', #140 ) ;
#131 = CYLINDRICAL_SURFACE ( 'NONE', #214, 0.1250000000000000000 ) ;
#132 = ORIENTED_EDGE ( 'NONE', *, *, #21, .T. ) ;
#133 = LINE ( 'NONE', #200, #244 ) ;
#134 = AXIS2_PLACEMENT_3D ( 'NONE', #274, #116, #92 ) ;
#135 = CARTESIAN_POINT ( 'NONE',  ( -0.1248749999999999166, 1.529277690435257475E-17, 0.7500000000000001110 ) ) ;
#136 = DIRECTION ( 'NONE',  ( 1.000000000000000000, 0.0000000000000000000, 0.0000000000000000000 ) ) ;
#137 = VECTOR ( 'NONE', #173, 39.37007874015748143 ) ;
#138 = EDGE_CURVE ( 'NONE', #288, #85, #194, .T. ) ;
#139 = ADVANCED_FACE ( 'NONE', ( #10 ), #20, .T. ) ;
#140 = COLOUR_RGB ( '',0.7921568627450980005, 0.8196078431372548767, 0.9333333333333333481 ) ;
#141 = ORIENTED_EDGE ( 'NONE', *, *, #111, .T. ) ;
#142 = EDGE_CURVE ( 'NONE', #42, #288, #143, .T. ) ;
#143 = LINE ( 'NONE', #218, #125 ) ;
#144 = ORIENTED_EDGE ( 'NONE', *, *, #15, .F. ) ;
#145 = DIRECTION ( 'NONE',  ( 0.0000000000000000000, 0.0000000000000000000, -1.000000000000000000 ) ) ;
#146 = LINE ( 'NONE', #196, #267 ) ;
#147 = ORIENTED_EDGE ( 'NONE', *, *, #256, .F. ) ;
#148 = LINE ( 'NONE', #65, #86 ) ;
#149 = LINE ( 'NONE', #29, #43 ) ;
#150 = PRODUCT ( 'Micro_GEM-250-4', 'Micro_GEM-250-4', '', ( #97 ) ) ;
#151 = FACE_OUTER_BOUND ( 'NONE', #127, .T. ) ;
#152 = AXIS2_PLACEMENT_3D ( 'NONE', #28, #251, #113 ) ;
#153 = DIRECTION ( 'NONE',  ( 1.000000000000000000, 0.0000000000000000000, 0.0000000000000000000 ) ) ;
#154 = CARTESIAN_POINT ( 'NONE',  ( -0.1248749999999999999, 0.0000000000000000000, 1.529277690435257475E-17 ) ) ;
#155 = ADVANCED_FACE ( 'NONE', ( #268 ), #124, .T. ) ;
#156 = DIRECTION ( 'NONE',  ( -0.1736481776669312194, 2.126576849575783625E-17, 0.9848077530122080203 ) ) ;
#157 = DIRECTION ( 'NONE',  ( 0.7071067811865499042, 8.659560562354961208E-17, -0.7071067811865451302 ) ) ;
#158 =( NAMED_UNIT ( * ) SI_UNIT ( $, .STERADIAN. ) SOLID_ANGLE_UNIT ( ) );
#159 = PRESENTATION_LAYER_ASSIGNMENT (  '', '', ( #245 ) ) ;
#160 =( NAMED_UNIT ( * ) SI_UNIT ( $, .STERADIAN. ) SOLID_ANGLE_UNIT ( ) );
#161 = CIRCLE ( 'NONE', #181, 0.1100000000000001948 ) ;
#162 = SURFACE_STYLE_USAGE ( .BOTH. , #250 ) ;
#163 = CARTESIAN_POINT ( 'NONE',  ( 0.0000000000000000000, 0.0000000000000000000, 2.500000000000000000 ) ) ;
#164 = APPLICATION_CONTEXT ( 'automotive_design' ) ;
#165 = ORIENTED_EDGE ( 'NONE', *, *, #199, .F. ) ;
#166 = DIRECTION ( 'NONE',  ( 1.000000000000000000, 0.0000000000000000000, 0.0000000000000000000 ) ) ;
#167 = ORIENTED_EDGE ( 'NONE', *, *, #126, .F. ) ;
#168 = CARTESIAN_POINT ( 'NONE',  ( -0.1100000000000001948, 0.0000000000000000000, 2.500000000000000000 ) ) ;
#169 = EDGE_LOOP ( 'NONE', ( #14, #63, #270, #19 ) ) ;
#170 = CARTESIAN_POINT ( 'NONE',  ( 9.184850993605150903E-17, 0.0000000000000000000, 0.7500000000000001110 ) ) ;
#171 = DIRECTION ( 'NONE',  ( -0.7071067811865499042, 0.0000000000000000000, -0.7071067811865451302 ) ) ;
#172 = CARTESIAN_POINT ( 'NONE',  ( 1.872825028598994811E-33, 0.0000000000000000000, 1.529277690435257475E-17 ) ) ;
#173 = DIRECTION ( 'NONE',  ( -1.224646799147353207E-16, -0.0000000000000000000, -1.000000000000000000 ) ) ;
#174 = VERTEX_POINT ( 'NONE', #36 ) ;
#175 = CIRCLE ( 'NONE', #210, 0.1250000000000000000 ) ;
#176 = AXIS2_PLACEMENT_3D ( 'NONE', #95, #204, #230 ) ;
#177 = LINE ( 'NONE', #135, #53 ) ;
#178 = SURFACE_STYLE_FILL_AREA ( #120 ) ;
#179 = CARTESIAN_POINT ( 'NONE',  ( 9.184850993605150903E-17, 0.0000000000000000000, 0.7500000000000001110 ) ) ;
#180 = CARTESIAN_POINT ( 'NONE',  ( 9.184850993605150903E-17, 0.0000000000000000000, 0.7500000000000001110 ) ) ;
#181 = AXIS2_PLACEMENT_3D ( 'NONE', #58, #240, #122 ) ;
#182 = ADVANCED_BREP_SHAPE_REPRESENTATION ( 'Micro_GEM-250-4', ( #292, #176 ), #81 ) ;
#183 = AXIS2_PLACEMENT_3D ( 'NONE', #255, #128, #228 ) ;
#184 = PRODUCT_DEFINITION_FORMATION_WITH_SPECIFIED_SOURCE ( 'ANY', '', #150, .NOT_KNOWN. ) ;
#185 = VERTEX_POINT ( 'NONE', #61 ) ;
#186 = UNCERTAINTY_MEASURE_WITH_UNIT (LENGTH_MEASURE( 1.000000000000000082E-05 ), #121, 'distance_accuracy_value', 'NONE');
#187 = AXIS2_PLACEMENT_3D ( 'NONE', #170, #74, #22 ) ;
#188 = ORIENTED_EDGE ( 'NONE', *, *, #225, .F. ) ;
#189 = EDGE_LOOP ( 'NONE', ( #37, #144, #44, #110 ) ) ;
#190 = DIRECTION ( 'NONE',  ( -1.000000000000000000, 0.0000000000000000000, 0.0000000000000000000 ) ) ;
#191 = CARTESIAN_POINT ( 'NONE',  ( 9.184850993605150903E-17, 0.0000000000000000000, 0.7500000000000001110 ) ) ;
#192 = CARTESIAN_POINT ( 'NONE',  ( 0.0000000000000000000, 0.0000000000000000000, 2.500000000000000000 ) ) ;
#193 = EDGE_CURVE ( 'NONE', #66, #85, #148, .T. ) ;
#194 = CIRCLE ( 'NONE', #263, 0.1250000000000000000 ) ;
#195 = ORIENTED_EDGE ( 'NONE', *, *, #193, .T. ) ;
#196 = CARTESIAN_POINT ( 'NONE',  ( -0.1100000000000001948, 0.0000000000000000000, 2.500000000000000000 ) ) ;
#197 = CARTESIAN_POINT ( 'NONE',  ( 0.1248750000000000970, 0.0000000000000000000, 0.7500000000000001110 ) ) ;
#198 = ORIENTED_EDGE ( 'NONE', *, *, #62, .F. ) ;
#199 = EDGE_CURVE ( 'NONE', #272, #66, #146, .T. ) ;
#200 = CARTESIAN_POINT ( 'NONE',  ( 0.1100000000000001948, 1.347111479062090784E-17, 2.500000000000000000 ) ) ;
#201 = STYLED_ITEM ( 'NONE', ( #5 ), #292 ) ;
#202 = ORIENTED_EDGE ( 'NONE', *, *, #199, .T. ) ;
#203 = CARTESIAN_POINT ( 'NONE',  ( -0.1250000000000000000, 0.0000000000000000000, 2.485000000000000320 ) ) ;
#204 = DIRECTION ( 'NONE',  ( 0.0000000000000000000, 0.0000000000000000000, 1.000000000000000000 ) ) ;
#205 = EDGE_CURVE ( 'NONE', #185, #272, #75, .T. ) ;
#206 = CARTESIAN_POINT ( 'NONE',  ( 9.193532640014472135E-17, 0.0000000000000000000, 0.7507089102274522308 ) ) ;
#207 = APPLICATION_PROTOCOL_DEFINITION ( 'draft international standard', 'automotive_design', 1998, #87 ) ;
#208 =( LENGTH_UNIT ( ) NAMED_UNIT ( * ) SI_UNIT ( $, .METRE. ) );
#209 = LINE ( 'NONE', #211, #227 ) ;
#210 = AXIS2_PLACEMENT_3D ( 'NONE', #73, #8, #260 ) ;
#211 = CARTESIAN_POINT ( 'NONE',  ( 0.1248749999999999999, 1.529277690435257475E-17, -1.529277690435257475E-17 ) ) ;
#212 = EDGE_LOOP ( 'NONE', ( #93, #132, #265, #165 ) ) ;
#213 = DIRECTION ( 'NONE',  ( -0.0000000000000000000, -0.0000000000000000000, -1.000000000000000000 ) ) ;
#214 = AXIS2_PLACEMENT_3D ( 'NONE', #277, #224, #112 ) ;
#215 = LENGTH_MEASURE_WITH_UNIT ( LENGTH_MEASURE( 0.02539999999999999897 ), #40 );
#216 = VERTEX_POINT ( 'NONE', #57 ) ;
#217 = CARTESIAN_POINT ( 'NONE',  ( 0.0000000000000000000, 0.0000000000000000000, 2.500000000000000000 ) ) ;
#218 = CARTESIAN_POINT ( 'NONE',  ( 0.1248750000000000970, 0.0000000000000000000, 0.7500000000000001110 ) ) ;
#219 = DIRECTION ( 'NONE',  ( 1.224646799147353207E-16, 0.0000000000000000000, 1.000000000000000000 ) ) ;
#220 = ORIENTED_EDGE ( 'NONE', *, *, #256, .T. ) ;
#221 = VERTEX_POINT ( 'NONE', #237 ) ;
#222 = AXIS2_PLACEMENT_3D ( 'NONE', #13, #286, #80 ) ;
#223 = FACE_OUTER_BOUND ( 'NONE', #1, .T. ) ;
#224 = DIRECTION ( 'NONE',  ( -0.0000000000000000000, -0.0000000000000000000, -1.000000000000000000 ) ) ;
#225 = EDGE_CURVE ( 'NONE', #272, #185, #161, .T. ) ;
#226 = FACE_OUTER_BOUND ( 'NONE', #169, .T. ) ;
#227 = VECTOR ( 'NONE', #258, 39.37007874015748143 ) ;
#228 = DIRECTION ( 'NONE',  ( -1.000000000000000000, 0.0000000000000000000, 0.0000000000000000000 ) ) ;
#229 = CIRCLE ( 'NONE', #56, 0.1248749999999999999 ) ;
#230 = DIRECTION ( 'NONE',  ( 1.000000000000000000, 0.0000000000000000000, 0.0000000000000000000 ) ) ;
#231 = CYLINDRICAL_SURFACE ( 'NONE', #55, 0.1248749999999999999 ) ;
#232 = SURFACE_SIDE_STYLE ('',( #178 ) ) ;
#233 = CIRCLE ( 'NONE', #134, 0.1248749999999999999 ) ;
#234 = PRESENTATION_LAYER_ASSIGNMENT (  '', '', ( #201 ) ) ;
#235 = FACE_OUTER_BOUND ( 'NONE', #17, .T. ) ;
#236 = LENGTH_MEASURE_WITH_UNIT ( LENGTH_MEASURE( 0.02539999999999999897 ), #208 );
#237 = CARTESIAN_POINT ( 'NONE',  ( 0.1248749999999999999, 1.529277690435257475E-17, 0.0000000000000000000 ) ) ;
#238 = CONICAL_SURFACE ( 'NONE', #32, 0.1248749999999999999, 0.1745329251994339192 ) ;
#239 =( GEOMETRIC_REPRESENTATION_CONTEXT ( 3 ) GLOBAL_UNCERTAINTY_ASSIGNED_CONTEXT ( ( #186 ) ) GLOBAL_UNIT_ASSIGNED_CONTEXT ( ( #121, #284, #100 ) ) REPRESENTATION_CONTEXT ( 'NONE', 'WORKASPACE' ) );
#240 = DIRECTION ( 'NONE',  ( 0.0000000000000000000, 0.0000000000000000000, 1.000000000000000000 ) ) ;
#241 = ORIENTED_EDGE ( 'NONE', *, *, #21, .F. ) ;
#242 = CARTESIAN_POINT ( 'NONE',  ( 9.193532640014472135E-17, 0.0000000000000000000, 0.7507089102274522308 ) ) ;
#243 = EDGE_CURVE ( 'NONE', #66, #174, #109, .T. ) ;
#244 = VECTOR ( 'NONE', #157, 39.37007874015748143 ) ;
#245 = STYLED_ITEM ( 'NONE', ( #115 ), #182 ) ;
#246 = ORIENTED_EDGE ( 'NONE', *, *, #243, .T. ) ;
#247 = DIRECTION ( 'NONE',  ( -1.224646799147353207E-16, -0.0000000000000000000, -1.000000000000000000 ) ) ;
#248 = CLOSED_SHELL ( 'NONE', ( #94, #12, #46, #99, #41, #155, #262, #139, #6, #31 ) ) ;
#249 = DIRECTION ( 'NONE',  ( -1.224646799147353207E-16, -0.0000000000000000000, -1.000000000000000000 ) ) ;
#250 = SURFACE_SIDE_STYLE ('',( #23 ) ) ;
#251 = DIRECTION ( 'NONE',  ( -1.224646799147353207E-16, -0.0000000000000000000, -1.000000000000000000 ) ) ;
#252 = FACE_OUTER_BOUND ( 'NONE', #2, .T. ) ;
#253 = CYLINDRICAL_SURFACE ( 'NONE', #152, 0.1248749999999999999 ) ;
#254 = AXIS2_PLACEMENT_3D ( 'NONE', #180, #219, #166 ) ;
#255 = CARTESIAN_POINT ( 'NONE',  ( 0.0000000000000000000, 0.0000000000000000000, 2.500000000000000000 ) ) ;
#256 = EDGE_CURVE ( 'NONE', #85, #288, #96, .T. ) ;
#257 =( LENGTH_UNIT ( ) NAMED_UNIT ( * ) SI_UNIT ( $, .METRE. ) );
#258 = DIRECTION ( 'NONE',  ( -1.224646799147353207E-16, -0.0000000000000000000, -1.000000000000000000 ) ) ;
#259 = SHAPE_DEFINITION_REPRESENTATION ( #291, #182 ) ;
#260 = DIRECTION ( 'NONE',  ( 1.000000000000000000, 0.0000000000000000000, 0.0000000000000000000 ) ) ;
#261 = FILL_AREA_STYLE_COLOUR ( '', #49 ) ;
#262 = ADVANCED_FACE ( 'NONE', ( #235 ), #33, .T. ) ;
#263 = AXIS2_PLACEMENT_3D ( 'NONE', #206, #34, #281 ) ;
#264 = MECHANICAL_DESIGN_GEOMETRIC_PRESENTATION_REPRESENTATION (  '', ( #201 ), #239 ) ;
#265 = ORIENTED_EDGE ( 'NONE', *, *, #243, .F. ) ;
#266 = EDGE_CURVE ( 'NONE', #216, #42, #229, .T. ) ;
#267 = VECTOR ( 'NONE', #171, 39.37007874015748143 ) ;
#268 = FACE_OUTER_BOUND ( 'NONE', #18, .T. ) ;
#269 = ORIENTED_EDGE ( 'NONE', *, *, #62, .T. ) ;
#270 = ORIENTED_EDGE ( 'NONE', *, *, #282, .T. ) ;
#271 = CONICAL_SURFACE ( 'NONE', #114, 0.1100000000000001948, 0.7853981633974517207 ) ;
#272 = VERTEX_POINT ( 'NONE', #168 ) ;
#273 = FILL_AREA_STYLE ('',( #130 ) ) ;
#274 = CARTESIAN_POINT ( 'NONE',  ( 1.872825028598994811E-33, 0.0000000000000000000, 1.529277690435257475E-17 ) ) ;
#275 = CARTESIAN_POINT ( 'NONE',  ( 0.0000000000000000000, 0.0000000000000000000, 0.0000000000000000000 ) ) ;
#276 = FACE_OUTER_BOUND ( 'NONE', #287, .T. ) ;
#277 = CARTESIAN_POINT ( 'NONE',  ( 0.0000000000000000000, 0.0000000000000000000, 2.500000000000000000 ) ) ;
#278 =( NAMED_UNIT ( * ) PLANE_ANGLE_UNIT ( ) SI_UNIT ( $, .RADIAN. ) );
#279 = DIRECTION ( 'NONE',  ( 1.000000000000000000, 0.0000000000000000000, -0.0000000000000000000 ) ) ;
#280 =( NAMED_UNIT ( * ) PLANE_ANGLE_UNIT ( ) SI_UNIT ( $, .RADIAN. ) );
#281 = DIRECTION ( 'NONE',  ( 1.000000000000000000, 0.0000000000000000000, 0.0000000000000000000 ) ) ;
#282 = EDGE_CURVE ( 'NONE', #216, #290, #91, .T. ) ;
#283 = CIRCLE ( 'NONE', #187, 0.1248749999999999999 ) ;
#284 =( NAMED_UNIT ( * ) PLANE_ANGLE_UNIT ( ) SI_UNIT ( $, .RADIAN. ) );
#285 = PRODUCT_DEFINITION ( 'UNKNOWN', '', #184, #83 ) ;
#286 = DIRECTION ( 'NONE',  ( 0.0000000000000000000, 0.0000000000000000000, -1.000000000000000000 ) ) ;
#287 = EDGE_LOOP ( 'NONE', ( #101, #82, #220, #39 ) ) ;
#288 = VERTEX_POINT ( 'NONE', #294 ) ;
#289 = DIRECTION ( 'NONE',  ( -1.000000000000000000, 0.0000000000000000000, 0.0000000000000000000 ) ) ;
#290 = VERTEX_POINT ( 'NONE', #48 ) ;
#291 = PRODUCT_DEFINITION_SHAPE ( 'NONE', 'NONE',  #285 ) ;
#292 = MANIFOLD_SOLID_BREP ( 'Cut-Revolve1', #248 ) ;
#293 = ORIENTED_EDGE ( 'NONE', *, *, #205, .T. ) ;
#294 = CARTESIAN_POINT ( 'NONE',  ( 0.1250000000000000833, 1.530808498934192433E-17, 0.7507089102274522308 ) ) ;
#295 = DIRECTION ( 'NONE',  ( 0.0000000000000000000, 0.0000000000000000000, 1.000000000000000000 ) ) ;
#296 = ORIENTED_EDGE ( 'NONE', *, *, #193, .F. ) ;
#297 = CARTESIAN_POINT ( 'NONE',  ( 0.0000000000000000000, 0.0000000000000000000, 0.0000000000000000000 ) ) ;
#298 = AXIS2_PLACEMENT_3D ( 'NONE', #192, #295, #136 ) ;
#299 = DIRECTION ( 'NONE',  ( -1.000000000000000000, 0.0000000000000000000, 0.0000000000000000000 ) ) ;
ENDSEC;
END-ISO-10303-21;
