ISO-10303-21;
HEADER;
FILE_DESCRIPTION (( 'STEP AP214' ),
    '1' );
FILE_NAME ('01795.STEP',
    '2023-06-22T14:49:28',
    ( '' ),
    ( '' ),
    'SwSTEP 2.0',
    'SolidWorks 2023',
    '' );
FILE_SCHEMA (( 'AUTOMOTIVE_DESIGN' ));
ENDSEC;

DATA;
#1 = DIRECTION ( 'NONE',  ( -4.453261087808552747E-17, 1.000000000000000000, -0.000000000000000000 ) ) ;
#2 = MANIFOLD_SOLID_BREP ( 'Revolve - Tool Body (Straight Shanked)', #153 ) ;
#3 =( CONVERSION_BASED_UNIT ( 'INCH', #273 ) LENGTH_UNIT ( ) NAMED_UNIT ( #6 ) );
#4 = AXIS2_PLACEMENT_3D ( 'NONE', #143, #234, #23 ) ;
#5 = ORIENTED_EDGE ( 'NONE', *, *, #201, .F. ) ;
#6 = DIMENSIONAL_EXPONENTS ( 1.000000000000000000, 0.000000000000000000, 0.000000000000000000, 0.000000000000000000, 0.000000000000000000, 0.000000000000000000, 0.000000000000000000 ) ;
#7 = SURFACE_STYLE_FILL_AREA ( #249 ) ;
#8 = DIRECTION ( 'NONE',  ( 0.000000000000000000, 1.000000000000000000, 0.000000000000000000 ) ) ;
#9 = ORIENTED_EDGE ( 'NONE', *, *, #75, .T. ) ;
#10 = MECHANICAL_DESIGN_GEOMETRIC_PRESENTATION_REPRESENTATION (  '', ( #130 ), #35 ) ;
#11 = SURFACE_STYLE_USAGE ( .BOTH. , #81 ) ;
#12 = EDGE_LOOP ( 'NONE', ( #220, #9, #32, #251 ) ) ;
#13 = LENGTH_MEASURE_WITH_UNIT ( LENGTH_MEASURE( 0.02539999999999999897 ), #152 );
#14 = AXIS2_PLACEMENT_3D ( 'NONE', #98, #129, #27 ) ;
#15 =( NAMED_UNIT ( * ) SI_UNIT ( $, .STERADIAN. ) SOLID_ANGLE_UNIT ( ) );
#16 = FILL_AREA_STYLE_COLOUR ( '', #20 ) ;
#17 = DIRECTION ( 'NONE',  ( -1.000000000000000000, -4.453261087808552747E-17, 0.000000000000000000 ) ) ;
#18 = EDGE_CURVE ( 'NONE', #139, #219, #158, .T. ) ;
#19 = CLOSED_SHELL ( 'NONE', ( #43, #245, #22, #308 ) ) ;
#20 = COLOUR_RGB ( '',1.000000000000000000, 0.000000000000000000, 0.000000000000000000 ) ;
#21 = AXIS2_PLACEMENT_3D ( 'NONE', #119, #258, #47 ) ;
#22 = ADVANCED_FACE ( 'NONE', ( #253 ), #68, .T. ) ;
#23 = DIRECTION ( 'NONE',  ( -1.000000000000000000, 0.000000000000000000, 0.000000000000000000 ) ) ;
#24 = CIRCLE ( 'NONE', #4, 0.5000000000000000000 ) ;
#25 = CARTESIAN_POINT ( 'NONE',  ( 6.123233995736766036E-17, 0.000000000000000000, 0.5000000000000000000 ) ) ;
#26 = CARTESIAN_POINT ( 'NONE',  ( 0.000000000000000000, 0.000000000000000000, 0.000000000000000000 ) ) ;
#27 = DIRECTION ( 'NONE',  ( -1.000000000000000000, 0.000000000000000000, 0.000000000000000000 ) ) ;
#28 = AXIS2_PLACEMENT_3D ( 'NONE', #77, #1, #270 ) ;
#29 = FACE_OUTER_BOUND ( 'NONE', #56, .T. ) ;
#30 = ORIENTED_EDGE ( 'NONE', *, *, #222, .F. ) ;
#31 =( CONVERSION_BASED_UNIT ( 'INCH', #247 ) LENGTH_UNIT ( ) NAMED_UNIT ( #214 ) );
#32 = ORIENTED_EDGE ( 'NONE', *, *, #222, .T. ) ;
#33 = SURFACE_STYLE_USAGE ( .BOTH. , #105 ) ;
#34 = ORIENTED_EDGE ( 'NONE', *, *, #250, .T. ) ;
#35 =( GEOMETRIC_REPRESENTATION_CONTEXT ( 3 ) GLOBAL_UNCERTAINTY_ASSIGNED_CONTEXT ( ( #235 ) ) GLOBAL_UNIT_ASSIGNED_CONTEXT ( ( #183, #46, #233 ) ) REPRESENTATION_CONTEXT ( 'NONE', 'WORKASPACE' ) );
#36 = ORIENTED_EDGE ( 'NONE', *, *, #123, .T. ) ;
#37 = ADVANCED_BREP_SHAPE_REPRESENTATION ( '01795', ( #206, #2, #21 ), #288 ) ;
#38 = LENGTH_MEASURE_WITH_UNIT ( LENGTH_MEASURE( 0.02539999999999999897 ), #252 );
#39 = ORIENTED_EDGE ( 'NONE', *, *, #18, .F. ) ;
#40 = UNCERTAINTY_MEASURE_WITH_UNIT (LENGTH_MEASURE( 1.000000000000000082E-05 ), #3, 'distance_accuracy_value', 'NONE');
#41 = ORIENTED_EDGE ( 'NONE', *, *, #208, .T. ) ;
#42 = AXIS2_PLACEMENT_3D ( 'NONE', #297, #8, #154 ) ;
#43 = ADVANCED_FACE ( 'NONE', ( #307 ), #265, .T. ) ;
#44 =( LENGTH_UNIT ( ) NAMED_UNIT ( * ) SI_UNIT ( $, .METRE. ) );
#45 = APPLICATION_PROTOCOL_DEFINITION ( 'draft international standard', 'automotive_design', 1998, #293 ) ;
#46 =( NAMED_UNIT ( * ) PLANE_ANGLE_UNIT ( ) SI_UNIT ( $, .RADIAN. ) );
#47 = DIRECTION ( 'NONE',  ( 1.000000000000000000, 0.000000000000000000, 0.000000000000000000 ) ) ;
#48 = MECHANICAL_DESIGN_GEOMETRIC_PRESENTATION_REPRESENTATION (  '', ( #165 ), #281 ) ;
#49 = CARTESIAN_POINT ( 'NONE',  ( 0.000000000000000000, 0.000000000000000000, 0.000000000000000000 ) ) ;
#50 = DIRECTION ( 'NONE',  ( -0.000000000000000000, -1.000000000000000000, -0.000000000000000000 ) ) ;
#51 = FACE_OUTER_BOUND ( 'NONE', #82, .T. ) ;
#52 = PLANE ( 'NONE',  #108 ) ;
#53 = EDGE_CURVE ( 'NONE', #155, #139, #289, .T. ) ;
#54 = CARTESIAN_POINT ( 'NONE',  ( -0.5000000000000002220, 7.000000000000000000, 0.000000000000000000 ) ) ;
#55 = FILL_AREA_STYLE ('',( #242 ) ) ;
#56 = EDGE_LOOP ( 'NONE', ( #118, #283 ) ) ;
#57 = CARTESIAN_POINT ( 'NONE',  ( 0.4999999999999999445, 7.000000000000000000, 6.123233995736767268E-17 ) ) ;
#58 = MECHANICAL_DESIGN_GEOMETRIC_PRESENTATION_REPRESENTATION (  '', ( #287 ), #127 ) ;
#59 = EDGE_LOOP ( 'NONE', ( #248, #172 ) ) ;
#60 = PRESENTATION_STYLE_ASSIGNMENT (( #33 ) ) ;
#61 = DIMENSIONAL_EXPONENTS ( 1.000000000000000000, 0.000000000000000000, 0.000000000000000000, 0.000000000000000000, 0.000000000000000000, 0.000000000000000000, 0.000000000000000000 ) ;
#62 =( CONVERSION_BASED_UNIT ( 'INCH', #170 ) LENGTH_UNIT ( ) NAMED_UNIT ( #100 ) );
#63 = COLOUR_RGB ( '',0.7921568627450980005, 0.8196078431372548767, 0.9333333333333333481 ) ;
#64 = CIRCLE ( 'NONE', #161, 0.5000000000000000000 ) ;
#65 =( NAMED_UNIT ( * ) SI_UNIT ( $, .STERADIAN. ) SOLID_ANGLE_UNIT ( ) );
#66 = EDGE_LOOP ( 'NONE', ( #115, #279, #5, #275 ) ) ;
#67 = DIRECTION ( 'NONE',  ( -4.453261087808552747E-17, 1.000000000000000000, -0.000000000000000000 ) ) ;
#68 = CYLINDRICAL_SURFACE ( 'NONE', #199, 0.5000000000000000000 ) ;
#69 = FACE_OUTER_BOUND ( 'NONE', #59, .T. ) ;
#70 = CIRCLE ( 'NONE', #14, 0.5000000000000000000 ) ;
#71 = DIRECTION ( 'NONE',  ( 0.000000000000000000, 0.000000000000000000, -1.000000000000000000 ) ) ;
#72 = PRODUCT ( '01795', '01795', '', ( #92 ) ) ;
#73 =( NAMED_UNIT ( * ) PLANE_ANGLE_UNIT ( ) SI_UNIT ( $, .RADIAN. ) );
#74 = SURFACE_STYLE_FILL_AREA ( #55 ) ;
#75 = EDGE_CURVE ( 'NONE', #280, #106, #24, .T. ) ;
#76 =( LENGTH_UNIT ( ) NAMED_UNIT ( * ) SI_UNIT ( $, .METRE. ) );
#77 = CARTESIAN_POINT ( 'NONE',  ( -1.224646799147351975E-16, 7.000000000000000000, 0.000000000000000000 ) ) ;
#78 = PRESENTATION_STYLE_ASSIGNMENT (( #96 ) ) ;
#79 = CARTESIAN_POINT ( 'NONE',  ( -0.5000000000000002220, 7.000000000000000000, 0.000000000000000000 ) ) ;
#80 = SURFACE_STYLE_USAGE ( .BOTH. , #200 ) ;
#81 = SURFACE_SIDE_STYLE ('',( #192 ) ) ;
#82 = EDGE_LOOP ( 'NONE', ( #34, #86 ) ) ;
#83 = EDGE_CURVE ( 'NONE', #155, #176, #91, .T. ) ;
#84 = CARTESIAN_POINT ( 'NONE',  ( 0.5000000000000000000, 4.250000000000000000, 6.123233995736767268E-17 ) ) ;
#85 = DIRECTION ( 'NONE',  ( 0.000000000000000000, 0.000000000000000000, -1.000000000000000000 ) ) ;
#86 = ORIENTED_EDGE ( 'NONE', *, *, #110, .T. ) ;
#87 = CARTESIAN_POINT ( 'NONE',  ( 0.000000000000000000, 0.000000000000000000, 0.000000000000000000 ) ) ;
#88 = CARTESIAN_POINT ( 'NONE',  ( 0.000000000000000000, 4.250000000000000000, 0.000000000000000000 ) ) ;
#89 = DIMENSIONAL_EXPONENTS ( 1.000000000000000000, 0.000000000000000000, 0.000000000000000000, 0.000000000000000000, 0.000000000000000000, 0.000000000000000000, 0.000000000000000000 ) ;
#90 = CARTESIAN_POINT ( 'NONE',  ( 0.000000000000000000, 4.250000000000000000, 0.000000000000000000 ) ) ;
#91 = CIRCLE ( 'NONE', #188, 0.5000000000000000000 ) ;
#92 = PRODUCT_CONTEXT ( 'NONE', #282, 'mechanical' ) ;
#93 = FILL_AREA_STYLE ('',( #207 ) ) ;
#94 = LENGTH_MEASURE_WITH_UNIT ( LENGTH_MEASURE( 0.02539999999999999897 ), #44 );
#95 =( NAMED_UNIT ( * ) PLANE_ANGLE_UNIT ( ) SI_UNIT ( $, .RADIAN. ) );
#96 = SURFACE_STYLE_USAGE ( .BOTH. , #294 ) ;
#97 = ADVANCED_FACE ( 'NONE', ( #69 ), #159, .F. ) ;
#98 = CARTESIAN_POINT ( 'NONE',  ( 0.000000000000000000, 4.250000000000000000, 0.000000000000000000 ) ) ;
#99 = CARTESIAN_POINT ( 'NONE',  ( 0.5000000000000000000, 7.000000000000000000, 6.123233995736767268E-17 ) ) ;
#100 = DIMENSIONAL_EXPONENTS ( 1.000000000000000000, 0.000000000000000000, 0.000000000000000000, 0.000000000000000000, 0.000000000000000000, 0.000000000000000000, 0.000000000000000000 ) ;
#101 = PRESENTATION_LAYER_ASSIGNMENT (  '', '', ( #229 ) ) ;
#102 = PRESENTATION_LAYER_ASSIGNMENT (  '', '', ( #165 ) ) ;
#103 = CARTESIAN_POINT ( 'NONE',  ( 0.5000000000000000000, 7.000000000000000000, 0.000000000000000000 ) ) ;
#104 = EDGE_CURVE ( 'NONE', #176, #155, #64, .T. ) ;
#105 = SURFACE_SIDE_STYLE ('',( #7 ) ) ;
#106 = VERTEX_POINT ( 'NONE', #285 ) ;
#107 = CARTESIAN_POINT ( 'NONE',  ( -1.224646799147351975E-16, 7.000000000000000000, 0.000000000000000000 ) ) ;
#108 = AXIS2_PLACEMENT_3D ( 'NONE', #103, #128, #146 ) ;
#109 = SURFACE_SIDE_STYLE ('',( #112 ) ) ;
#110 = EDGE_CURVE ( 'NONE', #171, #239, #302, .T. ) ;
#111 = PLANE ( 'NONE',  #205 ) ;
#112 = SURFACE_STYLE_FILL_AREA ( #137 ) ;
#113 = UNCERTAINTY_MEASURE_WITH_UNIT (LENGTH_MEASURE( 1.000000000000000082E-05 ), #62, 'distance_accuracy_value', 'NONE');
#114 = FILL_AREA_STYLE_COLOUR ( '', #272 ) ;
#115 = ORIENTED_EDGE ( 'NONE', *, *, #104, .T. ) ;
#116 = CARTESIAN_POINT ( 'NONE',  ( 0.000000000000000000, 0.000000000000000000, 0.000000000000000000 ) ) ;
#117 = AXIS2_PLACEMENT_3D ( 'NONE', #167, #190, #296 ) ;
#118 = ORIENTED_EDGE ( 'NONE', *, *, #104, .F. ) ;
#119 = CARTESIAN_POINT ( 'NONE',  ( 0.000000000000000000, 0.000000000000000000, 0.000000000000000000 ) ) ;
#120 = FILL_AREA_STYLE ('',( #16 ) ) ;
#121 = DIRECTION ( 'NONE',  ( 0.000000000000000000, 0.000000000000000000, -1.000000000000000000 ) ) ;
#122 =( GEOMETRIC_REPRESENTATION_CONTEXT ( 3 ) GLOBAL_UNCERTAINTY_ASSIGNED_CONTEXT ( ( #232 ) ) GLOBAL_UNIT_ASSIGNED_CONTEXT ( ( #267, #73, #227 ) ) REPRESENTATION_CONTEXT ( 'NONE', 'WORKASPACE' ) );
#123 = EDGE_CURVE ( 'NONE', #106, #280, #70, .T. ) ;
#124 = PRESENTATION_STYLE_ASSIGNMENT (( #306 ) ) ;
#125 = PRODUCT_DEFINITION_CONTEXT ( 'detailed design', #293, 'design' ) ;
#126 =( GEOMETRIC_REPRESENTATION_CONTEXT ( 3 ) GLOBAL_UNCERTAINTY_ASSIGNED_CONTEXT ( ( #181 ) ) GLOBAL_UNIT_ASSIGNED_CONTEXT ( ( #193, #226, #300 ) ) REPRESENTATION_CONTEXT ( 'NONE', 'WORKASPACE' ) );
#127 =( GEOMETRIC_REPRESENTATION_CONTEXT ( 3 ) GLOBAL_UNCERTAINTY_ASSIGNED_CONTEXT ( ( #113 ) ) GLOBAL_UNIT_ASSIGNED_CONTEXT ( ( #62, #224, #65 ) ) REPRESENTATION_CONTEXT ( 'NONE', 'WORKASPACE' ) );
#128 = DIRECTION ( 'NONE',  ( 4.453261087808552747E-17, -1.000000000000000000, 0.000000000000000000 ) ) ;
#129 = DIRECTION ( 'NONE',  ( -4.453261087808552747E-17, 1.000000000000000000, -0.000000000000000000 ) ) ;
#130 = STYLED_ITEM ( 'NONE', ( #124 ), #43 ) ;
#131 = CARTESIAN_POINT ( 'NONE',  ( 0.000000000000000000, 0.000000000000000000, -0.5000000000000000000 ) ) ;
#132 = ORIENTED_EDGE ( 'NONE', *, *, #201, .T. ) ;
#133 = EDGE_LOOP ( 'NONE', ( #132, #135 ) ) ;
#134 = DIRECTION ( 'NONE',  ( -0.000000000000000000, -1.000000000000000000, -0.000000000000000000 ) ) ;
#135 = ORIENTED_EDGE ( 'NONE', *, *, #18, .T. ) ;
#136 =( CONVERSION_BASED_UNIT ( 'INCH', #38 ) LENGTH_UNIT ( ) NAMED_UNIT ( #61 ) );
#137 = FILL_AREA_STYLE ('',( #157 ) ) ;
#138 = PRESENTATION_LAYER_ASSIGNMENT (  '', '', ( #298 ) ) ;
#139 = VERTEX_POINT ( 'NONE', #25 ) ;
#140 = DIRECTION ( 'NONE',  ( 0.000000000000000000, 0.000000000000000000, -1.000000000000000000 ) ) ;
#141 = AXIS2_PLACEMENT_3D ( 'NONE', #202, #259, #17 ) ;
#142 = SURFACE_SIDE_STYLE ('',( #228 ) ) ;
#143 = CARTESIAN_POINT ( 'NONE',  ( 0.000000000000000000, 4.250000000000000000, 0.000000000000000000 ) ) ;
#144 = ORIENTED_EDGE ( 'NONE', *, *, #250, .F. ) ;
#145 = CIRCLE ( 'NONE', #230, 0.5000000000000000000 ) ;
#146 = DIRECTION ( 'NONE',  ( 1.000000000000000000, 4.453261087808552747E-17, 0.000000000000000000 ) ) ;
#147 = EDGE_CURVE ( 'NONE', #176, #219, #290, .T. ) ;
#148 = CARTESIAN_POINT ( 'NONE',  ( 0.000000000000000000, 4.250000000000000000, -0.5000000000000000000 ) ) ;
#149 = PRESENTATION_LAYER_ASSIGNMENT (  '', '', ( #287 ) ) ;
#150 = CARTESIAN_POINT ( 'NONE',  ( 0.000000000000000000, 0.000000000000000000, -0.5000000000000000000 ) ) ;
#151 = EDGE_LOOP ( 'NONE', ( #36, #41, #144, #30 ) ) ;
#152 =( LENGTH_UNIT ( ) NAMED_UNIT ( * ) SI_UNIT ( $, .METRE. ) );
#153 = CLOSED_SHELL ( 'NONE', ( #187, #97, #237, #162 ) ) ;
#154 = DIRECTION ( 'NONE',  ( 0.000000000000000000, -0.000000000000000000, 1.000000000000000000 ) ) ;
#155 = VERTEX_POINT ( 'NONE', #168 ) ;
#156 =( NAMED_UNIT ( * ) PLANE_ANGLE_UNIT ( ) SI_UNIT ( $, .RADIAN. ) );
#157 = FILL_AREA_STYLE_COLOUR ( '', #63 ) ;
#158 = CIRCLE ( 'NONE', #203, 0.5000000000000000000 ) ;
#159 = PLANE ( 'NONE',  #141 ) ;
#160 = MECHANICAL_DESIGN_GEOMETRIC_PRESENTATION_REPRESENTATION (  '', ( #175 ), #303 ) ;
#161 = AXIS2_PLACEMENT_3D ( 'NONE', #90, #180, #261 ) ;
#162 = ADVANCED_FACE ( 'NONE', ( #51 ), #52, .F. ) ;
#163 = CARTESIAN_POINT ( 'NONE',  ( 6.123233995736766036E-17, 0.000000000000000000, 0.5000000000000000000 ) ) ;
#164 =( NAMED_UNIT ( * ) SI_UNIT ( $, .STERADIAN. ) SOLID_ANGLE_UNIT ( ) );
#165 = STYLED_ITEM ( 'NONE', ( #78 ), #206 ) ;
#166 = LINE ( 'NONE', #54, #216 ) ;
#167 = CARTESIAN_POINT ( 'NONE',  ( -1.224646799147351975E-16, 7.000000000000000000, 0.000000000000000000 ) ) ;
#168 = CARTESIAN_POINT ( 'NONE',  ( 6.123233995736766036E-17, 4.250000000000000000, 0.5000000000000000000 ) ) ;
#169 = PRESENTATION_STYLE_ASSIGNMENT (( #80 ) ) ;
#170 = LENGTH_MEASURE_WITH_UNIT ( LENGTH_MEASURE( 0.02539999999999999897 ), #255 );
#171 = VERTEX_POINT ( 'NONE', #99 ) ;
#172 = ORIENTED_EDGE ( 'NONE', *, *, #75, .F. ) ;
#173 = UNCERTAINTY_MEASURE_WITH_UNIT (LENGTH_MEASURE( 1.000000000000000082E-05 ), #136, 'distance_accuracy_value', 'NONE');
#174 = VECTOR ( 'NONE', #291, 39.37007874015748143 ) ;
#175 = STYLED_ITEM ( 'NONE', ( #60 ), #308 ) ;
#176 = VERTEX_POINT ( 'NONE', #148 ) ;
#177 = DIRECTION ( 'NONE',  ( -1.000000000000000000, 0.000000000000000000, 0.000000000000000000 ) ) ;
#178 = DIRECTION ( 'NONE',  ( -0.000000000000000000, -1.000000000000000000, -0.000000000000000000 ) ) ;
#179 = DIMENSIONAL_EXPONENTS ( 1.000000000000000000, 0.000000000000000000, 0.000000000000000000, 0.000000000000000000, 0.000000000000000000, 0.000000000000000000, 0.000000000000000000 ) ;
#180 = DIRECTION ( 'NONE',  ( -0.000000000000000000, -1.000000000000000000, -0.000000000000000000 ) ) ;
#181 = UNCERTAINTY_MEASURE_WITH_UNIT (LENGTH_MEASURE( 1.000000000000000082E-05 ), #193, 'distance_accuracy_value', 'NONE');
#182 = PRODUCT_DEFINITION_SHAPE ( 'NONE', 'NONE',  #295 ) ;
#183 =( CONVERSION_BASED_UNIT ( 'INCH', #94 ) LENGTH_UNIT ( ) NAMED_UNIT ( #278 ) );
#184 = FACE_OUTER_BOUND ( 'NONE', #151, .T. ) ;
#185 = UNCERTAINTY_MEASURE_WITH_UNIT (LENGTH_MEASURE( 1.000000000000000082E-05 ), #31, 'distance_accuracy_value', 'NONE');
#186 =( NAMED_UNIT ( * ) PLANE_ANGLE_UNIT ( ) SI_UNIT ( $, .RADIAN. ) );
#187 = ADVANCED_FACE ( 'NONE', ( #184 ), #276, .T. ) ;
#188 = AXIS2_PLACEMENT_3D ( 'NONE', #88, #178, #121 ) ;
#189 = DIRECTION ( 'NONE',  ( -0.000000000000000000, -1.000000000000000000, -0.000000000000000000 ) ) ;
#190 = DIRECTION ( 'NONE',  ( -4.453261087808552747E-17, 1.000000000000000000, -0.000000000000000000 ) ) ;
#191 = MECHANICAL_DESIGN_GEOMETRIC_PRESENTATION_REPRESENTATION (  '', ( #229 ), #126 ) ;
#192 = SURFACE_STYLE_FILL_AREA ( #299 ) ;
#193 =( CONVERSION_BASED_UNIT ( 'INCH', #13 ) LENGTH_UNIT ( ) NAMED_UNIT ( #89 ) );
#194 = DIRECTION ( 'NONE',  ( 0.000000000000000000, -1.000000000000000000, -0.000000000000000000 ) ) ;
#195 = FACE_OUTER_BOUND ( 'NONE', #133, .T. ) ;
#196 = ORIENTED_EDGE ( 'NONE', *, *, #147, .T. ) ;
#197 = COLOUR_RGB ( '',1.000000000000000000, 0.000000000000000000, 0.000000000000000000 ) ;
#198 = PRESENTATION_STYLE_ASSIGNMENT (( #11 ) ) ;
#199 = AXIS2_PLACEMENT_3D ( 'NONE', #49, #305, #140 ) ;
#200 = SURFACE_SIDE_STYLE ('',( #256 ) ) ;
#201 = EDGE_CURVE ( 'NONE', #219, #139, #145, .T. ) ;
#202 = CARTESIAN_POINT ( 'NONE',  ( 4.957883579047453271E-34, 4.250000000000000000, 0.000000000000000000 ) ) ;
#203 = AXIS2_PLACEMENT_3D ( 'NONE', #87, #134, #284 ) ;
#204 = LENGTH_MEASURE_WITH_UNIT ( LENGTH_MEASURE( 0.02539999999999999897 ), #231 );
#205 = AXIS2_PLACEMENT_3D ( 'NONE', #116, #194, #85 ) ;
#206 = MANIFOLD_SOLID_BREP ( 'Revolve - Cutting Edge', #19 ) ;
#207 = FILL_AREA_STYLE_COLOUR ( '', #197 ) ;
#208 = EDGE_CURVE ( 'NONE', #280, #171, #236, .T. ) ;
#209 = PLANE ( 'NONE',  #42 ) ;
#210 = PRESENTATION_LAYER_ASSIGNMENT (  '', '', ( #130 ) ) ;
#211 = PRESENTATION_LAYER_ASSIGNMENT (  '', '', ( #175 ) ) ;
#212 = DIRECTION ( 'NONE',  ( 0.000000000000000000, 0.000000000000000000, -1.000000000000000000 ) ) ;
#213 = DIRECTION ( 'NONE',  ( -4.453261087808552747E-17, 1.000000000000000000, -0.000000000000000000 ) ) ;
#214 = DIMENSIONAL_EXPONENTS ( 1.000000000000000000, 0.000000000000000000, 0.000000000000000000, 0.000000000000000000, 0.000000000000000000, 0.000000000000000000, 0.000000000000000000 ) ;
#215 = DIRECTION ( 'NONE',  ( -0.000000000000000000, -1.000000000000000000, -0.000000000000000000 ) ) ;
#216 = VECTOR ( 'NONE', #241, 39.37007874015748143 ) ;
#217 = AXIS2_PLACEMENT_3D ( 'NONE', #107, #67, #177 ) ;
#218 = CYLINDRICAL_SURFACE ( 'NONE', #117, 0.5000000000000001110 ) ;
#219 = VERTEX_POINT ( 'NONE', #150 ) ;
#220 = ORIENTED_EDGE ( 'NONE', *, *, #208, .F. ) ;
#221 = EDGE_LOOP ( 'NONE', ( #254, #301, #196, #39 ) ) ;
#222 = EDGE_CURVE ( 'NONE', #106, #239, #166, .T. ) ;
#223 = PRESENTATION_STYLE_ASSIGNMENT (( #225 ) ) ;
#224 =( NAMED_UNIT ( * ) PLANE_ANGLE_UNIT ( ) SI_UNIT ( $, .RADIAN. ) );
#225 = SURFACE_STYLE_USAGE ( .BOTH. , #109 ) ;
#226 =( NAMED_UNIT ( * ) PLANE_ANGLE_UNIT ( ) SI_UNIT ( $, .RADIAN. ) );
#227 =( NAMED_UNIT ( * ) SI_UNIT ( $, .STERADIAN. ) SOLID_ANGLE_UNIT ( ) );
#228 = SURFACE_STYLE_FILL_AREA ( #93 ) ;
#229 = STYLED_ITEM ( 'NONE', ( #223 ), #2 ) ;
#230 = AXIS2_PLACEMENT_3D ( 'NONE', #26, #189, #212 ) ;
#231 =( LENGTH_UNIT ( ) NAMED_UNIT ( * ) SI_UNIT ( $, .METRE. ) );
#232 = UNCERTAINTY_MEASURE_WITH_UNIT (LENGTH_MEASURE( 1.000000000000000082E-05 ), #267, 'distance_accuracy_value', 'NONE');
#233 =( NAMED_UNIT ( * ) SI_UNIT ( $, .STERADIAN. ) SOLID_ANGLE_UNIT ( ) );
#234 = DIRECTION ( 'NONE',  ( -4.453261087808552747E-17, 1.000000000000000000, -0.000000000000000000 ) ) ;
#235 = UNCERTAINTY_MEASURE_WITH_UNIT (LENGTH_MEASURE( 1.000000000000000082E-05 ), #183, 'distance_accuracy_value', 'NONE');
#236 = LINE ( 'NONE', #57, #174 ) ;
#237 = ADVANCED_FACE ( 'NONE', ( #246 ), #218, .T. ) ;
#238 = VECTOR ( 'NONE', #215, 39.37007874015748143 ) ;
#239 = VERTEX_POINT ( 'NONE', #79 ) ;
#240 = DIRECTION ( 'NONE',  ( -1.000000000000000000, 0.000000000000000000, 0.000000000000000000 ) ) ;
#241 = DIRECTION ( 'NONE',  ( -4.453261087808552747E-17, 1.000000000000000000, -0.000000000000000000 ) ) ;
#242 = FILL_AREA_STYLE_COLOUR ( '', #271 ) ;
#243 = AXIS2_PLACEMENT_3D ( 'NONE', #274, #213, #240 ) ;
#244 = PRODUCT_DEFINITION_FORMATION_WITH_SPECIFIED_SOURCE ( 'ANY', '', #72, .NOT_KNOWN. ) ;
#245 = ADVANCED_FACE ( 'NONE', ( #29 ), #209, .T. ) ;
#246 = FACE_OUTER_BOUND ( 'NONE', #12, .T. ) ;
#247 = LENGTH_MEASURE_WITH_UNIT ( LENGTH_MEASURE( 0.02539999999999999897 ), #304 );
#248 = ORIENTED_EDGE ( 'NONE', *, *, #123, .F. ) ;
#249 = FILL_AREA_STYLE ('',( #114 ) ) ;
#250 = EDGE_CURVE ( 'NONE', #239, #171, #266, .T. ) ;
#251 = ORIENTED_EDGE ( 'NONE', *, *, #110, .F. ) ;
#252 =( LENGTH_UNIT ( ) NAMED_UNIT ( * ) SI_UNIT ( $, .METRE. ) );
#253 = FACE_OUTER_BOUND ( 'NONE', #221, .T. ) ;
#254 = ORIENTED_EDGE ( 'NONE', *, *, #53, .F. ) ;
#255 =( LENGTH_UNIT ( ) NAMED_UNIT ( * ) SI_UNIT ( $, .METRE. ) );
#256 = SURFACE_STYLE_FILL_AREA ( #120 ) ;
#257 = VECTOR ( 'NONE', #262, 39.37007874015748143 ) ;
#258 = DIRECTION ( 'NONE',  ( 0.000000000000000000, 0.000000000000000000, 1.000000000000000000 ) ) ;
#259 = DIRECTION ( 'NONE',  ( -4.453261087808552747E-17, 1.000000000000000000, 0.000000000000000000 ) ) ;
#260 = APPLICATION_PROTOCOL_DEFINITION ( 'draft international standard', 'automotive_design', 1998, #282 ) ;
#261 = DIRECTION ( 'NONE',  ( 0.000000000000000000, 0.000000000000000000, -1.000000000000000000 ) ) ;
#262 = DIRECTION ( 'NONE',  ( -0.000000000000000000, -1.000000000000000000, -0.000000000000000000 ) ) ;
#263 = SHAPE_DEFINITION_REPRESENTATION ( #182, #37 ) ;
#264 = COLOUR_RGB ( '',1.000000000000000000, 0.000000000000000000, 0.000000000000000000 ) ;
#265 = CYLINDRICAL_SURFACE ( 'NONE', #292, 0.5000000000000000000 ) ;
#266 = CIRCLE ( 'NONE', #217, 0.5000000000000001110 ) ;
#267 =( CONVERSION_BASED_UNIT ( 'INCH', #204 ) LENGTH_UNIT ( ) NAMED_UNIT ( #179 ) );
#268 = PRODUCT_RELATED_PRODUCT_CATEGORY ( 'part', '', ( #72 ) ) ;
#269 = FILL_AREA_STYLE_COLOUR ( '', #264 ) ;
#270 = DIRECTION ( 'NONE',  ( -1.000000000000000000, 0.000000000000000000, 0.000000000000000000 ) ) ;
#271 = COLOUR_RGB ( '',0.7921568627450980005, 0.8196078431372548767, 0.9333333333333333481 ) ;
#272 = COLOUR_RGB ( '',1.000000000000000000, 0.000000000000000000, 0.000000000000000000 ) ;
#273 = LENGTH_MEASURE_WITH_UNIT ( LENGTH_MEASURE( 0.02539999999999999897 ), #76 );
#274 = CARTESIAN_POINT ( 'NONE',  ( -1.224646799147351975E-16, 7.000000000000000000, 0.000000000000000000 ) ) ;
#275 = ORIENTED_EDGE ( 'NONE', *, *, #147, .F. ) ;
#276 = CYLINDRICAL_SURFACE ( 'NONE', #243, 0.5000000000000001110 ) ;
#277 =( NAMED_UNIT ( * ) SI_UNIT ( $, .STERADIAN. ) SOLID_ANGLE_UNIT ( ) );
#278 = DIMENSIONAL_EXPONENTS ( 1.000000000000000000, 0.000000000000000000, 0.000000000000000000, 0.000000000000000000, 0.000000000000000000, 0.000000000000000000, 0.000000000000000000 ) ;
#279 = ORIENTED_EDGE ( 'NONE', *, *, #53, .T. ) ;
#280 = VERTEX_POINT ( 'NONE', #84 ) ;
#281 =( GEOMETRIC_REPRESENTATION_CONTEXT ( 3 ) GLOBAL_UNCERTAINTY_ASSIGNED_CONTEXT ( ( #40 ) ) GLOBAL_UNIT_ASSIGNED_CONTEXT ( ( #3, #186, #164 ) ) REPRESENTATION_CONTEXT ( 'NONE', 'WORKASPACE' ) );
#282 = APPLICATION_CONTEXT ( 'automotive_design' ) ;
#283 = ORIENTED_EDGE ( 'NONE', *, *, #83, .F. ) ;
#284 = DIRECTION ( 'NONE',  ( 0.000000000000000000, 0.000000000000000000, -1.000000000000000000 ) ) ;
#285 = CARTESIAN_POINT ( 'NONE',  ( -0.5000000000000000000, 4.250000000000000000, 0.000000000000000000 ) ) ;
#286 = CARTESIAN_POINT ( 'NONE',  ( 0.000000000000000000, 0.000000000000000000, 0.000000000000000000 ) ) ;
#287 = STYLED_ITEM ( 'NONE', ( #198 ), #245 ) ;
#288 =( GEOMETRIC_REPRESENTATION_CONTEXT ( 3 ) GLOBAL_UNCERTAINTY_ASSIGNED_CONTEXT ( ( #185 ) ) GLOBAL_UNIT_ASSIGNED_CONTEXT ( ( #31, #95, #15 ) ) REPRESENTATION_CONTEXT ( 'NONE', 'WORKASPACE' ) );
#289 = LINE ( 'NONE', #163, #257 ) ;
#290 = LINE ( 'NONE', #131, #238 ) ;
#291 = DIRECTION ( 'NONE',  ( -4.453261087808552747E-17, 1.000000000000000000, -0.000000000000000000 ) ) ;
#292 = AXIS2_PLACEMENT_3D ( 'NONE', #286, #50, #71 ) ;
#293 = APPLICATION_CONTEXT ( 'automotive_design' ) ;
#294 = SURFACE_SIDE_STYLE ('',( #74 ) ) ;
#295 = PRODUCT_DEFINITION ( 'UNKNOWN', '', #244, #125 ) ;
#296 = DIRECTION ( 'NONE',  ( -1.000000000000000000, 0.000000000000000000, 0.000000000000000000 ) ) ;
#297 = CARTESIAN_POINT ( 'NONE',  ( 0.000000000000000000, 4.250000000000000000, 0.000000000000000000 ) ) ;
#298 = STYLED_ITEM ( 'NONE', ( #169 ), #22 ) ;
#299 = FILL_AREA_STYLE ('',( #269 ) ) ;
#300 =( NAMED_UNIT ( * ) SI_UNIT ( $, .STERADIAN. ) SOLID_ANGLE_UNIT ( ) );
#301 = ORIENTED_EDGE ( 'NONE', *, *, #83, .T. ) ;
#302 = CIRCLE ( 'NONE', #28, 0.5000000000000001110 ) ;
#303 =( GEOMETRIC_REPRESENTATION_CONTEXT ( 3 ) GLOBAL_UNCERTAINTY_ASSIGNED_CONTEXT ( ( #173 ) ) GLOBAL_UNIT_ASSIGNED_CONTEXT ( ( #136, #156, #277 ) ) REPRESENTATION_CONTEXT ( 'NONE', 'WORKASPACE' ) );
#304 =( LENGTH_UNIT ( ) NAMED_UNIT ( * ) SI_UNIT ( $, .METRE. ) );
#305 = DIRECTION ( 'NONE',  ( -0.000000000000000000, -1.000000000000000000, -0.000000000000000000 ) ) ;
#306 = SURFACE_STYLE_USAGE ( .BOTH. , #142 ) ;
#307 = FACE_OUTER_BOUND ( 'NONE', #66, .T. ) ;
#308 = ADVANCED_FACE ( 'NONE', ( #195 ), #111, .T. ) ;
#309 = MECHANICAL_DESIGN_GEOMETRIC_PRESENTATION_REPRESENTATION (  '', ( #298 ), #122 ) ;
ENDSEC;
END-ISO-10303-21;
