ISO-10303-21;
HEADER;
FILE_DESCRIPTION (( 'STEP AP214' ),
    '1' );
FILE_NAME ('83776.STEP',
    '2023-07-05T19:25:04',
    ( '' ),
    ( '' ),
    'SwSTEP 2.0',
    'SolidWorks 2023',
    '' );
FILE_SCHEMA (( 'AUTOMOTIVE_DESIGN' ));
ENDSEC;

DATA;
#1 = SURFACE_STYLE_FILL_AREA ( #167 ) ;
#2 = AXIS2_PLACEMENT_3D ( 'NONE', #223, #92, #230 ) ;
#3 =( GEOMETRIC_REPRESENTATION_CONTEXT ( 3 ) GLOBAL_UNCERTAINTY_ASSIGNED_CONTEXT ( ( #72 ) ) GLOBAL_UNIT_ASSIGNED_CONTEXT ( ( #210, #236, #213 ) ) REPRESENTATION_CONTEXT ( 'NONE', 'WORKASPACE' ) );
#4 = STYLED_ITEM ( 'NONE', ( #274 ), #5 ) ;
#5 = ADVANCED_FACE ( 'NONE', ( #324 ), #85, .T. ) ;
#6 = DIRECTION ( 'NONE',  ( 0.000000000000000000, 0.000000000000000000, -1.000000000000000000 ) ) ;
#7 = SURFACE_STYLE_FILL_AREA ( #30 ) ;
#8 = DIRECTION ( 'NONE',  ( -0.000000000000000000, -1.000000000000000000, -0.000000000000000000 ) ) ;
#9 = CARTESIAN_POINT ( 'NONE',  ( 0.000000000000000000, 0.8750000000000000000, 0.000000000000000000 ) ) ;
#10 = SURFACE_STYLE_USAGE ( .BOTH. , #90 ) ;
#11 =( CONVERSION_BASED_UNIT ( 'INCH', #177 ) LENGTH_UNIT ( ) NAMED_UNIT ( #139 ) );
#12 = DIMENSIONAL_EXPONENTS ( 1.000000000000000000, 0.000000000000000000, 0.000000000000000000, 0.000000000000000000, 0.000000000000000000, 0.000000000000000000, 0.000000000000000000 ) ;
#13 = ADVANCED_FACE ( 'NONE', ( #243 ), #220, .T. ) ;
#14 = SURFACE_STYLE_FILL_AREA ( #331 ) ;
#15 = AXIS2_PLACEMENT_3D ( 'NONE', #314, #316, #6 ) ;
#16 = CIRCLE ( 'NONE', #255, 0.1874999999999999722 ) ;
#17 = SURFACE_STYLE_USAGE ( .BOTH. , #186 ) ;
#18 = CIRCLE ( 'NONE', #200, 0.1875000000000000278 ) ;
#19 = ORIENTED_EDGE ( 'NONE', *, *, #197, .F. ) ;
#20 = UNCERTAINTY_MEASURE_WITH_UNIT (LENGTH_MEASURE( 1.000000000000000082E-05 ), #269, 'distance_accuracy_value', 'NONE');
#21 = ORIENTED_EDGE ( 'NONE', *, *, #207, .T. ) ;
#22 = EDGE_CURVE ( 'NONE', #346, #311, #332, .T. ) ;
#23 = ADVANCED_BREP_SHAPE_REPRESENTATION ( '83776', ( #238, #135, #143 ), #288 ) ;
#24 = LINE ( 'NONE', #81, #75 ) ;
#25 = EDGE_LOOP ( 'NONE', ( #105, #291, #70, #307 ) ) ;
#26 = DIRECTION ( 'NONE',  ( -1.000000000000000000, 0.000000000000000000, 0.000000000000000000 ) ) ;
#27 = ORIENTED_EDGE ( 'NONE', *, *, #41, .T. ) ;
#28 = DIRECTION ( 'NONE',  ( -1.000000000000000000, 0.000000000000000000, 0.000000000000000000 ) ) ;
#29 = FILL_AREA_STYLE ('',( #195 ) ) ;
#30 = FILL_AREA_STYLE ('',( #114 ) ) ;
#31 = SURFACE_SIDE_STYLE ('',( #325 ) ) ;
#32 = LENGTH_MEASURE_WITH_UNIT ( LENGTH_MEASURE( 0.02539999999999999897 ), #83 );
#33 = VECTOR ( 'NONE', #231, 39.37007874015748854 ) ;
#34 = CONICAL_SURFACE ( 'NONE', #103, 68.19097667594041923, 1.047197551196600074 ) ;
#35 = CARTESIAN_POINT ( 'NONE',  ( 0.000000000000000000, 39.37007874015748143, 0.000000000000000000 ) ) ;
#36 = MECHANICAL_DESIGN_GEOMETRIC_PRESENTATION_REPRESENTATION (  '', ( #4 ), #118 ) ;
#37 = CIRCLE ( 'NONE', #279, 0.1874999999999997780 ) ;
#38 = CARTESIAN_POINT ( 'NONE',  ( 0.000000000000000000, 0.000000000000000000, 0.000000000000000000 ) ) ;
#39 = STYLED_ITEM ( 'NONE', ( #96 ), #91 ) ;
#40 = CLOSED_SHELL ( 'NONE', ( #13, #327, #286, #228 ) ) ;
#41 = EDGE_CURVE ( 'NONE', #340, #283, #16, .T. ) ;
#42 = DIRECTION ( 'NONE',  ( -0.000000000000000000, -1.000000000000000000, -0.000000000000000000 ) ) ;
#43 = LENGTH_MEASURE_WITH_UNIT ( LENGTH_MEASURE( 0.02539999999999999897 ), #281 );
#44 = VECTOR ( 'NONE', #8, 39.37007874015748143 ) ;
#45 = ADVANCED_FACE ( 'NONE', ( #194 ), #315, .T. ) ;
#46 = DIRECTION ( 'NONE',  ( 0.000000000000000000, 0.000000000000000000, -1.000000000000000000 ) ) ;
#47 = FILL_AREA_STYLE_COLOUR ( '', #299 ) ;
#48 = EDGE_LOOP ( 'NONE', ( #190, #308, #76 ) ) ;
#49 = PRESENTATION_STYLE_ASSIGNMENT (( #343 ) ) ;
#50 = VECTOR ( 'NONE', #338, 39.37007874015748143 ) ;
#51 = ORIENTED_EDGE ( 'NONE', *, *, #113, .F. ) ;
#52 = LINE ( 'NONE', #241, #218 ) ;
#53 = ORIENTED_EDGE ( 'NONE', *, *, #64, .T. ) ;
#54 = SURFACE_STYLE_FILL_AREA ( #132 ) ;
#55 = PRESENTATION_STYLE_ASSIGNMENT (( #292 ) ) ;
#56 = APPLICATION_CONTEXT ( 'automotive_design' ) ;
#57 = DIRECTION ( 'NONE',  ( -0.000000000000000000, -1.000000000000000000, -0.000000000000000000 ) ) ;
#58 = CARTESIAN_POINT ( 'NONE',  ( -6.123233995736766036E-17, 2.500000000000000000, 0.000000000000000000 ) ) ;
#59 = DIRECTION ( 'NONE',  ( 0.000000000000000000, 0.000000000000000000, -1.000000000000000000 ) ) ;
#60 = DIRECTION ( 'NONE',  ( 0.000000000000000000, 1.000000000000000000, 0.000000000000000000 ) ) ;
#61 = MECHANICAL_DESIGN_GEOMETRIC_PRESENTATION_REPRESENTATION (  '', ( #206 ), #109 ) ;
#62 = STYLED_ITEM ( 'NONE', ( #49 ), #135 ) ;
#63 = CARTESIAN_POINT ( 'NONE',  ( 0.000000000000000000, 0.8750000000000000000, 0.000000000000000000 ) ) ;
#64 = EDGE_CURVE ( 'NONE', #264, #156, #18, .T. ) ;
#65 = STYLED_ITEM ( 'NONE', ( #282 ), #238 ) ;
#66 = CARTESIAN_POINT ( 'NONE',  ( -0.1874999999999995837, 0.8749999999999997780, 0.000000000000000000 ) ) ;
#67 =( LENGTH_UNIT ( ) NAMED_UNIT ( * ) SI_UNIT ( $, .METRE. ) );
#68 = SURFACE_SIDE_STYLE ('',( #14 ) ) ;
#69 = CARTESIAN_POINT ( 'NONE',  ( 1.963515745446189373E-16, 0.8749999999999997780, 0.000000000000000000 ) ) ;
#70 = ORIENTED_EDGE ( 'NONE', *, *, #197, .T. ) ;
#71 = APPLICATION_CONTEXT ( 'automotive_design' ) ;
#72 = UNCERTAINTY_MEASURE_WITH_UNIT (LENGTH_MEASURE( 1.000000000000000082E-05 ), #210, 'distance_accuracy_value', 'NONE');
#73 = FACE_OUTER_BOUND ( 'NONE', #209, .T. ) ;
#74 = DIRECTION ( 'NONE',  ( -1.585131781550686470E-16, 1.000000000000000000, -0.000000000000000000 ) ) ;
#75 = VECTOR ( 'NONE', #154, 39.37007874015748143 ) ;
#76 = ORIENTED_EDGE ( 'NONE', *, *, #188, .T. ) ;
#77 = PRODUCT_DEFINITION_FORMATION_WITH_SPECIFIED_SOURCE ( 'ANY', '', #179, .NOT_KNOWN. ) ;
#78 = SURFACE_STYLE_FILL_AREA ( #180 ) ;
#79 = ORIENTED_EDGE ( 'NONE', *, *, #334, .F. ) ;
#80 = AXIS2_PLACEMENT_3D ( 'NONE', #58, #191, #320 ) ;
#81 = CARTESIAN_POINT ( 'NONE',  ( 0.000000000000000000, 0.000000000000000000, -0.1874999999999999722 ) ) ;
#82 = CARTESIAN_POINT ( 'NONE',  ( 2.296212748401287109E-17, 0.1082531754730542695, 0.1875000000000000278 ) ) ;
#83 =( LENGTH_UNIT ( ) NAMED_UNIT ( * ) SI_UNIT ( $, .METRE. ) );
#84 =( CONVERSION_BASED_UNIT ( 'INCH', #271 ) LENGTH_UNIT ( ) NAMED_UNIT ( #201 ) );
#85 = CYLINDRICAL_SURFACE ( 'NONE', #162, 0.1874999999999999722 ) ;
#86 = CYLINDRICAL_SURFACE ( 'NONE', #80, 0.1874999999999999167 ) ;
#87 = ADVANCED_FACE ( 'NONE', ( #333 ), #147, .T. ) ;
#88 = DIRECTION ( 'NONE',  ( -1.585131781550686470E-16, 1.000000000000000000, -0.000000000000000000 ) ) ;
#89 = APPLICATION_PROTOCOL_DEFINITION ( 'draft international standard', 'automotive_design', 1998, #56 ) ;
#90 = SURFACE_SIDE_STYLE ('',( #257 ) ) ;
#91 = ADVANCED_FACE ( 'NONE', ( #95 ), #301, .T. ) ;
#92 = DIRECTION ( 'NONE',  ( -0.000000000000000000, -1.000000000000000000, -0.000000000000000000 ) ) ;
#93 = CIRCLE ( 'NONE', #309, 0.1874999999999997780 ) ;
#94 = DIRECTION ( 'NONE',  ( 0.000000000000000000, 0.000000000000000000, 1.000000000000000000 ) ) ;
#95 = FACE_OUTER_BOUND ( 'NONE', #165, .T. ) ;
#96 = PRESENTATION_STYLE_ASSIGNMENT (( #10 ) ) ;
#97 = DIRECTION ( 'NONE',  ( 1.585131781550686470E-16, -1.000000000000000000, 0.000000000000000000 ) ) ;
#98 = EDGE_LOOP ( 'NONE', ( #290, #51 ) ) ;
#99 =( LENGTH_UNIT ( ) NAMED_UNIT ( * ) SI_UNIT ( $, .METRE. ) );
#100 = EDGE_CURVE ( 'NONE', #163, #264, #175, .T. ) ;
#101 = SURFACE_SIDE_STYLE ('',( #54 ) ) ;
#102 = VERTEX_POINT ( 'NONE', #66 ) ;
#103 = AXIS2_PLACEMENT_3D ( 'NONE', #35, #140, #267 ) ;
#104 = COLOUR_RGB ( '',1.000000000000000000, 0.000000000000000000, 0.000000000000000000 ) ;
#105 = ORIENTED_EDGE ( 'NONE', *, *, #155, .F. ) ;
#106 =( NAMED_UNIT ( * ) PLANE_ANGLE_UNIT ( ) SI_UNIT ( $, .RADIAN. ) );
#107 = VERTEX_POINT ( 'NONE', #205 ) ;
#108 = DIRECTION ( 'NONE',  ( -0.000000000000000000, -1.000000000000000000, -0.000000000000000000 ) ) ;
#109 =( GEOMETRIC_REPRESENTATION_CONTEXT ( 3 ) GLOBAL_UNCERTAINTY_ASSIGNED_CONTEXT ( ( #153 ) ) GLOBAL_UNIT_ASSIGNED_CONTEXT ( ( #277, #149, #280 ) ) REPRESENTATION_CONTEXT ( 'NONE', 'WORKASPACE' ) );
#110 = CARTESIAN_POINT ( 'NONE',  ( 1.963515745446189127E-16, 0.8750000000000000000, 0.000000000000000000 ) ) ;
#111 =( NAMED_UNIT ( * ) SI_UNIT ( $, .STERADIAN. ) SOLID_ANGLE_UNIT ( ) );
#112 =( GEOMETRIC_REPRESENTATION_CONTEXT ( 3 ) GLOBAL_UNCERTAINTY_ASSIGNED_CONTEXT ( ( #160 ) ) GLOBAL_UNIT_ASSIGNED_CONTEXT ( ( #211, #323, #242 ) ) REPRESENTATION_CONTEXT ( 'NONE', 'WORKASPACE' ) );
#113 = EDGE_CURVE ( 'NONE', #107, #102, #93, .T. ) ;
#114 = FILL_AREA_STYLE_COLOUR ( '', #104 ) ;
#115 = DIMENSIONAL_EXPONENTS ( 1.000000000000000000, 0.000000000000000000, 0.000000000000000000, 0.000000000000000000, 0.000000000000000000, 0.000000000000000000, 0.000000000000000000 ) ;
#116 =( NAMED_UNIT ( * ) SI_UNIT ( $, .STERADIAN. ) SOLID_ANGLE_UNIT ( ) );
#117 = VECTOR ( 'NONE', #263, 39.37007874015748143 ) ;
#118 =( GEOMETRIC_REPRESENTATION_CONTEXT ( 3 ) GLOBAL_UNCERTAINTY_ASSIGNED_CONTEXT ( ( #284 ) ) GLOBAL_UNIT_ASSIGNED_CONTEXT ( ( #275, #296, #111 ) ) REPRESENTATION_CONTEXT ( 'NONE', 'WORKASPACE' ) );
#119 = DIMENSIONAL_EXPONENTS ( 1.000000000000000000, 0.000000000000000000, 0.000000000000000000, 0.000000000000000000, 0.000000000000000000, 0.000000000000000000, 0.000000000000000000 ) ;
#120 = CARTESIAN_POINT ( 'NONE',  ( 0.000000000000000000, 0.000000000000000000, 0.000000000000000000 ) ) ;
#121 = MECHANICAL_DESIGN_GEOMETRIC_PRESENTATION_REPRESENTATION (  '', ( #65 ), #112 ) ;
#122 = DIRECTION ( 'NONE',  ( -1.585131781550686470E-16, 1.000000000000000000, -0.000000000000000000 ) ) ;
#123 = COLOUR_RGB ( '',1.000000000000000000, 0.000000000000000000, 0.000000000000000000 ) ;
#124 = CLOSED_SHELL ( 'NONE', ( #87, #5, #91, #45, #303 ) ) ;
#125 = UNCERTAINTY_MEASURE_WITH_UNIT (LENGTH_MEASURE( 1.000000000000000082E-05 ), #246, 'distance_accuracy_value', 'NONE');
#126 = EDGE_CURVE ( 'NONE', #340, #156, #24, .T. ) ;
#127 = PRESENTATION_LAYER_ASSIGNMENT (  '', '', ( #273 ) ) ;
#128 = PLANE ( 'NONE',  #142 ) ;
#129 = ORIENTED_EDGE ( 'NONE', *, *, #321, .T. ) ;
#130 = DIMENSIONAL_EXPONENTS ( 1.000000000000000000, 0.000000000000000000, 0.000000000000000000, 0.000000000000000000, 0.000000000000000000, 0.000000000000000000, 0.000000000000000000 ) ;
#131 = CARTESIAN_POINT ( 'NONE',  ( 0.000000000000000000, 0.1082531754730542695, 0.000000000000000000 ) ) ;
#132 = FILL_AREA_STYLE ('',( #47 ) ) ;
#133 = EDGE_CURVE ( 'NONE', #163, #156, #52, .T. ) ;
#134 = ORIENTED_EDGE ( 'NONE', *, *, #64, .F. ) ;
#135 = MANIFOLD_SOLID_BREP ( 'Revolve - Tool Body (Straight Shanked)', #40 ) ;
#136 = PRODUCT_RELATED_PRODUCT_CATEGORY ( 'part', '', ( #179 ) ) ;
#137 = ORIENTED_EDGE ( 'NONE', *, *, #126, .F. ) ;
#138 = CARTESIAN_POINT ( 'NONE',  ( -0.1875000000000001110, 2.500000000000000000, 0.000000000000000000 ) ) ;
#139 = DIMENSIONAL_EXPONENTS ( 1.000000000000000000, 0.000000000000000000, 0.000000000000000000, 0.000000000000000000, 0.000000000000000000, 0.000000000000000000, 0.000000000000000000 ) ;
#140 = DIRECTION ( 'NONE',  ( 0.000000000000000000, 1.000000000000000000, 0.000000000000000000 ) ) ;
#141 = SURFACE_SIDE_STYLE ('',( #7 ) ) ;
#142 = AXIS2_PLACEMENT_3D ( 'NONE', #232, #97, #306 ) ;
#143 = AXIS2_PLACEMENT_3D ( 'NONE', #120, #94, #329 ) ;
#144 = PLANE ( 'NONE',  #349 ) ;
#145 =( NAMED_UNIT ( * ) SI_UNIT ( $, .STERADIAN. ) SOLID_ANGLE_UNIT ( ) );
#146 = CARTESIAN_POINT ( 'NONE',  ( 0.000000000000000000, 39.37007874015748143, 0.000000000000000000 ) ) ;
#147 = CONICAL_SURFACE ( 'NONE', #339, 68.19097667594041923, 1.047197551196600074 ) ;
#148 = PRODUCT_CONTEXT ( 'NONE', #56, 'mechanical' ) ;
#149 =( NAMED_UNIT ( * ) PLANE_ANGLE_UNIT ( ) SI_UNIT ( $, .RADIAN. ) );
#150 = CIRCLE ( 'NONE', #15, 0.1874999999999999722 ) ;
#151 =( GEOMETRIC_REPRESENTATION_CONTEXT ( 3 ) GLOBAL_UNCERTAINTY_ASSIGNED_CONTEXT ( ( #125 ) ) GLOBAL_UNIT_ASSIGNED_CONTEXT ( ( #246, #326, #198 ) ) REPRESENTATION_CONTEXT ( 'NONE', 'WORKASPACE' ) );
#152 = MECHANICAL_DESIGN_GEOMETRIC_PRESENTATION_REPRESENTATION (  '', ( #317 ), #151 ) ;
#153 = UNCERTAINTY_MEASURE_WITH_UNIT (LENGTH_MEASURE( 1.000000000000000082E-05 ), #277, 'distance_accuracy_value', 'NONE');
#154 = DIRECTION ( 'NONE',  ( -0.000000000000000000, -1.000000000000000000, -0.000000000000000000 ) ) ;
#155 = EDGE_CURVE ( 'NONE', #107, #311, #183, .T. ) ;
#156 = VERTEX_POINT ( 'NONE', #345 ) ;
#157 =( GEOMETRIC_REPRESENTATION_CONTEXT ( 3 ) GLOBAL_UNCERTAINTY_ASSIGNED_CONTEXT ( ( #256 ) ) GLOBAL_UNIT_ASSIGNED_CONTEXT ( ( #11, #300, #116 ) ) REPRESENTATION_CONTEXT ( 'NONE', 'WORKASPACE' ) );
#158 = AXIS2_PLACEMENT_3D ( 'NONE', #131, #189, #46 ) ;
#159 = COLOUR_RGB ( '',1.000000000000000000, 0.000000000000000000, 0.000000000000000000 ) ;
#160 = UNCERTAINTY_MEASURE_WITH_UNIT (LENGTH_MEASURE( 1.000000000000000082E-05 ), #211, 'distance_accuracy_value', 'NONE');
#161 = DIRECTION ( 'NONE',  ( 1.060575238724908024E-16, 0.4999999999999979461, -0.8660254037844397068 ) ) ;
#162 = AXIS2_PLACEMENT_3D ( 'NONE', #38, #108, #249 ) ;
#163 = VERTEX_POINT ( 'NONE', #259 ) ;
#164 =( LENGTH_UNIT ( ) NAMED_UNIT ( * ) SI_UNIT ( $, .METRE. ) );
#165 = EDGE_LOOP ( 'NONE', ( #262, #344 ) ) ;
#166 = DIRECTION ( 'NONE',  ( -1.585131781550686470E-16, 1.000000000000000000, 0.000000000000000000 ) ) ;
#167 = FILL_AREA_STYLE ('',( #244 ) ) ;
#168 =( NAMED_UNIT ( * ) SI_UNIT ( $, .STERADIAN. ) SOLID_ANGLE_UNIT ( ) );
#169 = PRESENTATION_STYLE_ASSIGNMENT (( #294 ) ) ;
#170 = CARTESIAN_POINT ( 'NONE',  ( 2.296212748401286801E-17, 0.000000000000000000, 0.1874999999999999722 ) ) ;
#171 = CARTESIAN_POINT ( 'NONE',  ( -6.123233995736764803E-17, 2.500000000000000000, 0.000000000000000000 ) ) ;
#172 = SURFACE_STYLE_USAGE ( .BOTH. , #196 ) ;
#173 = PRESENTATION_LAYER_ASSIGNMENT (  '', '', ( #206 ) ) ;
#174 = MECHANICAL_DESIGN_GEOMETRIC_PRESENTATION_REPRESENTATION (  '', ( #62 ), #3 ) ;
#175 = LINE ( 'NONE', #330, #33 ) ;
#176 = FILL_AREA_STYLE_COLOUR ( '', #276 ) ;
#177 = LENGTH_MEASURE_WITH_UNIT ( LENGTH_MEASURE( 0.02539999999999999897 ), #67 );
#178 = CARTESIAN_POINT ( 'NONE',  ( 1.963515745446189373E-16, 0.8749999999999997780, 0.000000000000000000 ) ) ;
#179 = PRODUCT ( '83776', '83776', '', ( #148 ) ) ;
#180 = FILL_AREA_STYLE ('',( #347 ) ) ;
#181 = ORIENTED_EDGE ( 'NONE', *, *, #253, .T. ) ;
#182 = AXIS2_PLACEMENT_3D ( 'NONE', #63, #60, #227 ) ;
#183 = LINE ( 'NONE', #312, #117 ) ;
#184 = AXIS2_PLACEMENT_3D ( 'NONE', #171, #250, #193 ) ;
#185 = ORIENTED_EDGE ( 'NONE', *, *, #133, .F. ) ;
#186 = SURFACE_SIDE_STYLE ('',( #78 ) ) ;
#187 = EDGE_LOOP ( 'NONE', ( #79, #129, #215, #134 ) ) ;
#188 = EDGE_CURVE ( 'NONE', #156, #264, #260, .T. ) ;
#189 = DIRECTION ( 'NONE',  ( -0.000000000000000000, -1.000000000000000000, -0.000000000000000000 ) ) ;
#190 = ORIENTED_EDGE ( 'NONE', *, *, #100, .F. ) ;
#191 = DIRECTION ( 'NONE',  ( -1.585131781550686470E-16, 1.000000000000000000, -0.000000000000000000 ) ) ;
#192 = FACE_OUTER_BOUND ( 'NONE', #98, .T. ) ;
#193 = DIRECTION ( 'NONE',  ( -1.000000000000000000, 0.000000000000000000, 0.000000000000000000 ) ) ;
#194 = FACE_OUTER_BOUND ( 'NONE', #187, .T. ) ;
#195 = FILL_AREA_STYLE_COLOUR ( '', #302 ) ;
#196 = SURFACE_SIDE_STYLE ('',( #1 ) ) ;
#197 = EDGE_CURVE ( 'NONE', #102, #346, #208, .T. ) ;
#198 =( NAMED_UNIT ( * ) SI_UNIT ( $, .STERADIAN. ) SOLID_ANGLE_UNIT ( ) );
#199 = PRODUCT_DEFINITION ( 'UNKNOWN', '', #77, #342 ) ;
#200 = AXIS2_PLACEMENT_3D ( 'NONE', #305, #42, #278 ) ;
#201 = DIMENSIONAL_EXPONENTS ( 1.000000000000000000, 0.000000000000000000, 0.000000000000000000, 0.000000000000000000, 0.000000000000000000, 0.000000000000000000, 0.000000000000000000 ) ;
#202 = PRODUCT_DEFINITION_SHAPE ( 'NONE', 'NONE',  #199 ) ;
#203 =( GEOMETRIC_REPRESENTATION_CONTEXT ( 3 ) GLOBAL_UNCERTAINTY_ASSIGNED_CONTEXT ( ( #336 ) ) GLOBAL_UNIT_ASSIGNED_CONTEXT ( ( #84, #106, #168 ) ) REPRESENTATION_CONTEXT ( 'NONE', 'WORKASPACE' ) );
#204 = FILL_AREA_STYLE_COLOUR ( '', #123 ) ;
#205 = CARTESIAN_POINT ( 'NONE',  ( 0.1874999999999999722, 0.8749999999999997780, 2.296212748401287109E-17 ) ) ;
#206 = STYLED_ITEM ( 'NONE', ( #252 ), #87 ) ;
#207 = EDGE_CURVE ( 'NONE', #311, #346, #245, .T. ) ;
#208 = LINE ( 'NONE', #289, #50 ) ;
#209 = EDGE_LOOP ( 'NONE', ( #237, #21 ) ) ;
#210 =( CONVERSION_BASED_UNIT ( 'INCH', #261 ) LENGTH_UNIT ( ) NAMED_UNIT ( #221 ) );
#211 =( CONVERSION_BASED_UNIT ( 'INCH', #285 ) LENGTH_UNIT ( ) NAMED_UNIT ( #12 ) );
#212 = ORIENTED_EDGE ( 'NONE', *, *, #334, .T. ) ;
#213 =( NAMED_UNIT ( * ) SI_UNIT ( $, .STERADIAN. ) SOLID_ANGLE_UNIT ( ) );
#214 = ORIENTED_EDGE ( 'NONE', *, *, #100, .T. ) ;
#215 = ORIENTED_EDGE ( 'NONE', *, *, #126, .T. ) ;
#216 = CARTESIAN_POINT ( 'NONE',  ( 0.1874999999999999722, 2.500000000000000000, 2.296212748401287109E-17 ) ) ;
#217 = PRESENTATION_LAYER_ASSIGNMENT (  '', '', ( #39 ) ) ;
#218 = VECTOR ( 'NONE', #161, 39.37007874015748854 ) ;
#219 = FACE_OUTER_BOUND ( 'NONE', #25, .T. ) ;
#220 = CYLINDRICAL_SURFACE ( 'NONE', #310, 0.1874999999999999167 ) ;
#221 = DIMENSIONAL_EXPONENTS ( 1.000000000000000000, 0.000000000000000000, 0.000000000000000000, 0.000000000000000000, 0.000000000000000000, 0.000000000000000000, 0.000000000000000000 ) ;
#222 = CARTESIAN_POINT ( 'NONE',  ( 0.000000000000000000, 0.8750000000000000000, -0.1874999999999999722 ) ) ;
#223 = CARTESIAN_POINT ( 'NONE',  ( 0.000000000000000000, 0.000000000000000000, 0.000000000000000000 ) ) ;
#224 = FACE_OUTER_BOUND ( 'NONE', #348, .T. ) ;
#225 = CARTESIAN_POINT ( 'NONE',  ( 2.296212748401286801E-17, 0.8750000000000000000, 0.1874999999999999722 ) ) ;
#226 = LENGTH_MEASURE_WITH_UNIT ( LENGTH_MEASURE( 0.02539999999999999897 ), #272 );
#227 = DIRECTION ( 'NONE',  ( 0.000000000000000000, -0.000000000000000000, 1.000000000000000000 ) ) ;
#228 = ADVANCED_FACE ( 'NONE', ( #73 ), #128, .F. ) ;
#229 =( NAMED_UNIT ( * ) PLANE_ANGLE_UNIT ( ) SI_UNIT ( $, .RADIAN. ) );
#230 = DIRECTION ( 'NONE',  ( 0.000000000000000000, 0.000000000000000000, -1.000000000000000000 ) ) ;
#231 = DIRECTION ( 'NONE',  ( 0.000000000000000000, 0.4999999999999979461, 0.8660254037844397068 ) ) ;
#232 = CARTESIAN_POINT ( 'NONE',  ( 0.1874999999999999722, 2.500000000000000000, 0.000000000000000000 ) ) ;
#233 = MECHANICAL_DESIGN_GEOMETRIC_PRESENTATION_REPRESENTATION (  '', ( #39 ), #157 ) ;
#234 = PRESENTATION_LAYER_ASSIGNMENT (  '', '', ( #4 ) ) ;
#235 = EDGE_LOOP ( 'NONE', ( #27, #212, #313, #137 ) ) ;
#236 =( NAMED_UNIT ( * ) PLANE_ANGLE_UNIT ( ) SI_UNIT ( $, .RADIAN. ) );
#237 = ORIENTED_EDGE ( 'NONE', *, *, #22, .T. ) ;
#238 = MANIFOLD_SOLID_BREP ( 'Revolve - Cutting Edge', #124 ) ;
#239 = CARTESIAN_POINT ( 'NONE',  ( -6.123233995736764803E-17, 2.500000000000000000, 0.000000000000000000 ) ) ;
#240 = ORIENTED_EDGE ( 'NONE', *, *, #22, .F. ) ;
#241 = CARTESIAN_POINT ( 'NONE',  ( 0.000000000000000000, 0.000000000000000000, 0.000000000000000000 ) ) ;
#242 =( NAMED_UNIT ( * ) SI_UNIT ( $, .STERADIAN. ) SOLID_ANGLE_UNIT ( ) );
#243 = FACE_OUTER_BOUND ( 'NONE', #350, .T. ) ;
#244 = FILL_AREA_STYLE_COLOUR ( '', #159 ) ;
#245 = CIRCLE ( 'NONE', #287, 0.1875000000000000555 ) ;
#246 =( CONVERSION_BASED_UNIT ( 'INCH', #32 ) LENGTH_UNIT ( ) NAMED_UNIT ( #115 ) );
#247 = LINE ( 'NONE', #170, #44 ) ;
#248 = COLOUR_RGB ( '',0.7921568627450980005, 0.8196078431372548767, 0.9333333333333333481 ) ;
#249 = DIRECTION ( 'NONE',  ( 0.000000000000000000, 0.000000000000000000, -1.000000000000000000 ) ) ;
#250 = DIRECTION ( 'NONE',  ( -1.585131781550686470E-16, 1.000000000000000000, -0.000000000000000000 ) ) ;
#251 = DIRECTION ( 'NONE',  ( 0.000000000000000000, 1.000000000000000000, 0.000000000000000000 ) ) ;
#252 = PRESENTATION_STYLE_ASSIGNMENT (( #337 ) ) ;
#253 = EDGE_CURVE ( 'NONE', #102, #107, #37, .T. ) ;
#254 = APPLICATION_PROTOCOL_DEFINITION ( 'draft international standard', 'automotive_design', 1998, #71 ) ;
#255 = AXIS2_PLACEMENT_3D ( 'NONE', #9, #57, #59 ) ;
#256 = UNCERTAINTY_MEASURE_WITH_UNIT (LENGTH_MEASURE( 1.000000000000000082E-05 ), #11, 'distance_accuracy_value', 'NONE');
#257 = SURFACE_STYLE_FILL_AREA ( #304 ) ;
#258 =( LENGTH_UNIT ( ) NAMED_UNIT ( * ) SI_UNIT ( $, .METRE. ) );
#259 = CARTESIAN_POINT ( 'NONE',  ( 0.000000000000000000, 0.000000000000000000, 0.000000000000000000 ) ) ;
#260 = CIRCLE ( 'NONE', #158, 0.1875000000000000278 ) ;
#261 = LENGTH_MEASURE_WITH_UNIT ( LENGTH_MEASURE( 0.02539999999999999897 ), #258 );
#262 = ORIENTED_EDGE ( 'NONE', *, *, #41, .F. ) ;
#263 = DIRECTION ( 'NONE',  ( -1.585131781550686470E-16, 1.000000000000000000, -0.000000000000000000 ) ) ;
#264 = VERTEX_POINT ( 'NONE', #82 ) ;
#265 = DIRECTION ( 'NONE',  ( -1.000000000000000000, 0.000000000000000000, 0.000000000000000000 ) ) ;
#266 = ORIENTED_EDGE ( 'NONE', *, *, #155, .T. ) ;
#267 = DIRECTION ( 'NONE',  ( 0.000000000000000000, 0.000000000000000000, 1.000000000000000000 ) ) ;
#268 = DIRECTION ( 'NONE',  ( -1.000000000000000000, -1.585131781550686470E-16, 0.000000000000000000 ) ) ;
#269 =( CONVERSION_BASED_UNIT ( 'INCH', #293 ) LENGTH_UNIT ( ) NAMED_UNIT ( #119 ) );
#270 = PRESENTATION_LAYER_ASSIGNMENT (  '', '', ( #62 ) ) ;
#271 = LENGTH_MEASURE_WITH_UNIT ( LENGTH_MEASURE( 0.02539999999999999897 ), #164 );
#272 =( LENGTH_UNIT ( ) NAMED_UNIT ( * ) SI_UNIT ( $, .METRE. ) );
#273 = STYLED_ITEM ( 'NONE', ( #55 ), #303 ) ;
#274 = PRESENTATION_STYLE_ASSIGNMENT (( #172 ) ) ;
#275 =( CONVERSION_BASED_UNIT ( 'INCH', #226 ) LENGTH_UNIT ( ) NAMED_UNIT ( #341 ) );
#276 = COLOUR_RGB ( '',1.000000000000000000, 0.000000000000000000, 0.000000000000000000 ) ;
#277 =( CONVERSION_BASED_UNIT ( 'INCH', #43 ) LENGTH_UNIT ( ) NAMED_UNIT ( #130 ) );
#278 = DIRECTION ( 'NONE',  ( 0.000000000000000000, 0.000000000000000000, -1.000000000000000000 ) ) ;
#279 = AXIS2_PLACEMENT_3D ( 'NONE', #69, #88, #28 ) ;
#280 =( NAMED_UNIT ( * ) SI_UNIT ( $, .STERADIAN. ) SOLID_ANGLE_UNIT ( ) );
#281 =( LENGTH_UNIT ( ) NAMED_UNIT ( * ) SI_UNIT ( $, .METRE. ) );
#282 = PRESENTATION_STYLE_ASSIGNMENT (( #17 ) ) ;
#283 = VERTEX_POINT ( 'NONE', #225 ) ;
#284 = UNCERTAINTY_MEASURE_WITH_UNIT (LENGTH_MEASURE( 1.000000000000000082E-05 ), #275, 'distance_accuracy_value', 'NONE');
#285 = LENGTH_MEASURE_WITH_UNIT ( LENGTH_MEASURE( 0.02539999999999999897 ), #99 );
#286 = ADVANCED_FACE ( 'NONE', ( #219 ), #86, .T. ) ;
#287 = AXIS2_PLACEMENT_3D ( 'NONE', #239, #122, #265 ) ;
#288 =( GEOMETRIC_REPRESENTATION_CONTEXT ( 3 ) GLOBAL_UNCERTAINTY_ASSIGNED_CONTEXT ( ( #20 ) ) GLOBAL_UNIT_ASSIGNED_CONTEXT ( ( #269, #229, #145 ) ) REPRESENTATION_CONTEXT ( 'NONE', 'WORKASPACE' ) );
#289 = CARTESIAN_POINT ( 'NONE',  ( -0.1874999999999999722, 2.500000000000000000, 0.000000000000000000 ) ) ;
#290 = ORIENTED_EDGE ( 'NONE', *, *, #253, .F. ) ;
#291 = ORIENTED_EDGE ( 'NONE', *, *, #113, .T. ) ;
#292 = SURFACE_STYLE_USAGE ( .BOTH. , #31 ) ;
#293 = LENGTH_MEASURE_WITH_UNIT ( LENGTH_MEASURE( 0.02539999999999999897 ), #295 );
#294 = SURFACE_STYLE_USAGE ( .BOTH. , #141 ) ;
#295 =( LENGTH_UNIT ( ) NAMED_UNIT ( * ) SI_UNIT ( $, .METRE. ) );
#296 =( NAMED_UNIT ( * ) PLANE_ANGLE_UNIT ( ) SI_UNIT ( $, .RADIAN. ) );
#297 = PRESENTATION_LAYER_ASSIGNMENT (  '', '', ( #317 ) ) ;
#298 = SHAPE_DEFINITION_REPRESENTATION ( #202, #23 ) ;
#299 = COLOUR_RGB ( '',0.7921568627450980005, 0.8196078431372548767, 0.9333333333333333481 ) ;
#300 =( NAMED_UNIT ( * ) PLANE_ANGLE_UNIT ( ) SI_UNIT ( $, .RADIAN. ) );
#301 = PLANE ( 'NONE',  #182 ) ;
#302 = COLOUR_RGB ( '',1.000000000000000000, 0.000000000000000000, 0.000000000000000000 ) ;
#303 = ADVANCED_FACE ( 'NONE', ( #224 ), #34, .T. ) ;
#304 = FILL_AREA_STYLE ('',( #204 ) ) ;
#305 = CARTESIAN_POINT ( 'NONE',  ( 0.000000000000000000, 0.1082531754730542695, 0.000000000000000000 ) ) ;
#306 = DIRECTION ( 'NONE',  ( 1.000000000000000000, 1.585131781550686470E-16, 0.000000000000000000 ) ) ;
#307 = ORIENTED_EDGE ( 'NONE', *, *, #207, .F. ) ;
#308 = ORIENTED_EDGE ( 'NONE', *, *, #133, .T. ) ;
#309 = AXIS2_PLACEMENT_3D ( 'NONE', #178, #74, #26 ) ;
#310 = AXIS2_PLACEMENT_3D ( 'NONE', #351, #318, #322 ) ;
#311 = VERTEX_POINT ( 'NONE', #216 ) ;
#312 = CARTESIAN_POINT ( 'NONE',  ( 0.1874999999999998335, 2.500000000000000000, 2.296212748401286185E-17 ) ) ;
#313 = ORIENTED_EDGE ( 'NONE', *, *, #188, .F. ) ;
#314 = CARTESIAN_POINT ( 'NONE',  ( 0.000000000000000000, 0.8750000000000000000, 0.000000000000000000 ) ) ;
#315 = CYLINDRICAL_SURFACE ( 'NONE', #2, 0.1874999999999999722 ) ;
#316 = DIRECTION ( 'NONE',  ( -0.000000000000000000, -1.000000000000000000, -0.000000000000000000 ) ) ;
#317 = STYLED_ITEM ( 'NONE', ( #169 ), #45 ) ;
#318 = DIRECTION ( 'NONE',  ( -1.585131781550686470E-16, 1.000000000000000000, -0.000000000000000000 ) ) ;
#319 = MECHANICAL_DESIGN_GEOMETRIC_PRESENTATION_REPRESENTATION (  '', ( #273 ), #203 ) ;
#320 = DIRECTION ( 'NONE',  ( -1.000000000000000000, 0.000000000000000000, 0.000000000000000000 ) ) ;
#321 = EDGE_CURVE ( 'NONE', #283, #340, #150, .T. ) ;
#322 = DIRECTION ( 'NONE',  ( -1.000000000000000000, 0.000000000000000000, 0.000000000000000000 ) ) ;
#323 =( NAMED_UNIT ( * ) PLANE_ANGLE_UNIT ( ) SI_UNIT ( $, .RADIAN. ) );
#324 = FACE_OUTER_BOUND ( 'NONE', #235, .T. ) ;
#325 = SURFACE_STYLE_FILL_AREA ( #29 ) ;
#326 =( NAMED_UNIT ( * ) PLANE_ANGLE_UNIT ( ) SI_UNIT ( $, .RADIAN. ) );
#327 = ADVANCED_FACE ( 'NONE', ( #192 ), #144, .F. ) ;
#328 = DIRECTION ( 'NONE',  ( 0.000000000000000000, 0.000000000000000000, 1.000000000000000000 ) ) ;
#329 = DIRECTION ( 'NONE',  ( 1.000000000000000000, 0.000000000000000000, 0.000000000000000000 ) ) ;
#330 = CARTESIAN_POINT ( 'NONE',  ( 0.000000000000000000, 0.000000000000000000, 0.000000000000000000 ) ) ;
#331 = FILL_AREA_STYLE ('',( #176 ) ) ;
#332 = CIRCLE ( 'NONE', #184, 0.1875000000000000555 ) ;
#333 = FACE_OUTER_BOUND ( 'NONE', #48, .T. ) ;
#334 = EDGE_CURVE ( 'NONE', #283, #264, #247, .T. ) ;
#335 = PRESENTATION_LAYER_ASSIGNMENT (  '', '', ( #65 ) ) ;
#336 = UNCERTAINTY_MEASURE_WITH_UNIT (LENGTH_MEASURE( 1.000000000000000082E-05 ), #84, 'distance_accuracy_value', 'NONE');
#337 = SURFACE_STYLE_USAGE ( .BOTH. , #68 ) ;
#338 = DIRECTION ( 'NONE',  ( -1.585131781550686470E-16, 1.000000000000000000, -0.000000000000000000 ) ) ;
#339 = AXIS2_PLACEMENT_3D ( 'NONE', #146, #251, #328 ) ;
#340 = VERTEX_POINT ( 'NONE', #222 ) ;
#341 = DIMENSIONAL_EXPONENTS ( 1.000000000000000000, 0.000000000000000000, 0.000000000000000000, 0.000000000000000000, 0.000000000000000000, 0.000000000000000000, 0.000000000000000000 ) ;
#342 = PRODUCT_DEFINITION_CONTEXT ( 'detailed design', #71, 'design' ) ;
#343 = SURFACE_STYLE_USAGE ( .BOTH. , #101 ) ;
#344 = ORIENTED_EDGE ( 'NONE', *, *, #321, .F. ) ;
#345 = CARTESIAN_POINT ( 'NONE',  ( 0.000000000000000000, 0.1082531754730542695, -0.1875000000000000278 ) ) ;
#346 = VERTEX_POINT ( 'NONE', #138 ) ;
#347 = FILL_AREA_STYLE_COLOUR ( '', #248 ) ;
#348 = EDGE_LOOP ( 'NONE', ( #185, #214, #53 ) ) ;
#349 = AXIS2_PLACEMENT_3D ( 'NONE', #110, #166, #268 ) ;
#350 = EDGE_LOOP ( 'NONE', ( #181, #266, #240, #19 ) ) ;
#351 = CARTESIAN_POINT ( 'NONE',  ( -6.123233995736766036E-17, 2.500000000000000000, 0.000000000000000000 ) ) ;
ENDSEC;
END-ISO-10303-21;
