ISO-10303-21;
HEADER;
FILE_DESCRIPTION (( 'STEP AP214' ),
    '1' );
FILE_NAME ('86038.STEP',
    '2023-06-23T15:58:22',
    ( '' ),
    ( '' ),
    'SwSTEP 2.0',
    'SolidWorks 2023',
    '' );
FILE_SCHEMA (( 'AUTOMOTIVE_DESIGN' ));
ENDSEC;

DATA;
#1 = COLOUR_RGB ( '',1.000000000000000000, 0.000000000000000000, 0.000000000000000000 ) ;
#2 = APPLICATION_CONTEXT ( 'automotive_design' ) ;
#3 = APPLICATION_PROTOCOL_DEFINITION ( 'draft international standard', 'automotive_design', 1998, #2 ) ;
#4 =( NAMED_UNIT ( * ) SI_UNIT ( $, .STERADIAN. ) SOLID_ANGLE_UNIT ( ) );
#5 = EDGE_CURVE ( 'NONE', #107, #29, #49, .T. ) ;
#6 = EDGE_LOOP ( 'NONE', ( #219, #30, #129, #58 ) ) ;
#7 = UNCERTAINTY_MEASURE_WITH_UNIT (LENGTH_MEASURE( 1.000000000000000082E-05 ), #93, 'distance_accuracy_value', 'NONE');
#8 = VERTEX_POINT ( 'NONE', #159 ) ;
#9 = CARTESIAN_POINT ( 'NONE',  ( 0.000000000000000000, 0.000000000000000000, 0.000000000000000000 ) ) ;
#10 = PRESENTATION_STYLE_ASSIGNMENT (( #220 ) ) ;
#11 = EDGE_CURVE ( 'NONE', #133, #293, #34, .T. ) ;
#12 = AXIS2_PLACEMENT_3D ( 'NONE', #19, #229, #193 ) ;
#13 = CIRCLE ( 'NONE', #227, 0.5000000000000000000 ) ;
#14 = FACE_OUTER_BOUND ( 'NONE', #134, .T. ) ;
#15 = CYLINDRICAL_SURFACE ( 'NONE', #102, 0.4999999999999999445 ) ;
#16 = PLANE ( 'NONE',  #74 ) ;
#17 =( LENGTH_UNIT ( ) NAMED_UNIT ( * ) SI_UNIT ( $, .METRE. ) );
#18 = EDGE_CURVE ( 'NONE', #29, #107, #207, .T. ) ;
#19 = CARTESIAN_POINT ( 'NONE',  ( 0.000000000000000000, 1.250000000000000000, 0.000000000000000000 ) ) ;
#20 = LENGTH_MEASURE_WITH_UNIT ( LENGTH_MEASURE( 0.02539999999999999897 ), #148 );
#21 = VECTOR ( 'NONE', #154, 39.37007874015748143 ) ;
#22 = ORIENTED_EDGE ( 'NONE', *, *, #126, .F. ) ;
#23 = APPLICATION_CONTEXT ( 'automotive_design' ) ;
#24 = ORIENTED_EDGE ( 'NONE', *, *, #83, .T. ) ;
#25 = DIMENSIONAL_EXPONENTS ( 1.000000000000000000, 0.000000000000000000, 0.000000000000000000, 0.000000000000000000, 0.000000000000000000, 0.000000000000000000, 0.000000000000000000 ) ;
#26 = SURFACE_STYLE_USAGE ( .BOTH. , #235 ) ;
#27 =( GEOMETRIC_REPRESENTATION_CONTEXT ( 3 ) GLOBAL_UNCERTAINTY_ASSIGNED_CONTEXT ( ( #62 ) ) GLOBAL_UNIT_ASSIGNED_CONTEXT ( ( #236, #187, #143 ) ) REPRESENTATION_CONTEXT ( 'NONE', 'WORKASPACE' ) );
#28 = PRESENTATION_LAYER_ASSIGNMENT (  '', '', ( #46 ) ) ;
#29 = VERTEX_POINT ( 'NONE', #199 ) ;
#30 = ORIENTED_EDGE ( 'NONE', *, *, #244, .T. ) ;
#31 = FILL_AREA_STYLE ('',( #36 ) ) ;
#32 = ORIENTED_EDGE ( 'NONE', *, *, #115, .T. ) ;
#33 = FILL_AREA_STYLE_COLOUR ( '', #125 ) ;
#34 = CIRCLE ( 'NONE', #12, 0.5000000000000000000 ) ;
#35 = CARTESIAN_POINT ( 'NONE',  ( -0.4999999999999997780, 4.000000000000000000, 0.000000000000000000 ) ) ;
#36 = FILL_AREA_STYLE_COLOUR ( '', #302 ) ;
#37 = DIRECTION ( 'NONE',  ( -1.000000000000000000, 0.000000000000000000, 0.000000000000000000 ) ) ;
#38 = CARTESIAN_POINT ( 'NONE',  ( 0.5000000000000000000, 4.000000000000000000, 0.000000000000000000 ) ) ;
#39 = SURFACE_STYLE_USAGE ( .BOTH. , #153 ) ;
#40 = PRESENTATION_STYLE_ASSIGNMENT (( #91 ) ) ;
#41 = MECHANICAL_DESIGN_GEOMETRIC_PRESENTATION_REPRESENTATION (  '', ( #225 ), #75 ) ;
#42 = DIRECTION ( 'NONE',  ( -0.000000000000000000, -1.000000000000000000, -0.000000000000000000 ) ) ;
#43 = DIRECTION ( 'NONE',  ( -4.453261087808557677E-17, -1.000000000000000000, 0.000000000000000000 ) ) ;
#44 = ADVANCED_FACE ( 'NONE', ( #14 ), #179, .F. ) ;
#45 = PLANE ( 'NONE',  #248 ) ;
#46 = STYLED_ITEM ( 'NONE', ( #163 ), #263 ) ;
#47 =( NAMED_UNIT ( * ) PLANE_ANGLE_UNIT ( ) SI_UNIT ( $, .RADIAN. ) );
#48 = LENGTH_MEASURE_WITH_UNIT ( LENGTH_MEASURE( 0.02539999999999999897 ), #231 );
#49 = CIRCLE ( 'NONE', #164, 0.5000000000000000000 ) ;
#50 = EDGE_LOOP ( 'NONE', ( #55, #32 ) ) ;
#51 =( NAMED_UNIT ( * ) PLANE_ANGLE_UNIT ( ) SI_UNIT ( $, .RADIAN. ) );
#52 = DIMENSIONAL_EXPONENTS ( 1.000000000000000000, 0.000000000000000000, 0.000000000000000000, 0.000000000000000000, 0.000000000000000000, 0.000000000000000000, 0.000000000000000000 ) ;
#53 =( LENGTH_UNIT ( ) NAMED_UNIT ( * ) SI_UNIT ( $, .METRE. ) );
#54 =( CONVERSION_BASED_UNIT ( 'INCH', #20 ) LENGTH_UNIT ( ) NAMED_UNIT ( #81 ) );
#55 = ORIENTED_EDGE ( 'NONE', *, *, #173, .T. ) ;
#56 = FACE_OUTER_BOUND ( 'NONE', #80, .T. ) ;
#57 = DIMENSIONAL_EXPONENTS ( 1.000000000000000000, 0.000000000000000000, 0.000000000000000000, 0.000000000000000000, 0.000000000000000000, 0.000000000000000000, 0.000000000000000000 ) ;
#58 = ORIENTED_EDGE ( 'NONE', *, *, #115, .F. ) ;
#59 = FILL_AREA_STYLE ('',( #147 ) ) ;
#60 = ADVANCED_FACE ( 'NONE', ( #223 ), #16, .F. ) ;
#61 = CIRCLE ( 'NONE', #245, 0.5000000000000000000 ) ;
#62 = UNCERTAINTY_MEASURE_WITH_UNIT (LENGTH_MEASURE( 1.000000000000000082E-05 ), #236, 'distance_accuracy_value', 'NONE');
#63 = PRODUCT ( '86038', '86038', '', ( #309 ) ) ;
#64 = SURFACE_STYLE_FILL_AREA ( #261 ) ;
#65 = COLOUR_RGB ( '',1.000000000000000000, 0.000000000000000000, 0.000000000000000000 ) ;
#66 = CARTESIAN_POINT ( 'NONE',  ( 6.123233995736766036E-17, 0.000000000000000000, 0.5000000000000000000 ) ) ;
#67 = LINE ( 'NONE', #35, #87 ) ;
#68 = FILL_AREA_STYLE ('',( #33 ) ) ;
#69 = CYLINDRICAL_SURFACE ( 'NONE', #121, 0.5000000000000000000 ) ;
#70 = DIRECTION ( 'NONE',  ( 4.453261087808557677E-17, 1.000000000000000000, -0.000000000000000000 ) ) ;
#71 = STYLED_ITEM ( 'NONE', ( #213 ), #99 ) ;
#72 = PRESENTATION_LAYER_ASSIGNMENT (  '', '', ( #113 ) ) ;
#73 = DIRECTION ( 'NONE',  ( -1.000000000000000000, 0.000000000000000000, 0.000000000000000000 ) ) ;
#74 = AXIS2_PLACEMENT_3D ( 'NONE', #38, #43, #206 ) ;
#75 =( GEOMETRIC_REPRESENTATION_CONTEXT ( 3 ) GLOBAL_UNCERTAINTY_ASSIGNED_CONTEXT ( ( #171 ) ) GLOBAL_UNIT_ASSIGNED_CONTEXT ( ( #295, #51, #4 ) ) REPRESENTATION_CONTEXT ( 'NONE', 'WORKASPACE' ) );
#76 = DIRECTION ( 'NONE',  ( -0.000000000000000000, -1.000000000000000000, -0.000000000000000000 ) ) ;
#77 = UNCERTAINTY_MEASURE_WITH_UNIT (LENGTH_MEASURE( 1.000000000000000082E-05 ), #228, 'distance_accuracy_value', 'NONE');
#78 = CIRCLE ( 'NONE', #298, 0.4999999999999998335 ) ;
#79 = DIRECTION ( 'NONE',  ( 1.000000000000000000, 0.000000000000000000, 0.000000000000000000 ) ) ;
#80 = EDGE_LOOP ( 'NONE', ( #109, #250, #88, #86 ) ) ;
#81 = DIMENSIONAL_EXPONENTS ( 1.000000000000000000, 0.000000000000000000, 0.000000000000000000, 0.000000000000000000, 0.000000000000000000, 0.000000000000000000, 0.000000000000000000 ) ;
#82 = ORIENTED_EDGE ( 'NONE', *, *, #244, .F. ) ;
#83 = EDGE_CURVE ( 'NONE', #145, #215, #78, .T. ) ;
#84 = LENGTH_MEASURE_WITH_UNIT ( LENGTH_MEASURE( 0.02539999999999999897 ), #216 );
#85 = SURFACE_STYLE_FILL_AREA ( #135 ) ;
#86 = ORIENTED_EDGE ( 'NONE', *, *, #264, .F. ) ;
#87 = VECTOR ( 'NONE', #158, 39.37007874015748143 ) ;
#88 = ORIENTED_EDGE ( 'NONE', *, *, #173, .F. ) ;
#89 = CARTESIAN_POINT ( 'NONE',  ( -1.516480271171051896E-32, 1.250000000000000000, 0.000000000000000000 ) ) ;
#90 = LENGTH_MEASURE_WITH_UNIT ( LENGTH_MEASURE( 0.02539999999999999897 ), #17 );
#91 = SURFACE_STYLE_USAGE ( .BOTH. , #243 ) ;
#92 = EDGE_CURVE ( 'NONE', #107, #145, #97, .T. ) ;
#93 =( CONVERSION_BASED_UNIT ( 'INCH', #118 ) LENGTH_UNIT ( ) NAMED_UNIT ( #285 ) );
#94 = PRESENTATION_LAYER_ASSIGNMENT (  '', '', ( #71 ) ) ;
#95 = MECHANICAL_DESIGN_GEOMETRIC_PRESENTATION_REPRESENTATION (  '', ( #141 ), #131 ) ;
#96 = FILL_AREA_STYLE ('',( #242 ) ) ;
#97 = LINE ( 'NONE', #275, #152 ) ;
#98 = CARTESIAN_POINT ( 'NONE',  ( 1.224646799147353207E-16, 4.000000000000000000, 0.000000000000000000 ) ) ;
#99 = ADVANCED_FACE ( 'NONE', ( #101 ), #69, .T. ) ;
#100 = CARTESIAN_POINT ( 'NONE',  ( 1.224646799147353207E-16, 4.000000000000000000, 0.000000000000000000 ) ) ;
#101 = FACE_OUTER_BOUND ( 'NONE', #6, .T. ) ;
#102 = AXIS2_PLACEMENT_3D ( 'NONE', #202, #183, #300 ) ;
#103 = MECHANICAL_DESIGN_GEOMETRIC_PRESENTATION_REPRESENTATION (  '', ( #46 ), #27 ) ;
#104 = ADVANCED_FACE ( 'NONE', ( #277 ), #268, .T. ) ;
#105 = SURFACE_STYLE_USAGE ( .BOTH. , #237 ) ;
#106 = LENGTH_MEASURE_WITH_UNIT ( LENGTH_MEASURE( 0.02539999999999999897 ), #53 );
#107 = VERTEX_POINT ( 'NONE', #182 ) ;
#108 = ORIENTED_EDGE ( 'NONE', *, *, #149, .T. ) ;
#109 = ORIENTED_EDGE ( 'NONE', *, *, #11, .T. ) ;
#110 = CARTESIAN_POINT ( 'NONE',  ( -0.4999999999999997224, 4.000000000000000000, 0.000000000000000000 ) ) ;
#111 = DIRECTION ( 'NONE',  ( -0.000000000000000000, -1.000000000000000000, -0.000000000000000000 ) ) ;
#112 = ORIENTED_EDGE ( 'NONE', *, *, #18, .T. ) ;
#113 = STYLED_ITEM ( 'NONE', ( #40 ), #290 ) ;
#114 = SURFACE_SIDE_STYLE ('',( #155 ) ) ;
#115 = EDGE_CURVE ( 'NONE', #174, #8, #259, .T. ) ;
#116 =( NAMED_UNIT ( * ) SI_UNIT ( $, .STERADIAN. ) SOLID_ANGLE_UNIT ( ) );
#117 = CARTESIAN_POINT ( 'NONE',  ( 6.123233995736766036E-17, 0.000000000000000000, 0.5000000000000000000 ) ) ;
#118 = LENGTH_MEASURE_WITH_UNIT ( LENGTH_MEASURE( 0.02539999999999999897 ), #151 );
#119 = DIRECTION ( 'NONE',  ( -0.000000000000000000, -1.000000000000000000, -0.000000000000000000 ) ) ;
#120 =( NAMED_UNIT ( * ) PLANE_ANGLE_UNIT ( ) SI_UNIT ( $, .RADIAN. ) );
#121 = AXIS2_PLACEMENT_3D ( 'NONE', #204, #42, #176 ) ;
#122 = CARTESIAN_POINT ( 'NONE',  ( 0.5000000000000000000, 4.000000000000000000, 6.123233995736764803E-17 ) ) ;
#123 = FACE_OUTER_BOUND ( 'NONE', #50, .T. ) ;
#124 = DIRECTION ( 'NONE',  ( -1.000000000000000000, 0.000000000000000000, 0.000000000000000000 ) ) ;
#125 = COLOUR_RGB ( '',1.000000000000000000, 0.000000000000000000, 0.000000000000000000 ) ;
#126 = EDGE_CURVE ( 'NONE', #215, #145, #281, .T. ) ;
#127 = PRODUCT_RELATED_PRODUCT_CATEGORY ( 'part', '', ( #63 ) ) ;
#128 = PRESENTATION_STYLE_ASSIGNMENT (( #105 ) ) ;
#129 = ORIENTED_EDGE ( 'NONE', *, *, #264, .T. ) ;
#130 = AXIS2_PLACEMENT_3D ( 'NONE', #98, #138, #73 ) ;
#131 =( GEOMETRIC_REPRESENTATION_CONTEXT ( 3 ) GLOBAL_UNCERTAINTY_ASSIGNED_CONTEXT ( ( #212 ) ) GLOBAL_UNIT_ASSIGNED_CONTEXT ( ( #189, #289, #142 ) ) REPRESENTATION_CONTEXT ( 'NONE', 'WORKASPACE' ) );
#132 = UNCERTAINTY_MEASURE_WITH_UNIT (LENGTH_MEASURE( 1.000000000000000082E-05 ), #201, 'distance_accuracy_value', 'NONE');
#133 = VERTEX_POINT ( 'NONE', #150 ) ;
#134 = EDGE_LOOP ( 'NONE', ( #144, #190 ) ) ;
#135 = FILL_AREA_STYLE ('',( #262 ) ) ;
#136 = VECTOR ( 'NONE', #139, 39.37007874015748143 ) ;
#137 =( NAMED_UNIT ( * ) SI_UNIT ( $, .STERADIAN. ) SOLID_ANGLE_UNIT ( ) );
#138 = DIRECTION ( 'NONE',  ( 4.453261087808557677E-17, 1.000000000000000000, -0.000000000000000000 ) ) ;
#139 = DIRECTION ( 'NONE',  ( -0.000000000000000000, -1.000000000000000000, -0.000000000000000000 ) ) ;
#140 = PRESENTATION_STYLE_ASSIGNMENT (( #39 ) ) ;
#141 = STYLED_ITEM ( 'NONE', ( #128 ), #222 ) ;
#142 =( NAMED_UNIT ( * ) SI_UNIT ( $, .STERADIAN. ) SOLID_ANGLE_UNIT ( ) );
#143 =( NAMED_UNIT ( * ) SI_UNIT ( $, .STERADIAN. ) SOLID_ANGLE_UNIT ( ) );
#144 = ORIENTED_EDGE ( 'NONE', *, *, #18, .F. ) ;
#145 = VERTEX_POINT ( 'NONE', #122 ) ;
#146 = PRODUCT_DEFINITION ( 'UNKNOWN', '', #279, #240 ) ;
#147 = FILL_AREA_STYLE_COLOUR ( '', #161 ) ;
#148 =( LENGTH_UNIT ( ) NAMED_UNIT ( * ) SI_UNIT ( $, .METRE. ) );
#149 = EDGE_CURVE ( 'NONE', #29, #215, #67, .T. ) ;
#150 = CARTESIAN_POINT ( 'NONE',  ( 0.000000000000000000, 1.250000000000000000, -0.5000000000000000000 ) ) ;
#151 =( LENGTH_UNIT ( ) NAMED_UNIT ( * ) SI_UNIT ( $, .METRE. ) );
#152 = VECTOR ( 'NONE', #70, 39.37007874015748143 ) ;
#153 = SURFACE_SIDE_STYLE ('',( #205 ) ) ;
#154 = DIRECTION ( 'NONE',  ( -0.000000000000000000, -1.000000000000000000, -0.000000000000000000 ) ) ;
#155 = SURFACE_STYLE_FILL_AREA ( #68 ) ;
#156 = DIRECTION ( 'NONE',  ( 0.000000000000000000, 0.000000000000000000, -1.000000000000000000 ) ) ;
#157 =( GEOMETRIC_REPRESENTATION_CONTEXT ( 3 ) GLOBAL_UNCERTAINTY_ASSIGNED_CONTEXT ( ( #132 ) ) GLOBAL_UNIT_ASSIGNED_CONTEXT ( ( #201, #198, #137 ) ) REPRESENTATION_CONTEXT ( 'NONE', 'WORKASPACE' ) );
#158 = DIRECTION ( 'NONE',  ( 4.453261087808557677E-17, 1.000000000000000000, -0.000000000000000000 ) ) ;
#159 = CARTESIAN_POINT ( 'NONE',  ( 0.000000000000000000, 0.000000000000000000, -0.5000000000000000000 ) ) ;
#160 = AXIS2_PLACEMENT_3D ( 'NONE', #304, #221, #273 ) ;
#161 = COLOUR_RGB ( '',0.7921568627450980005, 0.8196078431372548767, 0.9333333333333333481 ) ;
#162 = MECHANICAL_DESIGN_GEOMETRIC_PRESENTATION_REPRESENTATION (  '', ( #226 ), #157 ) ;
#163 = PRESENTATION_STYLE_ASSIGNMENT (( #26 ) ) ;
#164 = AXIS2_PLACEMENT_3D ( 'NONE', #89, #253, #124 ) ;
#165 = DIRECTION ( 'NONE',  ( 0.000000000000000000, -0.000000000000000000, 1.000000000000000000 ) ) ;
#166 = ORIENTED_EDGE ( 'NONE', *, *, #126, .T. ) ;
#167 = CARTESIAN_POINT ( 'NONE',  ( 0.000000000000000000, 0.000000000000000000, 0.000000000000000000 ) ) ;
#168 = CARTESIAN_POINT ( 'NONE',  ( 0.000000000000000000, 1.250000000000000000, 0.000000000000000000 ) ) ;
#169 = ORIENTED_EDGE ( 'NONE', *, *, #92, .F. ) ;
#170 = DIRECTION ( 'NONE',  ( 0.000000000000000000, -1.000000000000000000, -0.000000000000000000 ) ) ;
#171 = UNCERTAINTY_MEASURE_WITH_UNIT (LENGTH_MEASURE( 1.000000000000000082E-05 ), #295, 'distance_accuracy_value', 'NONE');
#172 = ORIENTED_EDGE ( 'NONE', *, *, #92, .T. ) ;
#173 = EDGE_CURVE ( 'NONE', #8, #174, #61, .T. ) ;
#174 = VERTEX_POINT ( 'NONE', #117 ) ;
#175 = FILL_AREA_STYLE_COLOUR ( '', #184 ) ;
#176 = DIRECTION ( 'NONE',  ( 0.000000000000000000, 0.000000000000000000, -1.000000000000000000 ) ) ;
#177 = CYLINDRICAL_SURFACE ( 'NONE', #186, 0.5000000000000000000 ) ;
#178 = CARTESIAN_POINT ( 'NONE',  ( 4.957883579047464389E-34, 1.250000000000000000, 0.000000000000000000 ) ) ;
#179 = PLANE ( 'NONE',  #191 ) ;
#180 = AXIS2_PLACEMENT_3D ( 'NONE', #168, #255, #165 ) ;
#181 = ADVANCED_FACE ( 'NONE', ( #200 ), #15, .T. ) ;
#182 = CARTESIAN_POINT ( 'NONE',  ( 0.5000000000000000000, 1.250000000000000000, 6.123233995736764803E-17 ) ) ;
#183 = DIRECTION ( 'NONE',  ( 4.453261087808557677E-17, 1.000000000000000000, -0.000000000000000000 ) ) ;
#184 = COLOUR_RGB ( '',1.000000000000000000, 0.000000000000000000, 0.000000000000000000 ) ;
#185 = DIRECTION ( 'NONE',  ( -1.000000000000000000, 0.000000000000000000, 0.000000000000000000 ) ) ;
#186 = AXIS2_PLACEMENT_3D ( 'NONE', #224, #111, #196 ) ;
#187 =( NAMED_UNIT ( * ) PLANE_ANGLE_UNIT ( ) SI_UNIT ( $, .RADIAN. ) );
#188 = DIMENSIONAL_EXPONENTS ( 1.000000000000000000, 0.000000000000000000, 0.000000000000000000, 0.000000000000000000, 0.000000000000000000, 0.000000000000000000, 0.000000000000000000 ) ;
#189 =( CONVERSION_BASED_UNIT ( 'INCH', #106 ) LENGTH_UNIT ( ) NAMED_UNIT ( #188 ) );
#190 = ORIENTED_EDGE ( 'NONE', *, *, #5, .F. ) ;
#191 = AXIS2_PLACEMENT_3D ( 'NONE', #178, #271, #305 ) ;
#192 = PRESENTATION_LAYER_ASSIGNMENT (  '', '', ( #226 ) ) ;
#193 = DIRECTION ( 'NONE',  ( 0.000000000000000000, 0.000000000000000000, -1.000000000000000000 ) ) ;
#194 = EDGE_LOOP ( 'NONE', ( #166, #24 ) ) ;
#195 = FACE_OUTER_BOUND ( 'NONE', #260, .T. ) ;
#196 = DIRECTION ( 'NONE',  ( 0.000000000000000000, 0.000000000000000000, -1.000000000000000000 ) ) ;
#197 = UNCERTAINTY_MEASURE_WITH_UNIT (LENGTH_MEASURE( 1.000000000000000082E-05 ), #54, 'distance_accuracy_value', 'NONE');
#198 =( NAMED_UNIT ( * ) PLANE_ANGLE_UNIT ( ) SI_UNIT ( $, .RADIAN. ) );
#199 = CARTESIAN_POINT ( 'NONE',  ( -0.5000000000000000000, 1.250000000000000000, 0.000000000000000000 ) ) ;
#200 = FACE_OUTER_BOUND ( 'NONE', #234, .T. ) ;
#201 =( CONVERSION_BASED_UNIT ( 'INCH', #274 ) LENGTH_UNIT ( ) NAMED_UNIT ( #252 ) );
#202 = CARTESIAN_POINT ( 'NONE',  ( 1.224646799147353207E-16, 4.000000000000000000, 0.000000000000000000 ) ) ;
#203 = CLOSED_SHELL ( 'NONE', ( #181, #44, #104, #60 ) ) ;
#204 = CARTESIAN_POINT ( 'NONE',  ( 0.000000000000000000, 0.000000000000000000, 0.000000000000000000 ) ) ;
#205 = SURFACE_STYLE_FILL_AREA ( #96 ) ;
#206 = DIRECTION ( 'NONE',  ( 1.000000000000000000, -4.453261087808557677E-17, 0.000000000000000000 ) ) ;
#207 = CIRCLE ( 'NONE', #267, 0.5000000000000000000 ) ;
#208 = CARTESIAN_POINT ( 'NONE',  ( 6.123233995736766036E-17, 1.250000000000000000, 0.5000000000000000000 ) ) ;
#209 = AXIS2_PLACEMENT_3D ( 'NONE', #251, #211, #79 ) ;
#210 = DIRECTION ( 'NONE',  ( 0.000000000000000000, 0.000000000000000000, -1.000000000000000000 ) ) ;
#211 = DIRECTION ( 'NONE',  ( 0.000000000000000000, 0.000000000000000000, 1.000000000000000000 ) ) ;
#212 = UNCERTAINTY_MEASURE_WITH_UNIT (LENGTH_MEASURE( 1.000000000000000082E-05 ), #189, 'distance_accuracy_value', 'NONE');
#213 = PRESENTATION_STYLE_ASSIGNMENT (( #233 ) ) ;
#214 = ADVANCED_FACE ( 'NONE', ( #123 ), #45, .T. ) ;
#215 = VERTEX_POINT ( 'NONE', #110 ) ;
#216 =( LENGTH_UNIT ( ) NAMED_UNIT ( * ) SI_UNIT ( $, .METRE. ) );
#217 = EDGE_LOOP ( 'NONE', ( #169, #283, #108, #288 ) ) ;
#218 = SURFACE_SIDE_STYLE ('',( #239 ) ) ;
#219 = ORIENTED_EDGE ( 'NONE', *, *, #280, .F. ) ;
#220 = SURFACE_STYLE_USAGE ( .BOTH. , #218 ) ;
#221 = DIRECTION ( 'NONE',  ( 4.453261087808557677E-17, 1.000000000000000000, -0.000000000000000000 ) ) ;
#222 = ADVANCED_FACE ( 'NONE', ( #195 ), #276, .T. ) ;
#223 = FACE_OUTER_BOUND ( 'NONE', #194, .T. ) ;
#224 = CARTESIAN_POINT ( 'NONE',  ( 0.000000000000000000, 0.000000000000000000, 0.000000000000000000 ) ) ;
#225 = STYLED_ITEM ( 'NONE', ( #140 ), #214 ) ;
#226 = STYLED_ITEM ( 'NONE', ( #10 ), #278 ) ;
#227 = AXIS2_PLACEMENT_3D ( 'NONE', #254, #76, #210 ) ;
#228 =( CONVERSION_BASED_UNIT ( 'INCH', #48 ) LENGTH_UNIT ( ) NAMED_UNIT ( #25 ) );
#229 = DIRECTION ( 'NONE',  ( -0.000000000000000000, -1.000000000000000000, -0.000000000000000000 ) ) ;
#230 =( GEOMETRIC_REPRESENTATION_CONTEXT ( 3 ) GLOBAL_UNCERTAINTY_ASSIGNED_CONTEXT ( ( #197 ) ) GLOBAL_UNIT_ASSIGNED_CONTEXT ( ( #54, #47, #249 ) ) REPRESENTATION_CONTEXT ( 'NONE', 'WORKASPACE' ) );
#231 =( LENGTH_UNIT ( ) NAMED_UNIT ( * ) SI_UNIT ( $, .METRE. ) );
#232 = ORIENTED_EDGE ( 'NONE', *, *, #149, .F. ) ;
#233 = SURFACE_STYLE_USAGE ( .BOTH. , #114 ) ;
#234 = EDGE_LOOP ( 'NONE', ( #112, #172, #22, #232 ) ) ;
#235 = SURFACE_SIDE_STYLE ('',( #257 ) ) ;
#236 =( CONVERSION_BASED_UNIT ( 'INCH', #84 ) LENGTH_UNIT ( ) NAMED_UNIT ( #57 ) );
#237 = SURFACE_SIDE_STYLE ('',( #85 ) ) ;
#238 = ORIENTED_EDGE ( 'NONE', *, *, #11, .F. ) ;
#239 = SURFACE_STYLE_FILL_AREA ( #31 ) ;
#240 = PRODUCT_DEFINITION_CONTEXT ( 'detailed design', #2, 'design' ) ;
#241 = DIRECTION ( 'NONE',  ( 4.453261087808557677E-17, 1.000000000000000000, -0.000000000000000000 ) ) ;
#242 = FILL_AREA_STYLE_COLOUR ( '', #1 ) ;
#243 = SURFACE_SIDE_STYLE ('',( #64 ) ) ;
#244 = EDGE_CURVE ( 'NONE', #293, #133, #13, .T. ) ;
#245 = AXIS2_PLACEMENT_3D ( 'NONE', #9, #246, #156 ) ;
#246 = DIRECTION ( 'NONE',  ( -0.000000000000000000, -1.000000000000000000, -0.000000000000000000 ) ) ;
#247 =( GEOMETRIC_REPRESENTATION_CONTEXT ( 3 ) GLOBAL_UNCERTAINTY_ASSIGNED_CONTEXT ( ( #77 ) ) GLOBAL_UNIT_ASSIGNED_CONTEXT ( ( #228, #258, #116 ) ) REPRESENTATION_CONTEXT ( 'NONE', 'WORKASPACE' ) );
#248 = AXIS2_PLACEMENT_3D ( 'NONE', #167, #170, #256 ) ;
#249 =( NAMED_UNIT ( * ) SI_UNIT ( $, .STERADIAN. ) SOLID_ANGLE_UNIT ( ) );
#250 = ORIENTED_EDGE ( 'NONE', *, *, #280, .T. ) ;
#251 = CARTESIAN_POINT ( 'NONE',  ( 0.000000000000000000, 0.000000000000000000, 0.000000000000000000 ) ) ;
#252 = DIMENSIONAL_EXPONENTS ( 1.000000000000000000, 0.000000000000000000, 0.000000000000000000, 0.000000000000000000, 0.000000000000000000, 0.000000000000000000, 0.000000000000000000 ) ;
#253 = DIRECTION ( 'NONE',  ( 4.453261087808557677E-17, 1.000000000000000000, -0.000000000000000000 ) ) ;
#254 = CARTESIAN_POINT ( 'NONE',  ( 0.000000000000000000, 1.250000000000000000, 0.000000000000000000 ) ) ;
#255 = DIRECTION ( 'NONE',  ( 0.000000000000000000, 1.000000000000000000, 0.000000000000000000 ) ) ;
#256 = DIRECTION ( 'NONE',  ( 0.000000000000000000, 0.000000000000000000, -1.000000000000000000 ) ) ;
#257 = SURFACE_STYLE_FILL_AREA ( #59 ) ;
#258 =( NAMED_UNIT ( * ) PLANE_ANGLE_UNIT ( ) SI_UNIT ( $, .RADIAN. ) );
#259 = CIRCLE ( 'NONE', #299, 0.5000000000000000000 ) ;
#260 = EDGE_LOOP ( 'NONE', ( #238, #82 ) ) ;
#261 = FILL_AREA_STYLE ('',( #175 ) ) ;
#262 = FILL_AREA_STYLE_COLOUR ( '', #65 ) ;
#263 = MANIFOLD_SOLID_BREP ( 'Revolve - Tool Body (Straight Shanked)', #203 ) ;
#264 = EDGE_CURVE ( 'NONE', #133, #8, #291, .T. ) ;
#265 = CARTESIAN_POINT ( 'NONE',  ( 0.000000000000000000, 0.000000000000000000, 0.000000000000000000 ) ) ;
#266 = LINE ( 'NONE', #66, #21 ) ;
#267 = AXIS2_PLACEMENT_3D ( 'NONE', #292, #241, #185 ) ;
#268 = CYLINDRICAL_SURFACE ( 'NONE', #130, 0.4999999999999999445 ) ;
#269 =( LENGTH_UNIT ( ) NAMED_UNIT ( * ) SI_UNIT ( $, .METRE. ) );
#270 =( GEOMETRIC_REPRESENTATION_CONTEXT ( 3 ) GLOBAL_UNCERTAINTY_ASSIGNED_CONTEXT ( ( #7 ) ) GLOBAL_UNIT_ASSIGNED_CONTEXT ( ( #93, #120, #301 ) ) REPRESENTATION_CONTEXT ( 'NONE', 'WORKASPACE' ) );
#271 = DIRECTION ( 'NONE',  ( 4.453261087808557677E-17, 1.000000000000000000, -0.000000000000000000 ) ) ;
#272 = ADVANCED_BREP_SHAPE_REPRESENTATION ( '86038', ( #278, #263, #209 ), #230 ) ;
#273 = DIRECTION ( 'NONE',  ( -1.000000000000000000, 0.000000000000000000, 0.000000000000000000 ) ) ;
#274 = LENGTH_MEASURE_WITH_UNIT ( LENGTH_MEASURE( 0.02539999999999999897 ), #269 );
#275 = CARTESIAN_POINT ( 'NONE',  ( 0.5000000000000001110, 4.000000000000000000, 6.123233995736764803E-17 ) ) ;
#276 = PLANE ( 'NONE',  #180 ) ;
#277 = FACE_OUTER_BOUND ( 'NONE', #217, .T. ) ;
#278 = MANIFOLD_SOLID_BREP ( 'Revolve - Cutting Edge', #307 ) ;
#279 = PRODUCT_DEFINITION_FORMATION_WITH_SPECIFIED_SOURCE ( 'ANY', '', #63, .NOT_KNOWN. ) ;
#280 = EDGE_CURVE ( 'NONE', #293, #174, #266, .T. ) ;
#281 = CIRCLE ( 'NONE', #160, 0.4999999999999998335 ) ;
#282 = APPLICATION_PROTOCOL_DEFINITION ( 'draft international standard', 'automotive_design', 1998, #23 ) ;
#283 = ORIENTED_EDGE ( 'NONE', *, *, #5, .T. ) ;
#284 = SHAPE_DEFINITION_REPRESENTATION ( #296, #272 ) ;
#285 = DIMENSIONAL_EXPONENTS ( 1.000000000000000000, 0.000000000000000000, 0.000000000000000000, 0.000000000000000000, 0.000000000000000000, 0.000000000000000000, 0.000000000000000000 ) ;
#286 = MECHANICAL_DESIGN_GEOMETRIC_PRESENTATION_REPRESENTATION (  '', ( #71 ), #247 ) ;
#287 = MECHANICAL_DESIGN_GEOMETRIC_PRESENTATION_REPRESENTATION (  '', ( #113 ), #270 ) ;
#288 = ORIENTED_EDGE ( 'NONE', *, *, #83, .F. ) ;
#289 =( NAMED_UNIT ( * ) PLANE_ANGLE_UNIT ( ) SI_UNIT ( $, .RADIAN. ) );
#290 = ADVANCED_FACE ( 'NONE', ( #56 ), #177, .T. ) ;
#291 = LINE ( 'NONE', #297, #136 ) ;
#292 = CARTESIAN_POINT ( 'NONE',  ( -1.516480271171051896E-32, 1.250000000000000000, 0.000000000000000000 ) ) ;
#293 = VERTEX_POINT ( 'NONE', #208 ) ;
#294 = PRESENTATION_LAYER_ASSIGNMENT (  '', '', ( #225 ) ) ;
#295 =( CONVERSION_BASED_UNIT ( 'INCH', #90 ) LENGTH_UNIT ( ) NAMED_UNIT ( #52 ) );
#296 = PRODUCT_DEFINITION_SHAPE ( 'NONE', 'NONE',  #146 ) ;
#297 = CARTESIAN_POINT ( 'NONE',  ( 0.000000000000000000, 0.000000000000000000, -0.5000000000000000000 ) ) ;
#298 = AXIS2_PLACEMENT_3D ( 'NONE', #100, #303, #37 ) ;
#299 = AXIS2_PLACEMENT_3D ( 'NONE', #265, #119, #306 ) ;
#300 = DIRECTION ( 'NONE',  ( -1.000000000000000000, 0.000000000000000000, 0.000000000000000000 ) ) ;
#301 =( NAMED_UNIT ( * ) SI_UNIT ( $, .STERADIAN. ) SOLID_ANGLE_UNIT ( ) );
#302 = COLOUR_RGB ( '',0.7921568627450980005, 0.8196078431372548767, 0.9333333333333333481 ) ;
#303 = DIRECTION ( 'NONE',  ( 4.453261087808557677E-17, 1.000000000000000000, -0.000000000000000000 ) ) ;
#304 = CARTESIAN_POINT ( 'NONE',  ( 1.224646799147353207E-16, 4.000000000000000000, 0.000000000000000000 ) ) ;
#305 = DIRECTION ( 'NONE',  ( -1.000000000000000000, 4.453261087808557677E-17, 0.000000000000000000 ) ) ;
#306 = DIRECTION ( 'NONE',  ( 0.000000000000000000, 0.000000000000000000, -1.000000000000000000 ) ) ;
#307 = CLOSED_SHELL ( 'NONE', ( #290, #222, #99, #214 ) ) ;
#308 = PRESENTATION_LAYER_ASSIGNMENT (  '', '', ( #141 ) ) ;
#309 = PRODUCT_CONTEXT ( 'NONE', #23, 'mechanical' ) ;
ENDSEC;
END-ISO-10303-21;
