ISO-10303-21;
HEADER;
FILE_DESCRIPTION (( 'STEP AP214' ),
    '1' );
FILE_NAME ('05667.STEP',
    '2023-06-22T16:17:59',
    ( '' ),
    ( '' ),
    'SwSTEP 2.0',
    'SolidWorks 2023',
    '' );
FILE_SCHEMA (( 'AUTOMOTIVE_DESIGN' ));
ENDSEC;

DATA;
#1 = CLOSED_SHELL ( 'NONE', ( #132, #174, #51, #254 ) ) ;
#2 = CARTESIAN_POINT ( 'NONE',  ( 0.000000000000000000, 4.000000000000000000, 0.000000000000000000 ) ) ;
#3 = FILL_AREA_STYLE ('',( #32 ) ) ;
#4 = EDGE_CURVE ( 'NONE', #55, #95, #237, .T. ) ;
#5 = ORIENTED_EDGE ( 'NONE', *, *, #4, .T. ) ;
#6 =( NAMED_UNIT ( * ) PLANE_ANGLE_UNIT ( ) SI_UNIT ( $, .RADIAN. ) );
#7 = ORIENTED_EDGE ( 'NONE', *, *, #120, .T. ) ;
#8 = CARTESIAN_POINT ( 'NONE',  ( 0.3125000000000000000, 6.000000000000000888, 0.000000000000000000 ) ) ;
#9 = SURFACE_SIDE_STYLE ('',( #183 ) ) ;
#10 = ORIENTED_EDGE ( 'NONE', *, *, #167, .T. ) ;
#11 = LINE ( 'NONE', #56, #206 ) ;
#12 = FILL_AREA_STYLE_COLOUR ( '', #164 ) ;
#13 = PRODUCT_RELATED_PRODUCT_CATEGORY ( 'part', '', ( #260 ) ) ;
#14 = AXIS2_PLACEMENT_3D ( 'NONE', #292, #207, #274 ) ;
#15 = SURFACE_STYLE_FILL_AREA ( #61 ) ;
#16 = APPLICATION_PROTOCOL_DEFINITION ( 'draft international standard', 'automotive_design', 1998, #151 ) ;
#17 = PRODUCT_CONTEXT ( 'NONE', #151, 'mechanical' ) ;
#18 = FACE_OUTER_BOUND ( 'NONE', #198, .T. ) ;
#19 = STYLED_ITEM ( 'NONE', ( #188 ), #51 ) ;
#20 = AXIS2_PLACEMENT_3D ( 'NONE', #250, #36, #71 ) ;
#21 = FACE_OUTER_BOUND ( 'NONE', #81, .T. ) ;
#22 = DIRECTION ( 'NONE',  ( -0.000000000000000000, -1.000000000000000000, -0.000000000000000000 ) ) ;
#23 = DIRECTION ( 'NONE',  ( -6.123233995736770966E-17, 1.000000000000000000, -0.000000000000000000 ) ) ;
#24 =( NAMED_UNIT ( * ) PLANE_ANGLE_UNIT ( ) SI_UNIT ( $, .RADIAN. ) );
#25 = DIMENSIONAL_EXPONENTS ( 1.000000000000000000, 0.000000000000000000, 0.000000000000000000, 0.000000000000000000, 0.000000000000000000, 0.000000000000000000, 0.000000000000000000 ) ;
#26 = PLANE ( 'NONE',  #47 ) ;
#27 = DIMENSIONAL_EXPONENTS ( 1.000000000000000000, 0.000000000000000000, 0.000000000000000000, 0.000000000000000000, 0.000000000000000000, 0.000000000000000000, 0.000000000000000000 ) ;
#28 = ORIENTED_EDGE ( 'NONE', *, *, #77, .T. ) ;
#29 = ORIENTED_EDGE ( 'NONE', *, *, #67, .F. ) ;
#30 = SURFACE_STYLE_USAGE ( .BOTH. , #82 ) ;
#31 = FILL_AREA_STYLE ('',( #244 ) ) ;
#32 = FILL_AREA_STYLE_COLOUR ( '', #54 ) ;
#33 = DIRECTION ( 'NONE',  ( -1.000000000000000000, 0.000000000000000000, 0.000000000000000000 ) ) ;
#34 = DIRECTION ( 'NONE',  ( -6.123233995736770966E-17, 1.000000000000000000, -0.000000000000000000 ) ) ;
#35 = DIRECTION ( 'NONE',  ( -6.123233995736770966E-17, 1.000000000000000000, 0.000000000000000000 ) ) ;
#36 = DIRECTION ( 'NONE',  ( 0.000000000000000000, 0.000000000000000000, 1.000000000000000000 ) ) ;
#37 = EDGE_CURVE ( 'NONE', #220, #281, #285, .T. ) ;
#38 = LENGTH_MEASURE_WITH_UNIT ( LENGTH_MEASURE( 0.02539999999999999897 ), #42 );
#39 = CYLINDRICAL_SURFACE ( 'NONE', #102, 0.3125000000000000000 ) ;
#40 = STYLED_ITEM ( 'NONE', ( #309 ), #174 ) ;
#41 =( CONVERSION_BASED_UNIT ( 'INCH', #118 ) LENGTH_UNIT ( ) NAMED_UNIT ( #279 ) );
#42 =( LENGTH_UNIT ( ) NAMED_UNIT ( * ) SI_UNIT ( $, .METRE. ) );
#43 = MANIFOLD_SOLID_BREP ( 'Revolve - Tool Body (Straight Shanked)', #169 ) ;
#44 = LINE ( 'NONE', #234, #141 ) ;
#45 = CARTESIAN_POINT ( 'NONE',  ( 0.000000000000000000, 0.000000000000000000, 0.000000000000000000 ) ) ;
#46 = AXIS2_PLACEMENT_3D ( 'NONE', #193, #277, #48 ) ;
#47 = AXIS2_PLACEMENT_3D ( 'NONE', #2, #155, #86 ) ;
#48 = DIRECTION ( 'NONE',  ( 0.000000000000000000, 0.000000000000000000, -1.000000000000000000 ) ) ;
#49 = PRODUCT_DEFINITION_SHAPE ( 'NONE', 'NONE',  #261 ) ;
#50 = MECHANICAL_DESIGN_GEOMETRIC_PRESENTATION_REPRESENTATION (  '', ( #40 ), #215 ) ;
#51 = ADVANCED_FACE ( 'NONE', ( #144 ), #39, .T. ) ;
#52 = CARTESIAN_POINT ( 'NONE',  ( -1.224646799147354440E-16, 6.000000000000000888, 0.000000000000000000 ) ) ;
#53 =( GEOMETRIC_REPRESENTATION_CONTEXT ( 3 ) GLOBAL_UNCERTAINTY_ASSIGNED_CONTEXT ( ( #265 ) ) GLOBAL_UNIT_ASSIGNED_CONTEXT ( ( #300, #225, #116 ) ) REPRESENTATION_CONTEXT ( 'NONE', 'WORKASPACE' ) );
#54 = COLOUR_RGB ( '',0.7921568627450980005, 0.8196078431372548767, 0.9333333333333333481 ) ;
#55 = VERTEX_POINT ( 'NONE', #304 ) ;
#56 = CARTESIAN_POINT ( 'NONE',  ( 3.827021247335478926E-17, 0.000000000000000000, 0.3125000000000000000 ) ) ;
#57 = UNCERTAINTY_MEASURE_WITH_UNIT (LENGTH_MEASURE( 1.000000000000000082E-05 ), #72, 'distance_accuracy_value', 'NONE');
#58 = DIRECTION ( 'NONE',  ( 1.000000000000000000, 6.123233995736770966E-17, 0.000000000000000000 ) ) ;
#59 = ORIENTED_EDGE ( 'NONE', *, *, #120, .F. ) ;
#60 = DIRECTION ( 'NONE',  ( -0.000000000000000000, -1.000000000000000000, -0.000000000000000000 ) ) ;
#61 = FILL_AREA_STYLE ('',( #268 ) ) ;
#62 = CARTESIAN_POINT ( 'NONE',  ( 1.516480271171051896E-32, 4.000000000000000000, 0.000000000000000000 ) ) ;
#63 = SURFACE_STYLE_USAGE ( .BOTH. , #9 ) ;
#64 = PRESENTATION_STYLE_ASSIGNMENT (( #256 ) ) ;
#65 = FILL_AREA_STYLE ('',( #112 ) ) ;
#66 = CARTESIAN_POINT ( 'NONE',  ( 3.827021247335478926E-17, 4.000000000000000000, 0.3125000000000000000 ) ) ;
#67 = EDGE_CURVE ( 'NONE', #95, #55, #232, .T. ) ;
#68 = SURFACE_SIDE_STYLE ('',( #15 ) ) ;
#69 = AXIS2_PLACEMENT_3D ( 'NONE', #301, #145, #150 ) ;
#70 = PRODUCT_DEFINITION_CONTEXT ( 'detailed design', #228, 'design' ) ;
#71 = DIRECTION ( 'NONE',  ( 1.000000000000000000, 0.000000000000000000, 0.000000000000000000 ) ) ;
#72 =( CONVERSION_BASED_UNIT ( 'INCH', #146 ) LENGTH_UNIT ( ) NAMED_UNIT ( #27 ) );
#73 = AXIS2_PLACEMENT_3D ( 'NONE', #235, #23, #214 ) ;
#74 = VECTOR ( 'NONE', #34, 39.37007874015748143 ) ;
#75 = EDGE_CURVE ( 'NONE', #245, #107, #109, .T. ) ;
#76 = DIRECTION ( 'NONE',  ( 0.000000000000000000, 0.000000000000000000, -1.000000000000000000 ) ) ;
#77 = EDGE_CURVE ( 'NONE', #281, #220, #240, .T. ) ;
#78 = STYLED_ITEM ( 'NONE', ( #161 ), #254 ) ;
#79 = ORIENTED_EDGE ( 'NONE', *, *, #37, .T. ) ;
#80 = FACE_OUTER_BOUND ( 'NONE', #83, .T. ) ;
#81 = EDGE_LOOP ( 'NONE', ( #288, #160 ) ) ;
#82 = SURFACE_SIDE_STYLE ('',( #106 ) ) ;
#83 = EDGE_LOOP ( 'NONE', ( #5, #175 ) ) ;
#84 = PRESENTATION_LAYER_ASSIGNMENT (  '', '', ( #78 ) ) ;
#85 =( CONVERSION_BASED_UNIT ( 'INCH', #287 ) LENGTH_UNIT ( ) NAMED_UNIT ( #239 ) );
#86 = DIRECTION ( 'NONE',  ( 0.000000000000000000, -0.000000000000000000, 1.000000000000000000 ) ) ;
#87 = CARTESIAN_POINT ( 'NONE',  ( -0.3125000000000002776, 6.000000000000000888, 0.000000000000000000 ) ) ;
#88 = DIRECTION ( 'NONE',  ( -0.000000000000000000, -1.000000000000000000, -0.000000000000000000 ) ) ;
#89 = ADVANCED_FACE ( 'NONE', ( #18 ), #192, .T. ) ;
#90 = DIRECTION ( 'NONE',  ( -6.123233995736770966E-17, 1.000000000000000000, -0.000000000000000000 ) ) ;
#91 = CARTESIAN_POINT ( 'NONE',  ( 5.858436651022891544E-34, 4.000000000000000000, 0.000000000000000000 ) ) ;
#92 = SURFACE_STYLE_USAGE ( .BOTH. , #296 ) ;
#93 = UNCERTAINTY_MEASURE_WITH_UNIT (LENGTH_MEASURE( 1.000000000000000082E-05 ), #113, 'distance_accuracy_value', 'NONE');
#94 = FACE_OUTER_BOUND ( 'NONE', #128, .T. ) ;
#95 = VERTEX_POINT ( 'NONE', #135 ) ;
#96 = AXIS2_PLACEMENT_3D ( 'NONE', #267, #249, #290 ) ;
#97 =( LENGTH_UNIT ( ) NAMED_UNIT ( * ) SI_UNIT ( $, .METRE. ) );
#98 = EDGE_CURVE ( 'NONE', #220, #55, #162, .T. ) ;
#99 = PRESENTATION_LAYER_ASSIGNMENT (  '', '', ( #302 ) ) ;
#100 = PRESENTATION_LAYER_ASSIGNMENT (  '', '', ( #147 ) ) ;
#101 =( NAMED_UNIT ( * ) SI_UNIT ( $, .STERADIAN. ) SOLID_ANGLE_UNIT ( ) );
#102 = AXIS2_PLACEMENT_3D ( 'NONE', #45, #22, #212 ) ;
#103 = PRODUCT_DEFINITION_FORMATION_WITH_SPECIFIED_SOURCE ( 'ANY', '', #260, .NOT_KNOWN. ) ;
#104 = ORIENTED_EDGE ( 'NONE', *, *, #291, .F. ) ;
#105 = FACE_OUTER_BOUND ( 'NONE', #264, .T. ) ;
#106 = SURFACE_STYLE_FILL_AREA ( #3 ) ;
#107 = VERTEX_POINT ( 'NONE', #289 ) ;
#108 = LENGTH_MEASURE_WITH_UNIT ( LENGTH_MEASURE( 0.02539999999999999897 ), #131 );
#109 = CIRCLE ( 'NONE', #73, 0.3125000000000000000 ) ;
#110 = COLOUR_RGB ( '',1.000000000000000000, 0.000000000000000000, 0.000000000000000000 ) ;
#111 =( LENGTH_UNIT ( ) NAMED_UNIT ( * ) SI_UNIT ( $, .METRE. ) );
#112 = FILL_AREA_STYLE_COLOUR ( '', #191 ) ;
#113 =( CONVERSION_BASED_UNIT ( 'INCH', #180 ) LENGTH_UNIT ( ) NAMED_UNIT ( #262 ) );
#114 = SURFACE_STYLE_FILL_AREA ( #184 ) ;
#115 = DIRECTION ( 'NONE',  ( -6.123233995736770966E-17, 1.000000000000000000, -0.000000000000000000 ) ) ;
#116 =( NAMED_UNIT ( * ) SI_UNIT ( $, .STERADIAN. ) SOLID_ANGLE_UNIT ( ) );
#117 = DIRECTION ( 'NONE',  ( 6.123233995736770966E-17, -1.000000000000000000, 0.000000000000000000 ) ) ;
#118 = LENGTH_MEASURE_WITH_UNIT ( LENGTH_MEASURE( 0.02539999999999999897 ), #275 );
#119 = PRESENTATION_LAYER_ASSIGNMENT (  '', '', ( #40 ) ) ;
#120 = EDGE_CURVE ( 'NONE', #107, #245, #286, .T. ) ;
#121 = FILL_AREA_STYLE_COLOUR ( '', #110 ) ;
#122 =( NAMED_UNIT ( * ) PLANE_ANGLE_UNIT ( ) SI_UNIT ( $, .RADIAN. ) );
#123 = ADVANCED_FACE ( 'NONE', ( #139 ), #157, .F. ) ;
#124 = DIRECTION ( 'NONE',  ( -6.123233995736770966E-17, 1.000000000000000000, -0.000000000000000000 ) ) ;
#125 = CIRCLE ( 'NONE', #14, 0.3125000000000001665 ) ;
#126 = DIMENSIONAL_EXPONENTS ( 1.000000000000000000, 0.000000000000000000, 0.000000000000000000, 0.000000000000000000, 0.000000000000000000, 0.000000000000000000, 0.000000000000000000 ) ;
#127 = EDGE_CURVE ( 'NONE', #152, #263, #125, .T. ) ;
#128 = EDGE_LOOP ( 'NONE', ( #59, #283 ) ) ;
#129 = DIRECTION ( 'NONE',  ( -6.123233995736770966E-17, 1.000000000000000000, -0.000000000000000000 ) ) ;
#130 = ORIENTED_EDGE ( 'NONE', *, *, #98, .T. ) ;
#131 =( LENGTH_UNIT ( ) NAMED_UNIT ( * ) SI_UNIT ( $, .METRE. ) );
#132 = ADVANCED_FACE ( 'NONE', ( #221 ), #297, .T. ) ;
#133 = AXIS2_PLACEMENT_3D ( 'NONE', #306, #195, #76 ) ;
#134 = EDGE_LOOP ( 'NONE', ( #177, #242 ) ) ;
#135 = CARTESIAN_POINT ( 'NONE',  ( 3.827021247335478926E-17, 0.000000000000000000, 0.3125000000000000000 ) ) ;
#136 = CARTESIAN_POINT ( 'NONE',  ( 0.000000000000000000, 4.000000000000000000, -0.3125000000000000000 ) ) ;
#137 = EDGE_LOOP ( 'NONE', ( #79, #154, #156, #253 ) ) ;
#138 = CARTESIAN_POINT ( 'NONE',  ( 0.000000000000000000, 0.000000000000000000, 0.000000000000000000 ) ) ;
#139 = FACE_OUTER_BOUND ( 'NONE', #134, .T. ) ;
#140 = PLANE ( 'NONE',  #307 ) ;
#141 = VECTOR ( 'NONE', #124, 39.37007874015748143 ) ;
#142 = MANIFOLD_SOLID_BREP ( 'Revolve - Cutting Edge', #1 ) ;
#143 = SHAPE_DEFINITION_REPRESENTATION ( #49, #308 ) ;
#144 = FACE_OUTER_BOUND ( 'NONE', #266, .T. ) ;
#145 = DIRECTION ( 'NONE',  ( -0.000000000000000000, -1.000000000000000000, -0.000000000000000000 ) ) ;
#146 = LENGTH_MEASURE_WITH_UNIT ( LENGTH_MEASURE( 0.02539999999999999897 ), #97 );
#147 = STYLED_ITEM ( 'NONE', ( #218 ), #142 ) ;
#148 =( LENGTH_UNIT ( ) NAMED_UNIT ( * ) SI_UNIT ( $, .METRE. ) );
#149 = SURFACE_STYLE_USAGE ( .BOTH. , #259 ) ;
#150 = DIRECTION ( 'NONE',  ( 0.000000000000000000, 0.000000000000000000, -1.000000000000000000 ) ) ;
#151 = APPLICATION_CONTEXT ( 'automotive_design' ) ;
#152 = VERTEX_POINT ( 'NONE', #257 ) ;
#153 =( NAMED_UNIT ( * ) SI_UNIT ( $, .STERADIAN. ) SOLID_ANGLE_UNIT ( ) );
#154 = ORIENTED_EDGE ( 'NONE', *, *, #187, .T. ) ;
#155 = DIRECTION ( 'NONE',  ( 0.000000000000000000, 1.000000000000000000, 0.000000000000000000 ) ) ;
#156 = ORIENTED_EDGE ( 'NONE', *, *, #4, .F. ) ;
#157 = PLANE ( 'NONE',  #258 ) ;
#158 = UNCERTAINTY_MEASURE_WITH_UNIT (LENGTH_MEASURE( 1.000000000000000082E-05 ), #85, 'distance_accuracy_value', 'NONE');
#159 = COLOUR_RGB ( '',0.7921568627450980005, 0.8196078431372548767, 0.9333333333333333481 ) ;
#160 = ORIENTED_EDGE ( 'NONE', *, *, #77, .F. ) ;
#161 = PRESENTATION_STYLE_ASSIGNMENT (( #63 ) ) ;
#162 = LINE ( 'NONE', #182, #173 ) ;
#163 = SURFACE_SIDE_STYLE ('',( #200 ) ) ;
#164 = COLOUR_RGB ( '',1.000000000000000000, 0.000000000000000000, 0.000000000000000000 ) ;
#165 = AXIS2_PLACEMENT_3D ( 'NONE', #62, #203, #185 ) ;
#166 = ORIENTED_EDGE ( 'NONE', *, *, #167, .F. ) ;
#167 = EDGE_CURVE ( 'NONE', #245, #152, #44, .T. ) ;
#168 =( NAMED_UNIT ( * ) PLANE_ANGLE_UNIT ( ) SI_UNIT ( $, .RADIAN. ) );
#169 = CLOSED_SHELL ( 'NONE', ( #223, #273, #89, #123 ) ) ;
#170 = MECHANICAL_DESIGN_GEOMETRIC_PRESENTATION_REPRESENTATION (  '', ( #147 ), #238 ) ;
#171 =( NAMED_UNIT ( * ) SI_UNIT ( $, .STERADIAN. ) SOLID_ANGLE_UNIT ( ) );
#172 = SURFACE_STYLE_FILL_AREA ( #213 ) ;
#173 = VECTOR ( 'NONE', #295, 39.37007874015748143 ) ;
#174 = ADVANCED_FACE ( 'NONE', ( #21 ), #26, .T. ) ;
#175 = ORIENTED_EDGE ( 'NONE', *, *, #67, .T. ) ;
#176 =( NAMED_UNIT ( * ) PLANE_ANGLE_UNIT ( ) SI_UNIT ( $, .RADIAN. ) );
#177 = ORIENTED_EDGE ( 'NONE', *, *, #291, .T. ) ;
#178 = AXIS2_PLACEMENT_3D ( 'NONE', #138, #88, #298 ) ;
#179 = AXIS2_PLACEMENT_3D ( 'NONE', #52, #129, #217 ) ;
#180 = LENGTH_MEASURE_WITH_UNIT ( LENGTH_MEASURE( 0.02539999999999999897 ), #252 );
#181 = ORIENTED_EDGE ( 'NONE', *, *, #75, .T. ) ;
#182 = CARTESIAN_POINT ( 'NONE',  ( 0.000000000000000000, 0.000000000000000000, -0.3125000000000000000 ) ) ;
#183 = SURFACE_STYLE_FILL_AREA ( #31 ) ;
#184 = FILL_AREA_STYLE ('',( #12 ) ) ;
#185 = DIRECTION ( 'NONE',  ( -1.000000000000000000, 0.000000000000000000, 0.000000000000000000 ) ) ;
#186 = LINE ( 'NONE', #247, #74 ) ;
#187 = EDGE_CURVE ( 'NONE', #281, #95, #11, .T. ) ;
#188 = PRESENTATION_STYLE_ASSIGNMENT (( #92 ) ) ;
#189 = DIRECTION ( 'NONE',  ( -0.000000000000000000, -1.000000000000000000, -0.000000000000000000 ) ) ;
#190 = PRESENTATION_LAYER_ASSIGNMENT (  '', '', ( #19 ) ) ;
#191 = COLOUR_RGB ( '',1.000000000000000000, 0.000000000000000000, 0.000000000000000000 ) ;
#192 = CYLINDRICAL_SURFACE ( 'NONE', #201, 0.3125000000000000555 ) ;
#193 = CARTESIAN_POINT ( 'NONE',  ( 0.000000000000000000, 0.000000000000000000, 0.000000000000000000 ) ) ;
#194 =( GEOMETRIC_REPRESENTATION_CONTEXT ( 3 ) GLOBAL_UNCERTAINTY_ASSIGNED_CONTEXT ( ( #224 ) ) GLOBAL_UNIT_ASSIGNED_CONTEXT ( ( #243, #251, #219 ) ) REPRESENTATION_CONTEXT ( 'NONE', 'WORKASPACE' ) );
#195 = DIRECTION ( 'NONE',  ( -0.000000000000000000, -1.000000000000000000, -0.000000000000000000 ) ) ;
#196 = EDGE_CURVE ( 'NONE', #107, #263, #186, .T. ) ;
#197 = ORIENTED_EDGE ( 'NONE', *, *, #196, .T. ) ;
#198 = EDGE_LOOP ( 'NONE', ( #166, #181, #197, #230 ) ) ;
#199 =( GEOMETRIC_REPRESENTATION_CONTEXT ( 3 ) GLOBAL_UNCERTAINTY_ASSIGNED_CONTEXT ( ( #57 ) ) GLOBAL_UNIT_ASSIGNED_CONTEXT ( ( #72, #168, #171 ) ) REPRESENTATION_CONTEXT ( 'NONE', 'WORKASPACE' ) );
#200 = SURFACE_STYLE_FILL_AREA ( #65 ) ;
#201 = AXIS2_PLACEMENT_3D ( 'NONE', #272, #90, #33 ) ;
#202 =( NAMED_UNIT ( * ) SI_UNIT ( $, .STERADIAN. ) SOLID_ANGLE_UNIT ( ) );
#203 = DIRECTION ( 'NONE',  ( -6.123233995736770966E-17, 1.000000000000000000, -0.000000000000000000 ) ) ;
#204 = DIRECTION ( 'NONE',  ( 0.000000000000000000, 0.000000000000000000, -1.000000000000000000 ) ) ;
#205 = MECHANICAL_DESIGN_GEOMETRIC_PRESENTATION_REPRESENTATION (  '', ( #302 ), #53 ) ;
#206 = VECTOR ( 'NONE', #60, 39.37007874015748143 ) ;
#207 = DIRECTION ( 'NONE',  ( -6.123233995736770966E-17, 1.000000000000000000, -0.000000000000000000 ) ) ;
#208 = UNCERTAINTY_MEASURE_WITH_UNIT (LENGTH_MEASURE( 1.000000000000000082E-05 ), #236, 'distance_accuracy_value', 'NONE');
#209 = ORIENTED_EDGE ( 'NONE', *, *, #187, .F. ) ;
#210 =( NAMED_UNIT ( * ) SI_UNIT ( $, .STERADIAN. ) SOLID_ANGLE_UNIT ( ) );
#211 = CARTESIAN_POINT ( 'NONE',  ( 0.000000000000000000, 4.000000000000000000, 0.000000000000000000 ) ) ;
#212 = DIRECTION ( 'NONE',  ( 0.000000000000000000, 0.000000000000000000, -1.000000000000000000 ) ) ;
#213 = FILL_AREA_STYLE ('',( #121 ) ) ;
#214 = DIRECTION ( 'NONE',  ( -1.000000000000000000, 0.000000000000000000, 0.000000000000000000 ) ) ;
#215 =( GEOMETRIC_REPRESENTATION_CONTEXT ( 3 ) GLOBAL_UNCERTAINTY_ASSIGNED_CONTEXT ( ( #208 ) ) GLOBAL_UNIT_ASSIGNED_CONTEXT ( ( #236, #122, #101 ) ) REPRESENTATION_CONTEXT ( 'NONE', 'WORKASPACE' ) );
#216 = PLANE ( 'NONE',  #96 ) ;
#217 = DIRECTION ( 'NONE',  ( -1.000000000000000000, 0.000000000000000000, 0.000000000000000000 ) ) ;
#218 = PRESENTATION_STYLE_ASSIGNMENT (( #30 ) ) ;
#219 =( NAMED_UNIT ( * ) SI_UNIT ( $, .STERADIAN. ) SOLID_ANGLE_UNIT ( ) );
#220 = VERTEX_POINT ( 'NONE', #136 ) ;
#221 = FACE_OUTER_BOUND ( 'NONE', #137, .T. ) ;
#222 = DIRECTION ( 'NONE',  ( -1.000000000000000000, -6.123233995736770966E-17, 0.000000000000000000 ) ) ;
#223 = ADVANCED_FACE ( 'NONE', ( #105 ), #271, .T. ) ;
#224 = UNCERTAINTY_MEASURE_WITH_UNIT (LENGTH_MEASURE( 1.000000000000000082E-05 ), #243, 'distance_accuracy_value', 'NONE');
#225 =( NAMED_UNIT ( * ) PLANE_ANGLE_UNIT ( ) SI_UNIT ( $, .RADIAN. ) );
#226 = PRESENTATION_LAYER_ASSIGNMENT (  '', '', ( #303 ) ) ;
#227 = DIRECTION ( 'NONE',  ( -1.000000000000000000, 0.000000000000000000, 0.000000000000000000 ) ) ;
#228 = APPLICATION_CONTEXT ( 'automotive_design' ) ;
#229 = APPLICATION_PROTOCOL_DEFINITION ( 'draft international standard', 'automotive_design', 1998, #228 ) ;
#230 = ORIENTED_EDGE ( 'NONE', *, *, #127, .F. ) ;
#231 = AXIS2_PLACEMENT_3D ( 'NONE', #211, #189, #204 ) ;
#232 = CIRCLE ( 'NONE', #46, 0.3125000000000000000 ) ;
#233 = CIRCLE ( 'NONE', #255, 0.3125000000000001665 ) ;
#234 = CARTESIAN_POINT ( 'NONE',  ( 0.3124999999999999445, 6.000000000000000888, 3.827021247335479543E-17 ) ) ;
#235 = CARTESIAN_POINT ( 'NONE',  ( 1.516480271171051896E-32, 4.000000000000000000, 0.000000000000000000 ) ) ;
#236 =( CONVERSION_BASED_UNIT ( 'INCH', #305 ) LENGTH_UNIT ( ) NAMED_UNIT ( #25 ) );
#237 = CIRCLE ( 'NONE', #178, 0.3125000000000000000 ) ;
#238 =( GEOMETRIC_REPRESENTATION_CONTEXT ( 3 ) GLOBAL_UNCERTAINTY_ASSIGNED_CONTEXT ( ( #158 ) ) GLOBAL_UNIT_ASSIGNED_CONTEXT ( ( #85, #176, #153 ) ) REPRESENTATION_CONTEXT ( 'NONE', 'WORKASPACE' ) );
#239 = DIMENSIONAL_EXPONENTS ( 1.000000000000000000, 0.000000000000000000, 0.000000000000000000, 0.000000000000000000, 0.000000000000000000, 0.000000000000000000, 0.000000000000000000 ) ;
#240 = CIRCLE ( 'NONE', #133, 0.3125000000000000000 ) ;
#241 = DIMENSIONAL_EXPONENTS ( 1.000000000000000000, 0.000000000000000000, 0.000000000000000000, 0.000000000000000000, 0.000000000000000000, 0.000000000000000000, 0.000000000000000000 ) ;
#242 = ORIENTED_EDGE ( 'NONE', *, *, #127, .T. ) ;
#243 =( CONVERSION_BASED_UNIT ( 'INCH', #108 ) LENGTH_UNIT ( ) NAMED_UNIT ( #241 ) );
#244 = FILL_AREA_STYLE_COLOUR ( '', #248 ) ;
#245 = VERTEX_POINT ( 'NONE', #284 ) ;
#246 = PRESENTATION_STYLE_ASSIGNMENT (( #270 ) ) ;
#247 = CARTESIAN_POINT ( 'NONE',  ( -0.3125000000000002220, 6.000000000000000888, 0.000000000000000000 ) ) ;
#248 = COLOUR_RGB ( '',1.000000000000000000, 0.000000000000000000, 0.000000000000000000 ) ;
#249 = DIRECTION ( 'NONE',  ( 0.000000000000000000, -1.000000000000000000, -0.000000000000000000 ) ) ;
#250 = CARTESIAN_POINT ( 'NONE',  ( 0.000000000000000000, 0.000000000000000000, 0.000000000000000000 ) ) ;
#251 =( NAMED_UNIT ( * ) PLANE_ANGLE_UNIT ( ) SI_UNIT ( $, .RADIAN. ) );
#252 =( LENGTH_UNIT ( ) NAMED_UNIT ( * ) SI_UNIT ( $, .METRE. ) );
#253 = ORIENTED_EDGE ( 'NONE', *, *, #98, .F. ) ;
#254 = ADVANCED_FACE ( 'NONE', ( #80 ), #216, .T. ) ;
#255 = AXIS2_PLACEMENT_3D ( 'NONE', #293, #115, #227 ) ;
#256 = SURFACE_STYLE_USAGE ( .BOTH. , #68 ) ;
#257 = CARTESIAN_POINT ( 'NONE',  ( 0.3125000000000000000, 6.000000000000000888, 3.827021247335479543E-17 ) ) ;
#258 = AXIS2_PLACEMENT_3D ( 'NONE', #8, #117, #58 ) ;
#259 = SURFACE_SIDE_STYLE ('',( #172 ) ) ;
#260 = PRODUCT ( '05667', '05667', '', ( #17 ) ) ;
#261 = PRODUCT_DEFINITION ( 'UNKNOWN', '', #103, #70 ) ;
#262 = DIMENSIONAL_EXPONENTS ( 1.000000000000000000, 0.000000000000000000, 0.000000000000000000, 0.000000000000000000, 0.000000000000000000, 0.000000000000000000, 0.000000000000000000 ) ;
#263 = VERTEX_POINT ( 'NONE', #87 ) ;
#264 = EDGE_LOOP ( 'NONE', ( #7, #10, #104, #282 ) ) ;
#265 = UNCERTAINTY_MEASURE_WITH_UNIT (LENGTH_MEASURE( 1.000000000000000082E-05 ), #300, 'distance_accuracy_value', 'NONE');
#266 = EDGE_LOOP ( 'NONE', ( #209, #28, #130, #29 ) ) ;
#267 = CARTESIAN_POINT ( 'NONE',  ( 0.000000000000000000, 0.000000000000000000, 0.000000000000000000 ) ) ;
#268 = FILL_AREA_STYLE_COLOUR ( '', #159 ) ;
#269 = MECHANICAL_DESIGN_GEOMETRIC_PRESENTATION_REPRESENTATION (  '', ( #78 ), #278 ) ;
#270 = SURFACE_STYLE_USAGE ( .BOTH. , #163 ) ;
#271 = CYLINDRICAL_SURFACE ( 'NONE', #179, 0.3125000000000000555 ) ;
#272 = CARTESIAN_POINT ( 'NONE',  ( -1.224646799147354440E-16, 6.000000000000000888, 0.000000000000000000 ) ) ;
#273 = ADVANCED_FACE ( 'NONE', ( #94 ), #140, .F. ) ;
#274 = DIRECTION ( 'NONE',  ( -1.000000000000000000, 0.000000000000000000, 0.000000000000000000 ) ) ;
#275 =( LENGTH_UNIT ( ) NAMED_UNIT ( * ) SI_UNIT ( $, .METRE. ) );
#276 = MECHANICAL_DESIGN_GEOMETRIC_PRESENTATION_REPRESENTATION (  '', ( #19 ), #199 ) ;
#277 = DIRECTION ( 'NONE',  ( -0.000000000000000000, -1.000000000000000000, -0.000000000000000000 ) ) ;
#278 =( GEOMETRIC_REPRESENTATION_CONTEXT ( 3 ) GLOBAL_UNCERTAINTY_ASSIGNED_CONTEXT ( ( #93 ) ) GLOBAL_UNIT_ASSIGNED_CONTEXT ( ( #113, #6, #202 ) ) REPRESENTATION_CONTEXT ( 'NONE', 'WORKASPACE' ) );
#279 = DIMENSIONAL_EXPONENTS ( 1.000000000000000000, 0.000000000000000000, 0.000000000000000000, 0.000000000000000000, 0.000000000000000000, 0.000000000000000000, 0.000000000000000000 ) ;
#280 =( GEOMETRIC_REPRESENTATION_CONTEXT ( 3 ) GLOBAL_UNCERTAINTY_ASSIGNED_CONTEXT ( ( #299 ) ) GLOBAL_UNIT_ASSIGNED_CONTEXT ( ( #41, #24, #210 ) ) REPRESENTATION_CONTEXT ( 'NONE', 'WORKASPACE' ) );
#281 = VERTEX_POINT ( 'NONE', #66 ) ;
#282 = ORIENTED_EDGE ( 'NONE', *, *, #196, .F. ) ;
#283 = ORIENTED_EDGE ( 'NONE', *, *, #75, .F. ) ;
#284 = CARTESIAN_POINT ( 'NONE',  ( 0.3125000000000000000, 4.000000000000000000, 3.827021247335479543E-17 ) ) ;
#285 = CIRCLE ( 'NONE', #231, 0.3125000000000000000 ) ;
#286 = CIRCLE ( 'NONE', #165, 0.3125000000000000000 ) ;
#287 = LENGTH_MEASURE_WITH_UNIT ( LENGTH_MEASURE( 0.02539999999999999897 ), #111 );
#288 = ORIENTED_EDGE ( 'NONE', *, *, #37, .F. ) ;
#289 = CARTESIAN_POINT ( 'NONE',  ( -0.3125000000000000000, 4.000000000000000000, 0.000000000000000000 ) ) ;
#290 = DIRECTION ( 'NONE',  ( 0.000000000000000000, 0.000000000000000000, -1.000000000000000000 ) ) ;
#291 = EDGE_CURVE ( 'NONE', #263, #152, #233, .T. ) ;
#292 = CARTESIAN_POINT ( 'NONE',  ( -1.224646799147354440E-16, 6.000000000000000888, 0.000000000000000000 ) ) ;
#293 = CARTESIAN_POINT ( 'NONE',  ( -1.224646799147354440E-16, 6.000000000000000888, 0.000000000000000000 ) ) ;
#294 = MECHANICAL_DESIGN_GEOMETRIC_PRESENTATION_REPRESENTATION (  '', ( #303 ), #194 ) ;
#295 = DIRECTION ( 'NONE',  ( -0.000000000000000000, -1.000000000000000000, -0.000000000000000000 ) ) ;
#296 = SURFACE_SIDE_STYLE ('',( #114 ) ) ;
#297 = CYLINDRICAL_SURFACE ( 'NONE', #69, 0.3125000000000000000 ) ;
#298 = DIRECTION ( 'NONE',  ( 0.000000000000000000, 0.000000000000000000, -1.000000000000000000 ) ) ;
#299 = UNCERTAINTY_MEASURE_WITH_UNIT (LENGTH_MEASURE( 1.000000000000000082E-05 ), #41, 'distance_accuracy_value', 'NONE');
#300 =( CONVERSION_BASED_UNIT ( 'INCH', #38 ) LENGTH_UNIT ( ) NAMED_UNIT ( #126 ) );
#301 = CARTESIAN_POINT ( 'NONE',  ( 0.000000000000000000, 0.000000000000000000, 0.000000000000000000 ) ) ;
#302 = STYLED_ITEM ( 'NONE', ( #64 ), #43 ) ;
#303 = STYLED_ITEM ( 'NONE', ( #246 ), #132 ) ;
#304 = CARTESIAN_POINT ( 'NONE',  ( 0.000000000000000000, 0.000000000000000000, -0.3125000000000000000 ) ) ;
#305 = LENGTH_MEASURE_WITH_UNIT ( LENGTH_MEASURE( 0.02539999999999999897 ), #148 );
#306 = CARTESIAN_POINT ( 'NONE',  ( 0.000000000000000000, 4.000000000000000000, 0.000000000000000000 ) ) ;
#307 = AXIS2_PLACEMENT_3D ( 'NONE', #91, #35, #222 ) ;
#308 = ADVANCED_BREP_SHAPE_REPRESENTATION ( '05667', ( #142, #43, #20 ), #280 ) ;
#309 = PRESENTATION_STYLE_ASSIGNMENT (( #149 ) ) ;
ENDSEC;
END-ISO-10303-21;
