ISO-10303-21;
HEADER;
FILE_DESCRIPTION (( 'STEP AP214' ),
    '1' );
FILE_NAME ('00437.STEP',
    '2023-06-22T14:08:15',
    ( '' ),
    ( '' ),
    'SwSTEP 2.0',
    'SolidWorks 2023',
    '' );
FILE_SCHEMA (( 'AUTOMOTIVE_DESIGN' ));
ENDSEC;

DATA;
#1 = ORIENTED_EDGE ( 'NONE', *, *, #91, .T. ) ;
#2 = ADVANCED_FACE ( 'NONE', ( #100 ), #149, .T. ) ;
#3 = AXIS2_PLACEMENT_3D ( 'NONE', #168, #80, #172 ) ;
#4 = FACE_OUTER_BOUND ( 'NONE', #257, .T. ) ;
#5 = DIRECTION ( 'NONE',  ( -1.000000000000000000, 0.000000000000000000, 0.000000000000000000 ) ) ;
#6 = ORIENTED_EDGE ( 'NONE', *, *, #237, .F. ) ;
#7 = ORIENTED_EDGE ( 'NONE', *, *, #202, .T. ) ;
#8 = PRESENTATION_STYLE_ASSIGNMENT (( #50 ) ) ;
#9 = PRESENTATION_STYLE_ASSIGNMENT (( #190 ) ) ;
#10 =( GEOMETRIC_REPRESENTATION_CONTEXT ( 3 ) GLOBAL_UNCERTAINTY_ASSIGNED_CONTEXT ( ( #278 ) ) GLOBAL_UNIT_ASSIGNED_CONTEXT ( ( #90, #185, #205 ) ) REPRESENTATION_CONTEXT ( 'NONE', 'WORKASPACE' ) );
#11 = CARTESIAN_POINT ( 'NONE',  ( 3.061616997868383018E-17, 0.000000000000000000, 0.2500000000000000000 ) ) ;
#12 = VERTEX_POINT ( 'NONE', #218 ) ;
#13 = DIRECTION ( 'NONE',  ( -1.000000000000000000, 0.000000000000000000, 0.000000000000000000 ) ) ;
#14 = SURFACE_STYLE_FILL_AREA ( #85 ) ;
#15 = DIRECTION ( 'NONE',  ( 0.000000000000000000, 0.000000000000000000, -1.000000000000000000 ) ) ;
#16 = LENGTH_MEASURE_WITH_UNIT ( LENGTH_MEASURE( 0.02539999999999999897 ), #116 );
#17 =( LENGTH_UNIT ( ) NAMED_UNIT ( * ) SI_UNIT ( $, .METRE. ) );
#18 = PRESENTATION_LAYER_ASSIGNMENT (  '', '', ( #228 ) ) ;
#19 = DIMENSIONAL_EXPONENTS ( 1.000000000000000000, 0.000000000000000000, 0.000000000000000000, 0.000000000000000000, 0.000000000000000000, 0.000000000000000000, 0.000000000000000000 ) ;
#20 = AXIS2_PLACEMENT_3D ( 'NONE', #294, #76, #13 ) ;
#21 = CIRCLE ( 'NONE', #67, 0.2500000000000000000 ) ;
#22 = VERTEX_POINT ( 'NONE', #127 ) ;
#23 = ORIENTED_EDGE ( 'NONE', *, *, #99, .T. ) ;
#24 =( NAMED_UNIT ( * ) SI_UNIT ( $, .STERADIAN. ) SOLID_ANGLE_UNIT ( ) );
#25 = LINE ( 'NONE', #11, #215 ) ;
#26 = SURFACE_STYLE_FILL_AREA ( #291 ) ;
#27 =( LENGTH_UNIT ( ) NAMED_UNIT ( * ) SI_UNIT ( $, .METRE. ) );
#28 = DIRECTION ( 'NONE',  ( 1.632862398863137527E-16, 1.000000000000000000, -0.000000000000000000 ) ) ;
#29 = PLANE ( 'NONE',  #187 ) ;
#30 = DIRECTION ( 'NONE',  ( 1.632862398863137527E-16, 1.000000000000000000, -0.000000000000000000 ) ) ;
#31 = DIRECTION ( 'NONE',  ( -1.000000000000000000, 0.000000000000000000, 0.000000000000000000 ) ) ;
#32 =( CONVERSION_BASED_UNIT ( 'INCH', #55 ) LENGTH_UNIT ( ) NAMED_UNIT ( #122 ) );
#33 = CIRCLE ( 'NONE', #20, 0.2500000000000000000 ) ;
#34 = FACE_OUTER_BOUND ( 'NONE', #49, .T. ) ;
#35 = PRESENTATION_STYLE_ASSIGNMENT (( #225 ) ) ;
#36 = CARTESIAN_POINT ( 'NONE',  ( 3.061616997868383141E-16, 2.500000000000000000, 0.000000000000000000 ) ) ;
#37 = CARTESIAN_POINT ( 'NONE',  ( 3.061616997868383018E-17, 0.6250000000000000000, 0.2500000000000000000 ) ) ;
#38 =( CONVERSION_BASED_UNIT ( 'INCH', #64 ) LENGTH_UNIT ( ) NAMED_UNIT ( #285 ) );
#39 = CIRCLE ( 'NONE', #59, 0.2499999999999996947 ) ;
#40 = UNCERTAINTY_MEASURE_WITH_UNIT (LENGTH_MEASURE( 1.000000000000000082E-05 ), #86, 'distance_accuracy_value', 'NONE');
#41 = CYLINDRICAL_SURFACE ( 'NONE', #81, 0.2499999999999998612 ) ;
#42 =( LENGTH_UNIT ( ) NAMED_UNIT ( * ) SI_UNIT ( $, .METRE. ) );
#43 = PRODUCT_DEFINITION_CONTEXT ( 'detailed design', #140, 'design' ) ;
#44 = PRODUCT_RELATED_PRODUCT_CATEGORY ( 'part', '', ( #105 ) ) ;
#45 = ORIENTED_EDGE ( 'NONE', *, *, #253, .F. ) ;
#46 = AXIS2_PLACEMENT_3D ( 'NONE', #150, #173, #303 ) ;
#47 = VERTEX_POINT ( 'NONE', #239 ) ;
#48 = ORIENTED_EDGE ( 'NONE', *, *, #113, .T. ) ;
#49 = EDGE_LOOP ( 'NONE', ( #224, #235, #7, #45 ) ) ;
#50 = SURFACE_STYLE_USAGE ( .BOTH. , #266 ) ;
#51 = CYLINDRICAL_SURFACE ( 'NONE', #46, 0.2500000000000000000 ) ;
#52 = CARTESIAN_POINT ( 'NONE',  ( 0.000000000000000000, 0.000000000000000000, 0.000000000000000000 ) ) ;
#53 = CARTESIAN_POINT ( 'NONE',  ( 3.332799517026350012E-33, 0.6250000000000000000, 0.000000000000000000 ) ) ;
#54 = FILL_AREA_STYLE_COLOUR ( '', #167 ) ;
#55 = LENGTH_MEASURE_WITH_UNIT ( LENGTH_MEASURE( 0.02539999999999999897 ), #120 );
#56 = FILL_AREA_STYLE_COLOUR ( '', #66 ) ;
#57 = PRODUCT_DEFINITION_SHAPE ( 'NONE', 'NONE',  #207 ) ;
#58 = ADVANCED_FACE ( 'NONE', ( #4 ), #296, .F. ) ;
#59 = AXIS2_PLACEMENT_3D ( 'NONE', #88, #79, #182 ) ;
#60 = DIRECTION ( 'NONE',  ( 1.632862398863137527E-16, 1.000000000000000000, -0.000000000000000000 ) ) ;
#61 = DIRECTION ( 'NONE',  ( 1.632862398863137527E-16, 1.000000000000000000, -0.000000000000000000 ) ) ;
#62 = LINE ( 'NONE', #246, #115 ) ;
#63 = UNCERTAINTY_MEASURE_WITH_UNIT (LENGTH_MEASURE( 1.000000000000000082E-05 ), #38, 'distance_accuracy_value', 'NONE');
#64 = LENGTH_MEASURE_WITH_UNIT ( LENGTH_MEASURE( 0.02539999999999999897 ), #42 );
#65 = DIRECTION ( 'NONE',  ( 0.000000000000000000, 0.000000000000000000, -1.000000000000000000 ) ) ;
#66 = COLOUR_RGB ( '',0.7921568627450980005, 0.8196078431372548767, 0.9333333333333333481 ) ;
#67 = AXIS2_PLACEMENT_3D ( 'NONE', #106, #82, #15 ) ;
#68 = FILL_AREA_STYLE ('',( #197 ) ) ;
#69 = EDGE_CURVE ( 'NONE', #47, #118, #156, .T. ) ;
#70 = EDGE_LOOP ( 'NONE', ( #145, #216, #107, #188 ) ) ;
#71 = MECHANICAL_DESIGN_GEOMETRIC_PRESENTATION_REPRESENTATION (  '', ( #166 ), #293 ) ;
#72 = AXIS2_PLACEMENT_3D ( 'NONE', #248, #84, #274 ) ;
#73 = SURFACE_SIDE_STYLE ('',( #26 ) ) ;
#74 = UNCERTAINTY_MEASURE_WITH_UNIT (LENGTH_MEASURE( 1.000000000000000082E-05 ), #32, 'distance_accuracy_value', 'NONE');
#75 = EDGE_LOOP ( 'NONE', ( #209, #283 ) ) ;
#76 = DIRECTION ( 'NONE',  ( 1.632862398863137527E-16, 1.000000000000000000, -0.000000000000000000 ) ) ;
#77 = EDGE_CURVE ( 'NONE', #12, #22, #93, .T. ) ;
#78 =( NAMED_UNIT ( * ) SI_UNIT ( $, .STERADIAN. ) SOLID_ANGLE_UNIT ( ) );
#79 = DIRECTION ( 'NONE',  ( 1.632862398863137527E-16, 1.000000000000000000, -0.000000000000000000 ) ) ;
#80 = DIRECTION ( 'NONE',  ( -1.632862398863137527E-16, -1.000000000000000000, 0.000000000000000000 ) ) ;
#81 = AXIS2_PLACEMENT_3D ( 'NONE', #36, #61, #92 ) ;
#82 = DIRECTION ( 'NONE',  ( -0.000000000000000000, -1.000000000000000000, -0.000000000000000000 ) ) ;
#83 = ORIENTED_EDGE ( 'NONE', *, *, #69, .F. ) ;
#84 = DIRECTION ( 'NONE',  ( -0.000000000000000000, -1.000000000000000000, -0.000000000000000000 ) ) ;
#85 = FILL_AREA_STYLE ('',( #56 ) ) ;
#86 =( CONVERSION_BASED_UNIT ( 'INCH', #217 ) LENGTH_UNIT ( ) NAMED_UNIT ( #97 ) );
#87 = PRESENTATION_LAYER_ASSIGNMENT (  '', '', ( #206 ) ) ;
#88 = CARTESIAN_POINT ( 'NONE',  ( 3.061616997868383141E-16, 2.500000000000000000, 0.000000000000000000 ) ) ;
#89 = UNCERTAINTY_MEASURE_WITH_UNIT (LENGTH_MEASURE( 1.000000000000000082E-05 ), #143, 'distance_accuracy_value', 'NONE');
#90 =( CONVERSION_BASED_UNIT ( 'INCH', #16 ) LENGTH_UNIT ( ) NAMED_UNIT ( #126 ) );
#91 = EDGE_CURVE ( 'NONE', #301, #164, #213, .T. ) ;
#92 = DIRECTION ( 'NONE',  ( -1.000000000000000000, 0.000000000000000000, 0.000000000000000000 ) ) ;
#93 = CIRCLE ( 'NONE', #194, 0.2500000000000000000 ) ;
#94 = DIMENSIONAL_EXPONENTS ( 1.000000000000000000, 0.000000000000000000, 0.000000000000000000, 0.000000000000000000, 0.000000000000000000, 0.000000000000000000, 0.000000000000000000 ) ;
#95 = PRODUCT_DEFINITION_FORMATION_WITH_SPECIFIED_SOURCE ( 'ANY', '', #105, .NOT_KNOWN. ) ;
#96 = SHAPE_DEFINITION_REPRESENTATION ( #57, #196 ) ;
#97 = DIMENSIONAL_EXPONENTS ( 1.000000000000000000, 0.000000000000000000, 0.000000000000000000, 0.000000000000000000, 0.000000000000000000, 0.000000000000000000, 0.000000000000000000 ) ;
#98 = ORIENTED_EDGE ( 'NONE', *, *, #232, .T. ) ;
#99 = EDGE_CURVE ( 'NONE', #195, #261, #227, .T. ) ;
#100 = FACE_OUTER_BOUND ( 'NONE', #200, .T. ) ;
#101 = EDGE_LOOP ( 'NONE', ( #134, #258 ) ) ;
#102 = SURFACE_STYLE_USAGE ( .BOTH. , #302 ) ;
#103 = ORIENTED_EDGE ( 'NONE', *, *, #113, .F. ) ;
#104 = DIRECTION ( 'NONE',  ( -1.000000000000000000, 1.632862398863137527E-16, 0.000000000000000000 ) ) ;
#105 = PRODUCT ( '00437', '00437', '', ( #165 ) ) ;
#106 = CARTESIAN_POINT ( 'NONE',  ( 0.000000000000000000, 0.6250000000000000000, 0.000000000000000000 ) ) ;
#107 = ORIENTED_EDGE ( 'NONE', *, *, #99, .F. ) ;
#108 = DIRECTION ( 'NONE',  ( 0.000000000000000000, -1.000000000000000000, -0.000000000000000000 ) ) ;
#109 = SURFACE_SIDE_STYLE ('',( #14 ) ) ;
#110 = AXIS2_PLACEMENT_3D ( 'NONE', #304, #298, #141 ) ;
#111 = DIRECTION ( 'NONE',  ( -0.000000000000000000, -1.000000000000000000, -0.000000000000000000 ) ) ;
#112 = AXIS2_PLACEMENT_3D ( 'NONE', #210, #286, #146 ) ;
#113 = EDGE_CURVE ( 'NONE', #164, #118, #153, .T. ) ;
#114 = COLOUR_RGB ( '',1.000000000000000000, 0.000000000000000000, 0.000000000000000000 ) ;
#115 = VECTOR ( 'NONE', #133, 39.37007874015748143 ) ;
#116 =( LENGTH_UNIT ( ) NAMED_UNIT ( * ) SI_UNIT ( $, .METRE. ) );
#117 = FACE_OUTER_BOUND ( 'NONE', #152, .T. ) ;
#118 = VERTEX_POINT ( 'NONE', #137 ) ;
#119 = EDGE_CURVE ( 'NONE', #22, #12, #33, .T. ) ;
#120 =( LENGTH_UNIT ( ) NAMED_UNIT ( * ) SI_UNIT ( $, .METRE. ) );
#121 = DIRECTION ( 'NONE',  ( -0.000000000000000000, -1.000000000000000000, -0.000000000000000000 ) ) ;
#122 = DIMENSIONAL_EXPONENTS ( 1.000000000000000000, 0.000000000000000000, 0.000000000000000000, 0.000000000000000000, 0.000000000000000000, 0.000000000000000000, 0.000000000000000000 ) ;
#123 = PRESENTATION_LAYER_ASSIGNMENT (  '', '', ( #256 ) ) ;
#124 = ORIENTED_EDGE ( 'NONE', *, *, #91, .F. ) ;
#125 = CYLINDRICAL_SURFACE ( 'NONE', #136, 0.2499999999999998612 ) ;
#126 = DIMENSIONAL_EXPONENTS ( 1.000000000000000000, 0.000000000000000000, 0.000000000000000000, 0.000000000000000000, 0.000000000000000000, 0.000000000000000000, 0.000000000000000000 ) ;
#127 = CARTESIAN_POINT ( 'NONE',  ( -0.2500000000000000000, 0.6250000000000000000, 0.000000000000000000 ) ) ;
#128 = FACE_OUTER_BOUND ( 'NONE', #101, .T. ) ;
#129 = CARTESIAN_POINT ( 'NONE',  ( 0.000000000000000000, 0.000000000000000000, 0.000000000000000000 ) ) ;
#130 = CARTESIAN_POINT ( 'NONE',  ( 3.061616997868383141E-16, 2.500000000000000000, 0.000000000000000000 ) ) ;
#131 = ADVANCED_FACE ( 'NONE', ( #169 ), #51, .T. ) ;
#132 = AXIS2_PLACEMENT_3D ( 'NONE', #130, #276, #240 ) ;
#133 = DIRECTION ( 'NONE',  ( 1.632862398863137527E-16, 1.000000000000000000, -0.000000000000000000 ) ) ;
#134 = ORIENTED_EDGE ( 'NONE', *, *, #119, .F. ) ;
#135 =( GEOMETRIC_REPRESENTATION_CONTEXT ( 3 ) GLOBAL_UNCERTAINTY_ASSIGNED_CONTEXT ( ( #230 ) ) GLOBAL_UNIT_ASSIGNED_CONTEXT ( ( #203, #268, #155 ) ) REPRESENTATION_CONTEXT ( 'NONE', 'WORKASPACE' ) );
#136 = AXIS2_PLACEMENT_3D ( 'NONE', #244, #277, #31 ) ;
#137 = CARTESIAN_POINT ( 'NONE',  ( 0.000000000000000000, 0.000000000000000000, -0.2500000000000000000 ) ) ;
#138 = PRESENTATION_STYLE_ASSIGNMENT (( #102 ) ) ;
#139 = UNCERTAINTY_MEASURE_WITH_UNIT (LENGTH_MEASURE( 1.000000000000000082E-05 ), #275, 'distance_accuracy_value', 'NONE');
#140 = APPLICATION_CONTEXT ( 'automotive_design' ) ;
#141 = DIRECTION ( 'NONE',  ( 0.000000000000000000, 0.000000000000000000, -1.000000000000000000 ) ) ;
#142 = STYLED_ITEM ( 'NONE', ( #9 ), #2 ) ;
#143 =( CONVERSION_BASED_UNIT ( 'INCH', #229 ) LENGTH_UNIT ( ) NAMED_UNIT ( #94 ) );
#144 = PRESENTATION_LAYER_ASSIGNMENT (  '', '', ( #166 ) ) ;
#145 = ORIENTED_EDGE ( 'NONE', *, *, #119, .T. ) ;
#146 = DIRECTION ( 'NONE',  ( 1.000000000000000000, 0.000000000000000000, 0.000000000000000000 ) ) ;
#147 = EDGE_CURVE ( 'NONE', #118, #47, #198, .T. ) ;
#148 = EDGE_LOOP ( 'NONE', ( #289, #98, #265, #103 ) ) ;
#149 = PLANE ( 'NONE',  #189 ) ;
#150 = CARTESIAN_POINT ( 'NONE',  ( 0.000000000000000000, 0.000000000000000000, 0.000000000000000000 ) ) ;
#151 = SURFACE_STYLE_FILL_AREA ( #171 ) ;
#152 = EDGE_LOOP ( 'NONE', ( #242, #1, #48, #83 ) ) ;
#153 = LINE ( 'NONE', #297, #157 ) ;
#154 = DIRECTION ( 'NONE',  ( -0.000000000000000000, -1.000000000000000000, -0.000000000000000000 ) ) ;
#155 =( NAMED_UNIT ( * ) SI_UNIT ( $, .STERADIAN. ) SOLID_ANGLE_UNIT ( ) );
#156 = CIRCLE ( 'NONE', #221, 0.2500000000000000000 ) ;
#157 = VECTOR ( 'NONE', #121, 39.37007874015748143 ) ;
#158 = LINE ( 'NONE', #226, #262 ) ;
#159 = FILL_AREA_STYLE ('',( #170 ) ) ;
#160 = ADVANCED_FACE ( 'NONE', ( #128 ), #271, .F. ) ;
#161 = FILL_AREA_STYLE_COLOUR ( '', #179 ) ;
#162 = FACE_OUTER_BOUND ( 'NONE', #70, .T. ) ;
#163 = FILL_AREA_STYLE ('',( #54 ) ) ;
#164 = VERTEX_POINT ( 'NONE', #201 ) ;
#165 = PRODUCT_CONTEXT ( 'NONE', #282, 'mechanical' ) ;
#166 = STYLED_ITEM ( 'NONE', ( #35 ), #180 ) ;
#167 = COLOUR_RGB ( '',0.7921568627450980005, 0.8196078431372548767, 0.9333333333333333481 ) ;
#168 = CARTESIAN_POINT ( 'NONE',  ( 0.2500000000000000000, 2.500000000000000000, 0.000000000000000000 ) ) ;
#169 = FACE_OUTER_BOUND ( 'NONE', #148, .T. ) ;
#170 = FILL_AREA_STYLE_COLOUR ( '', #114 ) ;
#171 = FILL_AREA_STYLE ('',( #161 ) ) ;
#172 = DIRECTION ( 'NONE',  ( 1.000000000000000000, -1.632862398863137527E-16, 0.000000000000000000 ) ) ;
#173 = DIRECTION ( 'NONE',  ( -0.000000000000000000, -1.000000000000000000, -0.000000000000000000 ) ) ;
#174 = FACE_OUTER_BOUND ( 'NONE', #75, .T. ) ;
#175 = DIRECTION ( 'NONE',  ( 0.000000000000000000, -0.000000000000000000, 1.000000000000000000 ) ) ;
#176 = PRESENTATION_LAYER_ASSIGNMENT (  '', '', ( #142 ) ) ;
#177 = CARTESIAN_POINT ( 'NONE',  ( -0.2499999999999993894, 2.500000000000000000, 0.000000000000000000 ) ) ;
#178 = CARTESIAN_POINT ( 'NONE',  ( 0.2500000000000000000, 2.500000000000000000, 3.061616997868382402E-17 ) ) ;
#179 = COLOUR_RGB ( '',1.000000000000000000, 0.000000000000000000, 0.000000000000000000 ) ;
#180 = MANIFOLD_SOLID_BREP ( 'Revolve - Cutting Edge', #295 ) ;
#181 =( NAMED_UNIT ( * ) PLANE_ANGLE_UNIT ( ) SI_UNIT ( $, .RADIAN. ) );
#182 = DIRECTION ( 'NONE',  ( -1.000000000000000000, 0.000000000000000000, 0.000000000000000000 ) ) ;
#183 = EDGE_CURVE ( 'NONE', #12, #261, #158, .T. ) ;
#184 = CYLINDRICAL_SURFACE ( 'NONE', #223, 0.2500000000000000000 ) ;
#185 =( NAMED_UNIT ( * ) PLANE_ANGLE_UNIT ( ) SI_UNIT ( $, .RADIAN. ) );
#186 = PRESENTATION_STYLE_ASSIGNMENT (( #231 ) ) ;
#187 = AXIS2_PLACEMENT_3D ( 'NONE', #129, #108, #219 ) ;
#188 = ORIENTED_EDGE ( 'NONE', *, *, #202, .F. ) ;
#189 = AXIS2_PLACEMENT_3D ( 'NONE', #263, #245, #175 ) ;
#190 = SURFACE_STYLE_USAGE ( .BOTH. , #73 ) ;
#191 = COLOUR_RGB ( '',1.000000000000000000, 0.000000000000000000, 0.000000000000000000 ) ;
#192 = DIRECTION ( 'NONE',  ( 0.000000000000000000, 0.000000000000000000, -1.000000000000000000 ) ) ;
#193 = LENGTH_MEASURE_WITH_UNIT ( LENGTH_MEASURE( 0.02539999999999999897 ), #27 );
#194 = AXIS2_PLACEMENT_3D ( 'NONE', #220, #28, #5 ) ;
#195 = VERTEX_POINT ( 'NONE', #177 ) ;
#196 = ADVANCED_BREP_SHAPE_REPRESENTATION ( '00437', ( #180, #290, #112 ), #251 ) ;
#197 = FILL_AREA_STYLE_COLOUR ( '', #308 ) ;
#198 = CIRCLE ( 'NONE', #72, 0.2500000000000000000 ) ;
#199 = STYLED_ITEM ( 'NONE', ( #138 ), #284 ) ;
#200 = EDGE_LOOP ( 'NONE', ( #6, #124 ) ) ;
#201 = CARTESIAN_POINT ( 'NONE',  ( 0.000000000000000000, 0.6250000000000000000, -0.2500000000000000000 ) ) ;
#202 = EDGE_CURVE ( 'NONE', #22, #195, #62, .T. ) ;
#203 =( CONVERSION_BASED_UNIT ( 'INCH', #193 ) LENGTH_UNIT ( ) NAMED_UNIT ( #212 ) );
#204 =( NAMED_UNIT ( * ) PLANE_ANGLE_UNIT ( ) SI_UNIT ( $, .RADIAN. ) );
#205 =( NAMED_UNIT ( * ) SI_UNIT ( $, .STERADIAN. ) SOLID_ANGLE_UNIT ( ) );
#206 = STYLED_ITEM ( 'NONE', ( #8 ), #131 ) ;
#207 = PRODUCT_DEFINITION ( 'UNKNOWN', '', #95, #43 ) ;
#208 = SURFACE_STYLE_FILL_AREA ( #68 ) ;
#209 = ORIENTED_EDGE ( 'NONE', *, *, #147, .T. ) ;
#210 = CARTESIAN_POINT ( 'NONE',  ( 0.000000000000000000, 0.000000000000000000, 0.000000000000000000 ) ) ;
#211 =( NAMED_UNIT ( * ) PLANE_ANGLE_UNIT ( ) SI_UNIT ( $, .RADIAN. ) );
#212 = DIMENSIONAL_EXPONENTS ( 1.000000000000000000, 0.000000000000000000, 0.000000000000000000, 0.000000000000000000, 0.000000000000000000, 0.000000000000000000, 0.000000000000000000 ) ;
#213 = CIRCLE ( 'NONE', #110, 0.2500000000000000000 ) ;
#214 =( NAMED_UNIT ( * ) PLANE_ANGLE_UNIT ( ) SI_UNIT ( $, .RADIAN. ) );
#215 = VECTOR ( 'NONE', #111, 39.37007874015748143 ) ;
#216 = ORIENTED_EDGE ( 'NONE', *, *, #183, .T. ) ;
#217 = LENGTH_MEASURE_WITH_UNIT ( LENGTH_MEASURE( 0.02539999999999999897 ), #305 );
#218 = CARTESIAN_POINT ( 'NONE',  ( 0.2500000000000000000, 0.6250000000000000000, 3.061616997868382402E-17 ) ) ;
#219 = DIRECTION ( 'NONE',  ( 0.000000000000000000, 0.000000000000000000, -1.000000000000000000 ) ) ;
#220 = CARTESIAN_POINT ( 'NONE',  ( 0.000000000000000000, 0.6250000000000000000, 0.000000000000000000 ) ) ;
#221 = AXIS2_PLACEMENT_3D ( 'NONE', #52, #154, #192 ) ;
#222 =( LENGTH_UNIT ( ) NAMED_UNIT ( * ) SI_UNIT ( $, .METRE. ) );
#223 = AXIS2_PLACEMENT_3D ( 'NONE', #279, #309, #65 ) ;
#224 = ORIENTED_EDGE ( 'NONE', *, *, #183, .F. ) ;
#225 = SURFACE_STYLE_USAGE ( .BOTH. , #109 ) ;
#226 = CARTESIAN_POINT ( 'NONE',  ( 0.2500000000000001665, 2.500000000000000000, 3.061616997868381785E-17 ) ) ;
#227 = CIRCLE ( 'NONE', #132, 0.2499999999999996947 ) ;
#228 = STYLED_ITEM ( 'NONE', ( #186 ), #292 ) ;
#229 = LENGTH_MEASURE_WITH_UNIT ( LENGTH_MEASURE( 0.02539999999999999897 ), #17 );
#230 = UNCERTAINTY_MEASURE_WITH_UNIT (LENGTH_MEASURE( 1.000000000000000082E-05 ), #203, 'distance_accuracy_value', 'NONE');
#231 = SURFACE_STYLE_USAGE ( .BOTH. , #254 ) ;
#232 = EDGE_CURVE ( 'NONE', #301, #47, #25, .T. ) ;
#233 = MECHANICAL_DESIGN_GEOMETRIC_PRESENTATION_REPRESENTATION (  '', ( #199 ), #269 ) ;
#234 = SURFACE_SIDE_STYLE ('',( #252 ) ) ;
#235 = ORIENTED_EDGE ( 'NONE', *, *, #77, .T. ) ;
#236 = PRESENTATION_LAYER_ASSIGNMENT (  '', '', ( #199 ) ) ;
#237 = EDGE_CURVE ( 'NONE', #164, #301, #21, .T. ) ;
#238 = ORIENTED_EDGE ( 'NONE', *, *, #253, .T. ) ;
#239 = CARTESIAN_POINT ( 'NONE',  ( 3.061616997868383018E-17, 0.000000000000000000, 0.2500000000000000000 ) ) ;
#240 = DIRECTION ( 'NONE',  ( -1.000000000000000000, 0.000000000000000000, 0.000000000000000000 ) ) ;
#241 = MECHANICAL_DESIGN_GEOMETRIC_PRESENTATION_REPRESENTATION (  '', ( #228 ), #280 ) ;
#242 = ORIENTED_EDGE ( 'NONE', *, *, #232, .F. ) ;
#243 = SURFACE_STYLE_FILL_AREA ( #159 ) ;
#244 = CARTESIAN_POINT ( 'NONE',  ( 3.061616997868383141E-16, 2.500000000000000000, 0.000000000000000000 ) ) ;
#245 = DIRECTION ( 'NONE',  ( 0.000000000000000000, 1.000000000000000000, 0.000000000000000000 ) ) ;
#246 = CARTESIAN_POINT ( 'NONE',  ( -0.2499999999999995559, 2.500000000000000000, 0.000000000000000000 ) ) ;
#247 = MECHANICAL_DESIGN_GEOMETRIC_PRESENTATION_REPRESENTATION (  '', ( #206 ), #135 ) ;
#248 = CARTESIAN_POINT ( 'NONE',  ( 0.000000000000000000, 0.000000000000000000, 0.000000000000000000 ) ) ;
#249 =( NAMED_UNIT ( * ) PLANE_ANGLE_UNIT ( ) SI_UNIT ( $, .RADIAN. ) );
#250 = SURFACE_STYLE_USAGE ( .BOTH. , #234 ) ;
#251 =( GEOMETRIC_REPRESENTATION_CONTEXT ( 3 ) GLOBAL_UNCERTAINTY_ASSIGNED_CONTEXT ( ( #89 ) ) GLOBAL_UNIT_ASSIGNED_CONTEXT ( ( #143, #181, #281 ) ) REPRESENTATION_CONTEXT ( 'NONE', 'WORKASPACE' ) );
#252 = SURFACE_STYLE_FILL_AREA ( #163 ) ;
#253 = EDGE_CURVE ( 'NONE', #261, #195, #39, .T. ) ;
#254 = SURFACE_SIDE_STYLE ('',( #208 ) ) ;
#255 = AXIS2_PLACEMENT_3D ( 'NONE', #53, #30, #104 ) ;
#256 = STYLED_ITEM ( 'NONE', ( #307 ), #290 ) ;
#257 = EDGE_LOOP ( 'NONE', ( #23, #238 ) ) ;
#258 = ORIENTED_EDGE ( 'NONE', *, *, #77, .F. ) ;
#259 = APPLICATION_PROTOCOL_DEFINITION ( 'draft international standard', 'automotive_design', 1998, #140 ) ;
#260 = APPLICATION_PROTOCOL_DEFINITION ( 'draft international standard', 'automotive_design', 1998, #282 ) ;
#261 = VERTEX_POINT ( 'NONE', #178 ) ;
#262 = VECTOR ( 'NONE', #60, 39.37007874015748143 ) ;
#263 = CARTESIAN_POINT ( 'NONE',  ( 0.000000000000000000, 0.6250000000000000000, 0.000000000000000000 ) ) ;
#264 = ADVANCED_FACE ( 'NONE', ( #34 ), #125, .T. ) ;
#265 = ORIENTED_EDGE ( 'NONE', *, *, #147, .F. ) ;
#266 = SURFACE_SIDE_STYLE ('',( #243 ) ) ;
#267 =( GEOMETRIC_REPRESENTATION_CONTEXT ( 3 ) GLOBAL_UNCERTAINTY_ASSIGNED_CONTEXT ( ( #74 ) ) GLOBAL_UNIT_ASSIGNED_CONTEXT ( ( #32, #214, #78 ) ) REPRESENTATION_CONTEXT ( 'NONE', 'WORKASPACE' ) );
#268 =( NAMED_UNIT ( * ) PLANE_ANGLE_UNIT ( ) SI_UNIT ( $, .RADIAN. ) );
#269 =( GEOMETRIC_REPRESENTATION_CONTEXT ( 3 ) GLOBAL_UNCERTAINTY_ASSIGNED_CONTEXT ( ( #40 ) ) GLOBAL_UNIT_ASSIGNED_CONTEXT ( ( #86, #249, #270 ) ) REPRESENTATION_CONTEXT ( 'NONE', 'WORKASPACE' ) );
#270 =( NAMED_UNIT ( * ) SI_UNIT ( $, .STERADIAN. ) SOLID_ANGLE_UNIT ( ) );
#271 = PLANE ( 'NONE',  #255 ) ;
#272 = LENGTH_MEASURE_WITH_UNIT ( LENGTH_MEASURE( 0.02539999999999999897 ), #222 );
#273 = FILL_AREA_STYLE_COLOUR ( '', #191 ) ;
#274 = DIRECTION ( 'NONE',  ( 0.000000000000000000, 0.000000000000000000, -1.000000000000000000 ) ) ;
#275 =( CONVERSION_BASED_UNIT ( 'INCH', #272 ) LENGTH_UNIT ( ) NAMED_UNIT ( #19 ) );
#276 = DIRECTION ( 'NONE',  ( 1.632862398863137527E-16, 1.000000000000000000, -0.000000000000000000 ) ) ;
#277 = DIRECTION ( 'NONE',  ( 1.632862398863137527E-16, 1.000000000000000000, -0.000000000000000000 ) ) ;
#278 = UNCERTAINTY_MEASURE_WITH_UNIT (LENGTH_MEASURE( 1.000000000000000082E-05 ), #90, 'distance_accuracy_value', 'NONE');
#279 = CARTESIAN_POINT ( 'NONE',  ( 0.000000000000000000, 0.000000000000000000, 0.000000000000000000 ) ) ;
#280 =( GEOMETRIC_REPRESENTATION_CONTEXT ( 3 ) GLOBAL_UNCERTAINTY_ASSIGNED_CONTEXT ( ( #63 ) ) GLOBAL_UNIT_ASSIGNED_CONTEXT ( ( #38, #211, #24 ) ) REPRESENTATION_CONTEXT ( 'NONE', 'WORKASPACE' ) );
#281 =( NAMED_UNIT ( * ) SI_UNIT ( $, .STERADIAN. ) SOLID_ANGLE_UNIT ( ) );
#282 = APPLICATION_CONTEXT ( 'automotive_design' ) ;
#283 = ORIENTED_EDGE ( 'NONE', *, *, #69, .T. ) ;
#284 = ADVANCED_FACE ( 'NONE', ( #174 ), #29, .T. ) ;
#285 = DIMENSIONAL_EXPONENTS ( 1.000000000000000000, 0.000000000000000000, 0.000000000000000000, 0.000000000000000000, 0.000000000000000000, 0.000000000000000000, 0.000000000000000000 ) ;
#286 = DIRECTION ( 'NONE',  ( 0.000000000000000000, 0.000000000000000000, 1.000000000000000000 ) ) ;
#287 = CLOSED_SHELL ( 'NONE', ( #300, #160, #264, #58 ) ) ;
#288 = MECHANICAL_DESIGN_GEOMETRIC_PRESENTATION_REPRESENTATION (  '', ( #142 ), #267 ) ;
#289 = ORIENTED_EDGE ( 'NONE', *, *, #237, .T. ) ;
#290 = MANIFOLD_SOLID_BREP ( 'Revolve - Tool Body (Straight Shanked)', #287 ) ;
#291 = FILL_AREA_STYLE ('',( #273 ) ) ;
#292 = ADVANCED_FACE ( 'NONE', ( #117 ), #184, .T. ) ;
#293 =( GEOMETRIC_REPRESENTATION_CONTEXT ( 3 ) GLOBAL_UNCERTAINTY_ASSIGNED_CONTEXT ( ( #139 ) ) GLOBAL_UNIT_ASSIGNED_CONTEXT ( ( #275, #204, #299 ) ) REPRESENTATION_CONTEXT ( 'NONE', 'WORKASPACE' ) );
#294 = CARTESIAN_POINT ( 'NONE',  ( 0.000000000000000000, 0.6250000000000000000, 0.000000000000000000 ) ) ;
#295 = CLOSED_SHELL ( 'NONE', ( #131, #2, #292, #284 ) ) ;
#296 = PLANE ( 'NONE',  #3 ) ;
#297 = CARTESIAN_POINT ( 'NONE',  ( 0.000000000000000000, 0.000000000000000000, -0.2500000000000000000 ) ) ;
#298 = DIRECTION ( 'NONE',  ( -0.000000000000000000, -1.000000000000000000, -0.000000000000000000 ) ) ;
#299 =( NAMED_UNIT ( * ) SI_UNIT ( $, .STERADIAN. ) SOLID_ANGLE_UNIT ( ) );
#300 = ADVANCED_FACE ( 'NONE', ( #162 ), #41, .T. ) ;
#301 = VERTEX_POINT ( 'NONE', #37 ) ;
#302 = SURFACE_SIDE_STYLE ('',( #151 ) ) ;
#303 = DIRECTION ( 'NONE',  ( 0.000000000000000000, 0.000000000000000000, -1.000000000000000000 ) ) ;
#304 = CARTESIAN_POINT ( 'NONE',  ( 0.000000000000000000, 0.6250000000000000000, 0.000000000000000000 ) ) ;
#305 =( LENGTH_UNIT ( ) NAMED_UNIT ( * ) SI_UNIT ( $, .METRE. ) );
#306 = MECHANICAL_DESIGN_GEOMETRIC_PRESENTATION_REPRESENTATION (  '', ( #256 ), #10 ) ;
#307 = PRESENTATION_STYLE_ASSIGNMENT (( #250 ) ) ;
#308 = COLOUR_RGB ( '',1.000000000000000000, 0.000000000000000000, 0.000000000000000000 ) ;
#309 = DIRECTION ( 'NONE',  ( -0.000000000000000000, -1.000000000000000000, -0.000000000000000000 ) ) ;
ENDSEC;
END-ISO-10303-21;
