ISO-10303-21;
HEADER;
FILE_DESCRIPTION (( 'STEP AP214' ),
    '1' );
FILE_NAME ('Micro_SD-062.STEP',
    '2021-09-02T13:22:48',
    ( '' ),
    ( '' ),
    'SwSTEP 2.0',
    'SolidWorks 2020',
    '' );
FILE_SCHEMA (( 'AUTOMOTIVE_DESIGN' ));
ENDSEC;

DATA;
#1 = FACE_OUTER_BOUND ( 'NONE', #207, .T. ) ;
#2 = AXIS2_PLACEMENT_3D ( 'NONE', #169, #15, #59 ) ;
#3 = ORIENTED_EDGE ( 'NONE', *, *, #34, .T. ) ;
#4 = ORIENTED_EDGE ( 'NONE', *, *, #30, .T. ) ;
#5 = ORIENTED_EDGE ( 'NONE', *, *, #30, .F. ) ;
#6 = VECTOR ( 'NONE', #288, 39.37007874015748143 ) ;
#7 = VERTEX_POINT ( 'NONE', #213 ) ;
#8 = AXIS2_PLACEMENT_3D ( 'NONE', #130, #73, #178 ) ;
#9 = EDGE_CURVE ( 'NONE', #163, #139, #113, .T. ) ;
#10 = EDGE_LOOP ( 'NONE', ( #132, #56, #187, #283 ) ) ;
#11 = CARTESIAN_POINT ( 'NONE',  ( -0.03125000000000000000, 0.0000000000000000000, 0.3180499999999999994 ) ) ;
#12 = CARTESIAN_POINT ( 'NONE',  ( 0.0000000000000000000, 0.0000000000000000000, 1.500000000000000222 ) ) ;
#13 = ORIENTED_EDGE ( 'NONE', *, *, #140, .F. ) ;
#14 = AXIS2_PLACEMENT_3D ( 'NONE', #99, #215, #246 ) ;
#15 = DIRECTION ( 'NONE',  ( -0.0000000000000000000, -0.0000000000000000000, -1.000000000000000000 ) ) ;
#16 = UNCERTAINTY_MEASURE_WITH_UNIT (LENGTH_MEASURE( 1.000000000000000082E-05 ), #274, 'distance_accuracy_value', 'NONE');
#17 = DIRECTION ( 'NONE',  ( 1.000000000000000000, 0.0000000000000000000, -0.0000000000000000000 ) ) ;
#18 = EDGE_LOOP ( 'NONE', ( #112, #28, #259, #83 ) ) ;
#19 = APPLICATION_PROTOCOL_DEFINITION ( 'draft international standard', 'automotive_design', 1998, #308 ) ;
#20 = CARTESIAN_POINT ( 'NONE',  ( 0.0000000000000000000, 0.0000000000000000000, 0.3180499999999999994 ) ) ;
#21 = DIRECTION ( 'NONE',  ( 0.0000000000000000000, 0.0000000000000000000, 1.000000000000000000 ) ) ;
#22 =( NAMED_UNIT ( * ) SI_UNIT ( $, .STERADIAN. ) SOLID_ANGLE_UNIT ( ) );
#23 = CARTESIAN_POINT ( 'NONE',  ( 0.0000000000000000000, 0.0000000000000000000, 39.37007874015748143 ) ) ;
#24 = VERTEX_POINT ( 'NONE', #197 ) ;
#25 =( LENGTH_UNIT ( ) NAMED_UNIT ( * ) SI_UNIT ( $, .METRE. ) );
#26 = ADVANCED_FACE ( 'NONE', ( #94 ), #272, .T. ) ;
#27 = DIRECTION ( 'NONE',  ( 0.0000000000000000000, 0.0000000000000000000, 1.000000000000000000 ) ) ;
#28 = ORIENTED_EDGE ( 'NONE', *, *, #53, .T. ) ;
#29 = CIRCLE ( 'NONE', #79, 0.03125000000000000000 ) ;
#30 = EDGE_CURVE ( 'NONE', #139, #163, #209, .T. ) ;
#31 = VERTEX_POINT ( 'NONE', #176 ) ;
#32 = AXIS2_PLACEMENT_3D ( 'NONE', #43, #121, #70 ) ;
#33 = ORIENTED_EDGE ( 'NONE', *, *, #140, .T. ) ;
#34 = EDGE_CURVE ( 'NONE', #139, #85, #67, .T. ) ;
#35 = CYLINDRICAL_SURFACE ( 'NONE', #138, 0.03120000000000001592 ) ;
#36 = APPLICATION_CONTEXT ( 'automotive_design' ) ;
#37 = FACE_OUTER_BOUND ( 'NONE', #18, .T. ) ;
#38 = LINE ( 'NONE', #42, #233 ) ;
#39 = CARTESIAN_POINT ( 'NONE',  ( 0.0000000000000000000, 0.0000000000000000000, 0.0000000000000000000 ) ) ;
#40 = CONICAL_SURFACE ( 'NONE', #245, 65.52281426576885792, 1.029744258676657420 ) ;
#41 = EDGE_CURVE ( 'NONE', #31, #85, #142, .T. ) ;
#42 = CARTESIAN_POINT ( 'NONE',  ( 0.01625000000000094771, 1.990051048614565118E-18, 1.500000000000000222 ) ) ;
#43 = CARTESIAN_POINT ( 'NONE',  ( 0.0000000000000000000, 0.0000000000000000000, 0.3180000000000000049 ) ) ;
#44 = DIRECTION ( 'NONE',  ( 0.7071067811865450192, 8.659560562354902043E-17, -0.7071067811865500152 ) ) ;
#45 = CIRCLE ( 'NONE', #190, 0.03125000000000000000 ) ;
#46 =( NAMED_UNIT ( * ) PLANE_ANGLE_UNIT ( ) SI_UNIT ( $, .RADIAN. ) );
#47 =( CONVERSION_BASED_UNIT ( 'INCH', #151 ) LENGTH_UNIT ( ) NAMED_UNIT ( #161 ) );
#48 = FACE_OUTER_BOUND ( 'NONE', #256, .T. ) ;
#49 = EDGE_CURVE ( 'NONE', #184, #218, #270, .T. ) ;
#50 = PRESENTATION_LAYER_ASSIGNMENT (  '', '', ( #80 ) ) ;
#51 = DIRECTION ( 'NONE',  ( 1.000000000000000000, 0.0000000000000000000, 0.0000000000000000000 ) ) ;
#52 = ORIENTED_EDGE ( 'NONE', *, *, #155, .F. ) ;
#53 = EDGE_CURVE ( 'NONE', #7, #218, #45, .T. ) ;
#54 = EDGE_LOOP ( 'NONE', ( #208, #228, #252, #205 ) ) ;
#55 = ORIENTED_EDGE ( 'NONE', *, *, #271, .F. ) ;
#56 = ORIENTED_EDGE ( 'NONE', *, *, #135, .T. ) ;
#57 = EDGE_LOOP ( 'NONE', ( #243, #4, #232, #55 ) ) ;
#58 = VECTOR ( 'NONE', #89, 39.37007874015748143 ) ;
#59 = DIRECTION ( 'NONE',  ( -1.000000000000000000, 0.0000000000000000000, 0.0000000000000000000 ) ) ;
#60 = UNCERTAINTY_MEASURE_WITH_UNIT (LENGTH_MEASURE( 1.000000000000000082E-05 ), #152, 'distance_accuracy_value', 'NONE');
#61 = PRODUCT_DEFINITION_FORMATION_WITH_SPECIFIED_SOURCE ( 'ANY', '', #82, .NOT_KNOWN. ) ;
#62 = CARTESIAN_POINT ( 'NONE',  ( 0.03120000000000003673, 0.0000000000000000000, 0.3180000000000000049 ) ) ;
#63 = CYLINDRICAL_SURFACE ( 'NONE', #88, 0.03125000000000000000 ) ;
#64 = ADVANCED_FACE ( 'NONE', ( #125 ), #110, .T. ) ;
#65 = DIRECTION ( 'NONE',  ( 0.0000000000000000000, 0.0000000000000000000, -1.000000000000000000 ) ) ;
#66 = DIRECTION ( 'NONE',  ( 1.000000000000000000, 0.0000000000000000000, 0.0000000000000000000 ) ) ;
#67 = LINE ( 'NONE', #87, #128 ) ;
#68 = VECTOR ( 'NONE', #72, 39.37007874015748143 ) ;
#69 = LINE ( 'NONE', #214, #179 ) ;
#70 = DIRECTION ( 'NONE',  ( 1.000000000000000000, 0.0000000000000000000, 0.0000000000000000000 ) ) ;
#71 = PRESENTATION_STYLE_ASSIGNMENT (( #276 ) ) ;
#72 = DIRECTION ( 'NONE',  ( -0.8571673007021137769, 1.049727191138620545E-16, 0.5150380749100517130 ) ) ;
#73 = DIRECTION ( 'NONE',  ( -0.0000000000000000000, -0.0000000000000000000, -1.000000000000000000 ) ) ;
#74 = AXIS2_PLACEMENT_3D ( 'NONE', #309, #65, #171 ) ;
#75 = MECHANICAL_DESIGN_GEOMETRIC_PRESENTATION_REPRESENTATION (  '', ( #80 ), #158 ) ;
#76 = SURFACE_SIDE_STYLE ('',( #300 ) ) ;
#77 = PRODUCT_DEFINITION ( 'UNKNOWN', '', #61, #318 ) ;
#78 = DIRECTION ( 'NONE',  ( 1.000000000000000000, 0.0000000000000000000, 0.0000000000000000000 ) ) ;
#79 = AXIS2_PLACEMENT_3D ( 'NONE', #20, #122, #120 ) ;
#80 = STYLED_ITEM ( 'NONE', ( #71 ), #91 ) ;
#81 = ORIENTED_EDGE ( 'NONE', *, *, #114, .T. ) ;
#82 = PRODUCT ( 'Micro_SD-062', 'Micro_SD-062', '', ( #129 ) ) ;
#83 = ORIENTED_EDGE ( 'NONE', *, *, #206, .F. ) ;
#84 = VECTOR ( 'NONE', #98, 39.37007874015748143 ) ;
#85 = VERTEX_POINT ( 'NONE', #312 ) ;
#86 = ORIENTED_EDGE ( 'NONE', *, *, #49, .T. ) ;
#87 = CARTESIAN_POINT ( 'NONE',  ( 0.03120000000000001592, 3.820898013339743869E-18, 0.0000000000000000000 ) ) ;
#88 = AXIS2_PLACEMENT_3D ( 'NONE', #145, #147, #237 ) ;
#89 = DIRECTION ( 'NONE',  ( -0.7071067811865450192, 0.0000000000000000000, -0.7071067811865500152 ) ) ;
#90 = COLOUR_RGB ( '',0.7921568627450980005, 0.8196078431372548767, 0.9333333333333333481 ) ;
#91 = ADVANCED_BREP_SHAPE_REPRESENTATION ( 'Micro_SD-062', ( #258, #255 ), #106 ) ;
#92 = ADVANCED_FACE ( 'NONE', ( #191 ), #35, .T. ) ;
#93 =( NAMED_UNIT ( * ) SI_UNIT ( $, .STERADIAN. ) SOLID_ANGLE_UNIT ( ) );
#94 = FACE_OUTER_BOUND ( 'NONE', #282, .T. ) ;
#95 = LINE ( 'NONE', #173, #84 ) ;
#96 = DIRECTION ( 'NONE',  ( -1.000000000000000000, 0.0000000000000000000, 0.0000000000000000000 ) ) ;
#97 = APPLICATION_PROTOCOL_DEFINITION ( 'draft international standard', 'automotive_design', 1998, #36 ) ;
#98 = DIRECTION ( 'NONE',  ( -0.0000000000000000000, -0.0000000000000000000, -1.000000000000000000 ) ) ;
#99 = CARTESIAN_POINT ( 'NONE',  ( 0.0000000000000000000, 0.0000000000000000000, 39.37007874015748143 ) ) ;
#100 = CONICAL_SURFACE ( 'NONE', #166, 0.03120000000000003673, 0.7853981633974530530 ) ;
#101 = SHAPE_DEFINITION_REPRESENTATION ( #136, #91 ) ;
#102 = FACE_OUTER_BOUND ( 'NONE', #10, .T. ) ;
#103 = ADVANCED_FACE ( 'NONE', ( #167 ), #317, .T. ) ;
#104 = CYLINDRICAL_SURFACE ( 'NONE', #186, 0.03125000000000000000 ) ;
#105 = AXIS2_PLACEMENT_3D ( 'NONE', #12, #264, #217 ) ;
#106 =( GEOMETRIC_REPRESENTATION_CONTEXT ( 3 ) GLOBAL_UNCERTAINTY_ASSIGNED_CONTEXT ( ( #16 ) ) GLOBAL_UNIT_ASSIGNED_CONTEXT ( ( #274, #46, #202 ) ) REPRESENTATION_CONTEXT ( 'NONE', 'WORKASPACE' ) );
#107 = FILL_AREA_STYLE_COLOUR ( '', #90 ) ;
#108 = DIRECTION ( 'NONE',  ( -1.000000000000000000, 0.0000000000000000000, 0.0000000000000000000 ) ) ;
#109 = UNCERTAINTY_MEASURE_WITH_UNIT (LENGTH_MEASURE( 1.000000000000000082E-05 ), #47, 'distance_accuracy_value', 'NONE');
#110 = CONICAL_SURFACE ( 'NONE', #14, 65.52281426576885792, 1.029744258676657420 ) ;
#111 = VERTEX_POINT ( 'NONE', #11 ) ;
#112 = ORIENTED_EDGE ( 'NONE', *, *, #118, .F. ) ;
#113 = CIRCLE ( 'NONE', #286, 0.03120000000000003673 ) ;
#114 = EDGE_CURVE ( 'NONE', #218, #7, #293, .T. ) ;
#115 = ORIENTED_EDGE ( 'NONE', *, *, #304, .F. ) ;
#116 = ORIENTED_EDGE ( 'NONE', *, *, #135, .F. ) ;
#117 = CARTESIAN_POINT ( 'NONE',  ( -0.01625000000000094771, 0.0000000000000000000, 1.500000000000000222 ) ) ;
#118 = EDGE_CURVE ( 'NONE', #7, #141, #220, .T. ) ;
#119 =( GEOMETRIC_REPRESENTATION_CONTEXT ( 3 ) GLOBAL_UNCERTAINTY_ASSIGNED_CONTEXT ( ( #60 ) ) GLOBAL_UNIT_ASSIGNED_CONTEXT ( ( #152, #311, #93 ) ) REPRESENTATION_CONTEXT ( 'NONE', 'WORKASPACE' ) );
#120 = DIRECTION ( 'NONE',  ( 1.000000000000000000, 0.0000000000000000000, 0.0000000000000000000 ) ) ;
#121 = DIRECTION ( 'NONE',  ( 0.0000000000000000000, 0.0000000000000000000, 1.000000000000000000 ) ) ;
#122 = DIRECTION ( 'NONE',  ( -0.0000000000000000000, -0.0000000000000000000, -1.000000000000000000 ) ) ;
#123 = DIRECTION ( 'NONE',  ( -0.0000000000000000000, -0.0000000000000000000, -1.000000000000000000 ) ) ;
#124 = CARTESIAN_POINT ( 'NONE',  ( 0.0000000000000000000, 0.0000000000000000000, 0.0000000000000000000 ) ) ;
#125 = FACE_OUTER_BOUND ( 'NONE', #164, .T. ) ;
#126 = ADVANCED_FACE ( 'NONE', ( #37 ), #63, .T. ) ;
#127 = DIRECTION ( 'NONE',  ( 1.000000000000000000, 0.0000000000000000000, 0.0000000000000000000 ) ) ;
#128 = VECTOR ( 'NONE', #174, 39.37007874015748143 ) ;
#129 = PRODUCT_CONTEXT ( 'NONE', #36, 'mechanical' ) ;
#130 = CARTESIAN_POINT ( 'NONE',  ( 0.0000000000000000000, 0.0000000000000000000, 0.3180499999999999994 ) ) ;
#131 = EDGE_CURVE ( 'NONE', #284, #85, #241, .T. ) ;
#132 = ORIENTED_EDGE ( 'NONE', *, *, #9, .F. ) ;
#133 = CIRCLE ( 'NONE', #153, 0.01625000000000094771 ) ;
#134 = CARTESIAN_POINT ( 'NONE',  ( 0.0000000000000000000, 0.0000000000000000000, 1.500000000000000222 ) ) ;
#135 = EDGE_CURVE ( 'NONE', #163, #111, #149, .T. ) ;
#136 = PRODUCT_DEFINITION_SHAPE ( 'NONE', 'NONE',  #77 ) ;
#137 = ORIENTED_EDGE ( 'NONE', *, *, #41, .T. ) ;
#138 = AXIS2_PLACEMENT_3D ( 'NONE', #265, #192, #96 ) ;
#139 = VERTEX_POINT ( 'NONE', #150 ) ;
#140 = EDGE_CURVE ( 'NONE', #284, #31, #321, .T. ) ;
#141 = VERTEX_POINT ( 'NONE', #244 ) ;
#142 = CIRCLE ( 'NONE', #2, 0.03119999999999999857 ) ;
#143 = DIRECTION ( 'NONE',  ( -1.000000000000000000, 0.0000000000000000000, 0.0000000000000000000 ) ) ;
#144 = DIRECTION ( 'NONE',  ( -0.0000000000000000000, -0.0000000000000000000, -1.000000000000000000 ) ) ;
#145 = CARTESIAN_POINT ( 'NONE',  ( 0.0000000000000000000, 0.0000000000000000000, 1.500000000000000222 ) ) ;
#146 = SURFACE_STYLE_FILL_AREA ( #297 ) ;
#147 = DIRECTION ( 'NONE',  ( -0.0000000000000000000, -0.0000000000000000000, -1.000000000000000000 ) ) ;
#148 = FACE_OUTER_BOUND ( 'NONE', #188, .T. ) ;
#149 = LINE ( 'NONE', #193, #310 ) ;
#150 = CARTESIAN_POINT ( 'NONE',  ( 0.03120000000000003673, 0.0000000000000000000, 0.3180000000000000049 ) ) ;
#151 = LENGTH_MEASURE_WITH_UNIT ( LENGTH_MEASURE( 0.02539999999999999897 ), #320 );
#152 =( CONVERSION_BASED_UNIT ( 'INCH', #262 ) LENGTH_UNIT ( ) NAMED_UNIT ( #225 ) );
#153 = AXIS2_PLACEMENT_3D ( 'NONE', #301, #201, #78 ) ;
#154 = CARTESIAN_POINT ( 'NONE',  ( 0.0000000000000000000, 0.0000000000000000000, 0.0000000000000000000 ) ) ;
#155 = EDGE_CURVE ( 'NONE', #163, #31, #69, .T. ) ;
#156 = CARTESIAN_POINT ( 'NONE',  ( 0.0000000000000000000, 0.0000000000000000000, 1.485000000000000986 ) ) ;
#157 = CIRCLE ( 'NONE', #195, 0.01625000000000094771 ) ;
#158 =( GEOMETRIC_REPRESENTATION_CONTEXT ( 3 ) GLOBAL_UNCERTAINTY_ASSIGNED_CONTEXT ( ( #109 ) ) GLOBAL_UNIT_ASSIGNED_CONTEXT ( ( #47, #198, #22 ) ) REPRESENTATION_CONTEXT ( 'NONE', 'WORKASPACE' ) );
#159 = DIRECTION ( 'NONE',  ( -1.000000000000000000, 0.0000000000000000000, 0.0000000000000000000 ) ) ;
#160 = ORIENTED_EDGE ( 'NONE', *, *, #118, .T. ) ;
#161 = DIMENSIONAL_EXPONENTS ( 1.000000000000000000, 0.0000000000000000000, 0.0000000000000000000, 0.0000000000000000000, 0.0000000000000000000, 0.0000000000000000000, 0.0000000000000000000 ) ;
#162 = ORIENTED_EDGE ( 'NONE', *, *, #271, .T. ) ;
#163 = VERTEX_POINT ( 'NONE', #221 ) ;
#164 = EDGE_LOOP ( 'NONE', ( #13, #231, #162 ) ) ;
#165 = ORIENTED_EDGE ( 'NONE', *, *, #131, .F. ) ;
#166 = AXIS2_PLACEMENT_3D ( 'NONE', #222, #267, #127 ) ;
#167 = FACE_OUTER_BOUND ( 'NONE', #307, .T. ) ;
#168 = DIRECTION ( 'NONE',  ( -0.7071067811865509034, 8.659560562354974766E-17, 0.7071067811865441310 ) ) ;
#169 = CARTESIAN_POINT ( 'NONE',  ( 0.0000000000000000000, 0.0000000000000000000, 0.01874685131365976323 ) ) ;
#170 = CARTESIAN_POINT ( 'NONE',  ( 0.0000000000000000000, 0.0000000000000000000, 1.500000000000000222 ) ) ;
#171 = DIRECTION ( 'NONE',  ( 1.000000000000000000, 0.0000000000000000000, 0.0000000000000000000 ) ) ;
#172 = AXIS2_PLACEMENT_3D ( 'NONE', #196, #298, #108 ) ;
#173 = CARTESIAN_POINT ( 'NONE',  ( -0.03125000000000000000, 0.0000000000000000000, 1.500000000000000222 ) ) ;
#174 = DIRECTION ( 'NONE',  ( -0.0000000000000000000, -0.0000000000000000000, -1.000000000000000000 ) ) ;
#175 = DIRECTION ( 'NONE',  ( 0.0000000000000000000, 0.0000000000000000000, 1.000000000000000000 ) ) ;
#176 = CARTESIAN_POINT ( 'NONE',  ( -0.03119999999999999857, 0.0000000000000000000, 0.01874685131365976323 ) ) ;
#177 = FILL_AREA_STYLE_COLOUR ( '', #253 ) ;
#178 = DIRECTION ( 'NONE',  ( 1.000000000000000000, 0.0000000000000000000, 0.0000000000000000000 ) ) ;
#179 = VECTOR ( 'NONE', #144, 39.37007874015748143 ) ;
#180 = DIRECTION ( 'NONE',  ( 0.0000000000000000000, 0.0000000000000000000, -1.000000000000000000 ) ) ;
#181 = CARTESIAN_POINT ( 'NONE',  ( 0.0000000000000000000, 0.0000000000000000000, 0.0000000000000000000 ) ) ;
#182 = DIRECTION ( 'NONE',  ( -1.000000000000000000, 0.0000000000000000000, 0.0000000000000000000 ) ) ;
#183 = EDGE_CURVE ( 'NONE', #24, #184, #157, .T. ) ;
#184 = VERTEX_POINT ( 'NONE', #269 ) ;
#185 = ORIENTED_EDGE ( 'NONE', *, *, #41, .F. ) ;
#186 = AXIS2_PLACEMENT_3D ( 'NONE', #134, #249, #182 ) ;
#187 = ORIENTED_EDGE ( 'NONE', *, *, #304, .T. ) ;
#188 = EDGE_LOOP ( 'NONE', ( #303, #285 ) ) ;
#189 = DIRECTION ( 'NONE',  ( 0.0000000000000000000, 0.0000000000000000000, -1.000000000000000000 ) ) ;
#190 = AXIS2_PLACEMENT_3D ( 'NONE', #156, #189, #290 ) ;
#191 = FACE_OUTER_BOUND ( 'NONE', #57, .T. ) ;
#192 = DIRECTION ( 'NONE',  ( -0.0000000000000000000, -0.0000000000000000000, -1.000000000000000000 ) ) ;
#193 = CARTESIAN_POINT ( 'NONE',  ( -0.03120000000000003673, 3.820898013339746180E-18, 0.3180000000000000049 ) ) ;
#194 = DIRECTION ( 'NONE',  ( -1.000000000000000000, 0.0000000000000000000, 0.0000000000000000000 ) ) ;
#195 = AXIS2_PLACEMENT_3D ( 'NONE', #170, #175, #66 ) ;
#196 = CARTESIAN_POINT ( 'NONE',  ( 0.0000000000000000000, 0.0000000000000000000, 0.01874685131365976323 ) ) ;
#197 = CARTESIAN_POINT ( 'NONE',  ( 0.01625000000000094771, 2.908536147975021753E-18, 1.500000000000000222 ) ) ;
#198 =( NAMED_UNIT ( * ) PLANE_ANGLE_UNIT ( ) SI_UNIT ( $, .RADIAN. ) );
#199 = PLANE ( 'NONE',  #273 ) ;
#200 = EDGE_CURVE ( 'NONE', #139, #141, #236, .T. ) ;
#201 = DIRECTION ( 'NONE',  ( 0.0000000000000000000, 0.0000000000000000000, 1.000000000000000000 ) ) ;
#202 =( NAMED_UNIT ( * ) SI_UNIT ( $, .STERADIAN. ) SOLID_ANGLE_UNIT ( ) );
#203 = FILL_AREA_STYLE ('',( #107 ) ) ;
#204 = FACE_OUTER_BOUND ( 'NONE', #279, .T. ) ;
#205 = ORIENTED_EDGE ( 'NONE', *, *, #49, .F. ) ;
#206 = EDGE_CURVE ( 'NONE', #141, #111, #29, .T. ) ;
#207 = EDGE_LOOP ( 'NONE', ( #81, #160, #115, #230 ) ) ;
#208 = ORIENTED_EDGE ( 'NONE', *, *, #183, .F. ) ;
#209 = CIRCLE ( 'NONE', #260, 0.03120000000000003673 ) ;
#210 = ORIENTED_EDGE ( 'NONE', *, *, #9, .T. ) ;
#211 = ADVANCED_FACE ( 'NONE', ( #219 ), #319, .T. ) ;
#212 = ORIENTED_EDGE ( 'NONE', *, *, #206, .T. ) ;
#213 = CARTESIAN_POINT ( 'NONE',  ( 0.03125000000000000000, 3.827021247335478002E-18, 1.485000000000000986 ) ) ;
#214 = CARTESIAN_POINT ( 'NONE',  ( -0.03120000000000001592, 0.0000000000000000000, 0.0000000000000000000 ) ) ;
#215 = DIRECTION ( 'NONE',  ( 0.0000000000000000000, 0.0000000000000000000, 1.000000000000000000 ) ) ;
#216 = EDGE_CURVE ( 'NONE', #218, #111, #95, .T. ) ;
#217 = DIRECTION ( 'NONE',  ( -1.000000000000000000, 0.0000000000000000000, 0.0000000000000000000 ) ) ;
#218 = VERTEX_POINT ( 'NONE', #291 ) ;
#219 = FACE_OUTER_BOUND ( 'NONE', #54, .T. ) ;
#220 = LINE ( 'NONE', #314, #6 ) ;
#221 = CARTESIAN_POINT ( 'NONE',  ( -0.03120000000000003673, 3.823959630337612091E-18, 0.3180000000000000049 ) ) ;
#222 = CARTESIAN_POINT ( 'NONE',  ( 0.0000000000000000000, 0.0000000000000000000, 0.3180000000000000049 ) ) ;
#223 = CARTESIAN_POINT ( 'NONE',  ( 0.0000000000000000000, 0.0000000000000000000, 0.3180000000000000049 ) ) ;
#224 = MECHANICAL_DESIGN_GEOMETRIC_PRESENTATION_REPRESENTATION (  '', ( #277 ), #119 ) ;
#225 = DIMENSIONAL_EXPONENTS ( 1.000000000000000000, 0.0000000000000000000, 0.0000000000000000000, 0.0000000000000000000, 0.0000000000000000000, 0.0000000000000000000, 0.0000000000000000000 ) ;
#226 = PRODUCT_RELATED_PRODUCT_CATEGORY ( 'part', '', ( #82 ) ) ;
#227 = CARTESIAN_POINT ( 'NONE',  ( 0.0000000000000000000, 0.0000000000000000000, 1.500000000000000222 ) ) ;
#228 = ORIENTED_EDGE ( 'NONE', *, *, #238, .T. ) ;
#229 = VECTOR ( 'NONE', #292, 39.37007874015748143 ) ;
#230 = ORIENTED_EDGE ( 'NONE', *, *, #216, .F. ) ;
#231 = ORIENTED_EDGE ( 'NONE', *, *, #131, .T. ) ;
#232 = ORIENTED_EDGE ( 'NONE', *, *, #155, .T. ) ;
#233 = VECTOR ( 'NONE', #44, 39.37007874015748143 ) ;
#234 = ADVANCED_FACE ( 'NONE', ( #102 ), #100, .T. ) ;
#235 = DIRECTION ( 'NONE',  ( -1.000000000000000000, 0.0000000000000000000, 0.0000000000000000000 ) ) ;
#236 = LINE ( 'NONE', #62, #239 ) ;
#237 = DIRECTION ( 'NONE',  ( -1.000000000000000000, 0.0000000000000000000, 0.0000000000000000000 ) ) ;
#238 = EDGE_CURVE ( 'NONE', #24, #7, #38, .T. ) ;
#239 = VECTOR ( 'NONE', #313, 39.37007874015748143 ) ;
#240 = SURFACE_SIDE_STYLE ('',( #146 ) ) ;
#241 = LINE ( 'NONE', #268, #229 ) ;
#242 = CARTESIAN_POINT ( 'NONE',  ( 0.0000000000000000000, 0.0000000000000000000, 1.500000000000000222 ) ) ;
#243 = ORIENTED_EDGE ( 'NONE', *, *, #34, .F. ) ;
#244 = CARTESIAN_POINT ( 'NONE',  ( 0.03125000000000000000, 3.827021247335478002E-18, 0.3180499999999999994 ) ) ;
#245 = AXIS2_PLACEMENT_3D ( 'NONE', #23, #27, #51 ) ;
#246 = DIRECTION ( 'NONE',  ( 1.000000000000000000, 0.0000000000000000000, 0.0000000000000000000 ) ) ;
#247 = DIMENSIONAL_EXPONENTS ( 1.000000000000000000, 0.0000000000000000000, 0.0000000000000000000, 0.0000000000000000000, 0.0000000000000000000, 0.0000000000000000000, 0.0000000000000000000 ) ;
#248 = ADVANCED_FACE ( 'NONE', ( #148 ), #199, .T. ) ;
#249 = DIRECTION ( 'NONE',  ( -0.0000000000000000000, -0.0000000000000000000, -1.000000000000000000 ) ) ;
#250 = CLOSED_SHELL ( 'NONE', ( #278, #103, #234, #211, #275, #126, #248, #287, #26, #92, #64 ) ) ;
#251 = LENGTH_MEASURE_WITH_UNIT ( LENGTH_MEASURE( 0.02539999999999999897 ), #25 );
#252 = ORIENTED_EDGE ( 'NONE', *, *, #114, .F. ) ;
#253 = COLOUR_RGB ( '',0.7921568627450980005, 0.8196078431372548767, 0.9333333333333333481 ) ;
#254 = ORIENTED_EDGE ( 'NONE', *, *, #238, .F. ) ;
#255 = AXIS2_PLACEMENT_3D ( 'NONE', #154, #21, #315 ) ;
#256 = EDGE_LOOP ( 'NONE', ( #254, #305, #86, #257 ) ) ;
#257 = ORIENTED_EDGE ( 'NONE', *, *, #53, .F. ) ;
#258 = MANIFOLD_SOLID_BREP ( 'Cut-Revolve2', #250 ) ;
#259 = ORIENTED_EDGE ( 'NONE', *, *, #216, .T. ) ;
#260 = AXIS2_PLACEMENT_3D ( 'NONE', #223, #123, #143 ) ;
#261 = DIRECTION ( 'NONE',  ( -0.0000000000000000000, -0.0000000000000000000, -1.000000000000000000 ) ) ;
#262 = LENGTH_MEASURE_WITH_UNIT ( LENGTH_MEASURE( 0.02539999999999999897 ), #294 );
#263 = DIRECTION ( 'NONE',  ( -0.0000000000000000000, -0.0000000000000000000, -1.000000000000000000 ) ) ;
#264 = DIRECTION ( 'NONE',  ( 0.0000000000000000000, 0.0000000000000000000, -1.000000000000000000 ) ) ;
#265 = CARTESIAN_POINT ( 'NONE',  ( 0.0000000000000000000, 0.0000000000000000000, 0.0000000000000000000 ) ) ;
#266 = AXIS2_PLACEMENT_3D ( 'NONE', #227, #180, #159 ) ;
#267 = DIRECTION ( 'NONE',  ( 0.0000000000000000000, 0.0000000000000000000, 1.000000000000000000 ) ) ;
#268 = CARTESIAN_POINT ( 'NONE',  ( 0.0000000000000000000, 0.0000000000000000000, 0.0000000000000000000 ) ) ;
#269 = CARTESIAN_POINT ( 'NONE',  ( -0.01625000000000094771, 0.0000000000000000000, 1.500000000000000222 ) ) ;
#270 = LINE ( 'NONE', #117, #58 ) ;
#271 = EDGE_CURVE ( 'NONE', #85, #31, #323, .T. ) ;
#272 = CONICAL_SURFACE ( 'NONE', #32, 0.03120000000000003673, 0.7853981633974530530 ) ;
#273 = AXIS2_PLACEMENT_3D ( 'NONE', #242, #316, #17 ) ;
#274 =( CONVERSION_BASED_UNIT ( 'INCH', #251 ) LENGTH_UNIT ( ) NAMED_UNIT ( #247 ) );
#275 = ADVANCED_FACE ( 'NONE', ( #1 ), #104, .T. ) ;
#276 = SURFACE_STYLE_USAGE ( .BOTH. , #76 ) ;
#277 = STYLED_ITEM ( 'NONE', ( #289 ), #258 ) ;
#278 = ADVANCED_FACE ( 'NONE', ( #204 ), #40, .T. ) ;
#279 = EDGE_LOOP ( 'NONE', ( #165, #33, #137 ) ) ;
#280 = ORIENTED_EDGE ( 'NONE', *, *, #200, .T. ) ;
#281 = PRESENTATION_LAYER_ASSIGNMENT (  '', '', ( #277 ) ) ;
#282 = EDGE_LOOP ( 'NONE', ( #116, #5, #280, #212 ) ) ;
#283 = ORIENTED_EDGE ( 'NONE', *, *, #200, .F. ) ;
#284 = VERTEX_POINT ( 'NONE', #181 ) ;
#285 = ORIENTED_EDGE ( 'NONE', *, *, #183, .T. ) ;
#286 = AXIS2_PLACEMENT_3D ( 'NONE', #295, #261, #194 ) ;
#287 = ADVANCED_FACE ( 'NONE', ( #48 ), #299, .T. ) ;
#288 = DIRECTION ( 'NONE',  ( -0.0000000000000000000, -0.0000000000000000000, -1.000000000000000000 ) ) ;
#289 = PRESENTATION_STYLE_ASSIGNMENT (( #322 ) ) ;
#290 = DIRECTION ( 'NONE',  ( 1.000000000000000000, 0.0000000000000000000, 0.0000000000000000000 ) ) ;
#291 = CARTESIAN_POINT ( 'NONE',  ( -0.03125000000000000000, 0.0000000000000000000, 1.485000000000000986 ) ) ;
#292 = DIRECTION ( 'NONE',  ( 0.8571673007021137769, 0.0000000000000000000, 0.5150380749100517130 ) ) ;
#293 = CIRCLE ( 'NONE', #74, 0.03125000000000000000 ) ;
#294 =( LENGTH_UNIT ( ) NAMED_UNIT ( * ) SI_UNIT ( $, .METRE. ) );
#295 = CARTESIAN_POINT ( 'NONE',  ( 0.0000000000000000000, 0.0000000000000000000, 0.3180000000000000049 ) ) ;
#296 = EDGE_CURVE ( 'NONE', #184, #24, #133, .T. ) ;
#297 = FILL_AREA_STYLE ('',( #177 ) ) ;
#298 = DIRECTION ( 'NONE',  ( -0.0000000000000000000, -0.0000000000000000000, -1.000000000000000000 ) ) ;
#299 = CONICAL_SURFACE ( 'NONE', #266, 0.01625000000000094771, 0.7853981633974447263 ) ;
#300 = SURFACE_STYLE_FILL_AREA ( #203 ) ;
#301 = CARTESIAN_POINT ( 'NONE',  ( 0.0000000000000000000, 0.0000000000000000000, 1.500000000000000222 ) ) ;
#302 = AXIS2_PLACEMENT_3D ( 'NONE', #39, #263, #235 ) ;
#303 = ORIENTED_EDGE ( 'NONE', *, *, #296, .T. ) ;
#304 = EDGE_CURVE ( 'NONE', #111, #141, #306, .T. ) ;
#305 = ORIENTED_EDGE ( 'NONE', *, *, #296, .F. ) ;
#306 = CIRCLE ( 'NONE', #8, 0.03125000000000000000 ) ;
#307 = EDGE_LOOP ( 'NONE', ( #210, #3, #185, #52 ) ) ;
#308 = APPLICATION_CONTEXT ( 'automotive_design' ) ;
#309 = CARTESIAN_POINT ( 'NONE',  ( 0.0000000000000000000, 0.0000000000000000000, 1.485000000000000986 ) ) ;
#310 = VECTOR ( 'NONE', #168, 39.37007874015748143 ) ;
#311 =( NAMED_UNIT ( * ) PLANE_ANGLE_UNIT ( ) SI_UNIT ( $, .RADIAN. ) );
#312 = CARTESIAN_POINT ( 'NONE',  ( 0.03119999999999999857, 3.820898013339743098E-18, 0.01874685131365976323 ) ) ;
#313 = DIRECTION ( 'NONE',  ( 0.7071067811865509034, 0.0000000000000000000, 0.7071067811865441310 ) ) ;
#314 = CARTESIAN_POINT ( 'NONE',  ( 0.03125000000000000000, 3.827021247335478002E-18, 1.500000000000000222 ) ) ;
#315 = DIRECTION ( 'NONE',  ( 1.000000000000000000, 0.0000000000000000000, 0.0000000000000000000 ) ) ;
#316 = DIRECTION ( 'NONE',  ( 0.0000000000000000000, 0.0000000000000000000, 1.000000000000000000 ) ) ;
#317 = CYLINDRICAL_SURFACE ( 'NONE', #302, 0.03120000000000001592 ) ;
#318 = PRODUCT_DEFINITION_CONTEXT ( 'detailed design', #308, 'design' ) ;
#319 = CONICAL_SURFACE ( 'NONE', #105, 0.01625000000000094771, 0.7853981633974447263 ) ;
#320 =( LENGTH_UNIT ( ) NAMED_UNIT ( * ) SI_UNIT ( $, .METRE. ) );
#321 = LINE ( 'NONE', #124, #68 ) ;
#322 = SURFACE_STYLE_USAGE ( .BOTH. , #240 ) ;
#323 = CIRCLE ( 'NONE', #172, 0.03119999999999999857 ) ;
ENDSEC;
END-ISO-10303-21;
