ISO-10303-21;
HEADER;
FILE_DESCRIPTION (( 'STEP AP214' ),
    '1' );
FILE_NAME ('82265W.STEP',
    '2023-06-23T04:47:07',
    ( '' ),
    ( '' ),
    'SwSTEP 2.0',
    'SolidWorks 2023',
    '' );
FILE_SCHEMA (( 'AUTOMOTIVE_DESIGN' ));
ENDSEC;

DATA;
#1 = ORIENTED_EDGE ( 'NONE', *, *, #252, .F. ) ;
#2 = DIRECTION ( 'NONE',  ( 0.000000000000000000, 0.000000000000000000, -1.000000000000000000 ) ) ;
#3 = ORIENTED_EDGE ( 'NONE', *, *, #193, .F. ) ;
#4 = ORIENTED_EDGE ( 'NONE', *, *, #213, .T. ) ;
#5 = COLOUR_RGB ( '',1.000000000000000000, 0.000000000000000000, 0.000000000000000000 ) ;
#6 = AXIS2_PLACEMENT_3D ( 'NONE', #11, #34, #66 ) ;
#7 =( NAMED_UNIT ( * ) SI_UNIT ( $, .STERADIAN. ) SOLID_ANGLE_UNIT ( ) );
#8 = CYLINDRICAL_SURFACE ( 'NONE', #78, 0.1250000000000000278 ) ;
#9 = CARTESIAN_POINT ( 'NONE',  ( 7.582401355855259480E-33, 1.000000000000000000, 0.000000000000000000 ) ) ;
#10 =( NAMED_UNIT ( * ) SI_UNIT ( $, .STERADIAN. ) SOLID_ANGLE_UNIT ( ) );
#11 = CARTESIAN_POINT ( 'NONE',  ( -6.123233995736772199E-17, 3.000000000000000444, 0.000000000000000000 ) ) ;
#12 = DIRECTION ( 'NONE',  ( 0.000000000000000000, 0.000000000000000000, -1.000000000000000000 ) ) ;
#13 = LENGTH_MEASURE_WITH_UNIT ( LENGTH_MEASURE( 0.02539999999999999897 ), #286 );
#14 = PRESENTATION_LAYER_ASSIGNMENT (  '', '', ( #84 ) ) ;
#15 = FACE_OUTER_BOUND ( 'NONE', #247, .T. ) ;
#16 = DIRECTION ( 'NONE',  ( 0.000000000000000000, 0.000000000000000000, 1.000000000000000000 ) ) ;
#17 = SURFACE_STYLE_USAGE ( .BOTH. , #261 ) ;
#18 = EDGE_LOOP ( 'NONE', ( #262, #228, #31, #3 ) ) ;
#19 = CARTESIAN_POINT ( 'NONE',  ( 0.000000000000000000, 1.000000000000000000, 0.000000000000000000 ) ) ;
#20 = CIRCLE ( 'NONE', #240, 0.1250000000000000000 ) ;
#21 = CARTESIAN_POINT ( 'NONE',  ( 0.000000000000000000, 0.000000000000000000, 0.000000000000000000 ) ) ;
#22 = ORIENTED_EDGE ( 'NONE', *, *, #138, .F. ) ;
#23 = CARTESIAN_POINT ( 'NONE',  ( 0.000000000000000000, 0.000000000000000000, -0.1250000000000000000 ) ) ;
#24 = ORIENTED_EDGE ( 'NONE', *, *, #265, .F. ) ;
#25 = STYLED_ITEM ( 'NONE', ( #241 ), #173 ) ;
#26 = CARTESIAN_POINT ( 'NONE',  ( 5.858436651022893041E-35, 1.000000000000000000, 0.000000000000000000 ) ) ;
#27 = CYLINDRICAL_SURFACE ( 'NONE', #190, 0.1250000000000000000 ) ;
#28 = ADVANCED_FACE ( 'NONE', ( #183 ), #178, .T. ) ;
#29 = CARTESIAN_POINT ( 'NONE',  ( 1.530808498934191509E-17, 1.000000000000000000, 0.1250000000000000000 ) ) ;
#30 = FILL_AREA_STYLE ('',( #79 ) ) ;
#31 = ORIENTED_EDGE ( 'NONE', *, *, #138, .T. ) ;
#32 = PRODUCT_DEFINITION_FORMATION_WITH_SPECIFIED_SOURCE ( 'ANY', '', #285, .NOT_KNOWN. ) ;
#33 =( NAMED_UNIT ( * ) PLANE_ANGLE_UNIT ( ) SI_UNIT ( $, .RADIAN. ) );
#34 = DIRECTION ( 'NONE',  ( -3.061616997868386099E-17, 1.000000000000000000, -0.000000000000000000 ) ) ;
#35 = ADVANCED_FACE ( 'NONE', ( #245 ), #27, .T. ) ;
#36 = CLOSED_SHELL ( 'NONE', ( #173, #162, #35, #28 ) ) ;
#37 = STYLED_ITEM ( 'NONE', ( #211 ), #47 ) ;
#38 = SURFACE_STYLE_USAGE ( .BOTH. , #166 ) ;
#39 = CARTESIAN_POINT ( 'NONE',  ( 0.000000000000000000, 0.000000000000000000, 0.000000000000000000 ) ) ;
#40 = EDGE_CURVE ( 'NONE', #163, #281, #239, .T. ) ;
#41 =( CONVERSION_BASED_UNIT ( 'INCH', #13 ) LENGTH_UNIT ( ) NAMED_UNIT ( #294 ) );
#42 = COLOUR_RGB ( '',1.000000000000000000, 0.000000000000000000, 0.000000000000000000 ) ;
#43 = SURFACE_STYLE_FILL_AREA ( #301 ) ;
#44 = ORIENTED_EDGE ( 'NONE', *, *, #199, .F. ) ;
#45 = PRESENTATION_STYLE_ASSIGNMENT (( #17 ) ) ;
#46 = PLANE ( 'NONE',  #90 ) ;
#47 = MANIFOLD_SOLID_BREP ( 'Revolve - Cutting Edge', #36 ) ;
#48 =( NAMED_UNIT ( * ) SI_UNIT ( $, .STERADIAN. ) SOLID_ANGLE_UNIT ( ) );
#49 = MECHANICAL_DESIGN_GEOMETRIC_PRESENTATION_REPRESENTATION (  '', ( #25 ), #222 ) ;
#50 = FACE_OUTER_BOUND ( 'NONE', #74, .T. ) ;
#51 = EDGE_CURVE ( 'NONE', #292, #287, #191, .T. ) ;
#52 = SURFACE_STYLE_FILL_AREA ( #30 ) ;
#53 = APPLICATION_CONTEXT ( 'automotive_design' ) ;
#54 =( LENGTH_UNIT ( ) NAMED_UNIT ( * ) SI_UNIT ( $, .METRE. ) );
#55 = DIRECTION ( 'NONE',  ( 0.000000000000000000, -1.000000000000000000, -0.000000000000000000 ) ) ;
#56 = STYLED_ITEM ( 'NONE', ( #45 ), #156 ) ;
#57 =( CONVERSION_BASED_UNIT ( 'INCH', #266 ) LENGTH_UNIT ( ) NAMED_UNIT ( #256 ) );
#58 = VERTEX_POINT ( 'NONE', #209 ) ;
#59 = UNCERTAINTY_MEASURE_WITH_UNIT (LENGTH_MEASURE( 1.000000000000000082E-05 ), #192, 'distance_accuracy_value', 'NONE');
#60 = EDGE_LOOP ( 'NONE', ( #24, #81 ) ) ;
#61 = CARTESIAN_POINT ( 'NONE',  ( 0.000000000000000000, 0.000000000000000000, 0.000000000000000000 ) ) ;
#62 = STYLED_ITEM ( 'NONE', ( #303 ), #162 ) ;
#63 = DIRECTION ( 'NONE',  ( -3.061616997868386099E-17, 1.000000000000000000, -0.000000000000000000 ) ) ;
#64 = ADVANCED_FACE ( 'NONE', ( #185 ), #8, .T. ) ;
#65 = DIRECTION ( 'NONE',  ( -1.000000000000000000, 0.000000000000000000, 0.000000000000000000 ) ) ;
#66 = DIRECTION ( 'NONE',  ( -1.000000000000000000, 0.000000000000000000, 0.000000000000000000 ) ) ;
#67 = PRESENTATION_LAYER_ASSIGNMENT (  '', '', ( #307 ) ) ;
#68 = UNCERTAINTY_MEASURE_WITH_UNIT (LENGTH_MEASURE( 1.000000000000000082E-05 ), #57, 'distance_accuracy_value', 'NONE');
#69 =( NAMED_UNIT ( * ) PLANE_ANGLE_UNIT ( ) SI_UNIT ( $, .RADIAN. ) );
#70 = LENGTH_MEASURE_WITH_UNIT ( LENGTH_MEASURE( 0.02539999999999999897 ), #123 );
#71 = MECHANICAL_DESIGN_GEOMETRIC_PRESENTATION_REPRESENTATION (  '', ( #62 ), #207 ) ;
#72 = CARTESIAN_POINT ( 'NONE',  ( 0.000000000000000000, 1.000000000000000000, -0.1250000000000000000 ) ) ;
#73 = DIRECTION ( 'NONE',  ( 3.061616997868386099E-17, -1.000000000000000000, 0.000000000000000000 ) ) ;
#74 = EDGE_LOOP ( 'NONE', ( #1, #289 ) ) ;
#75 = CARTESIAN_POINT ( 'NONE',  ( 0.000000000000000000, 0.000000000000000000, -0.1250000000000000000 ) ) ;
#76 = EDGE_CURVE ( 'NONE', #132, #58, #131, .T. ) ;
#77 = DIRECTION ( 'NONE',  ( 0.000000000000000000, 0.000000000000000000, -1.000000000000000000 ) ) ;
#78 = AXIS2_PLACEMENT_3D ( 'NONE', #92, #293, #65 ) ;
#79 = FILL_AREA_STYLE_COLOUR ( '', #102 ) ;
#80 = EDGE_LOOP ( 'NONE', ( #308, #4, #201, #22 ) ) ;
#81 = ORIENTED_EDGE ( 'NONE', *, *, #82, .F. ) ;
#82 = EDGE_CURVE ( 'NONE', #221, #161, #309, .T. ) ;
#83 = SURFACE_STYLE_USAGE ( .BOTH. , #288 ) ;
#84 = STYLED_ITEM ( 'NONE', ( #136 ), #28 ) ;
#85 = SURFACE_STYLE_USAGE ( .BOTH. , #104 ) ;
#86 = VECTOR ( 'NONE', #243, 39.37007874015748143 ) ;
#87 = CARTESIAN_POINT ( 'NONE',  ( 0.000000000000000000, 1.000000000000000000, 0.000000000000000000 ) ) ;
#88 = ORIENTED_EDGE ( 'NONE', *, *, #276, .T. ) ;
#89 = DIRECTION ( 'NONE',  ( -0.000000000000000000, -1.000000000000000000, -0.000000000000000000 ) ) ;
#90 = AXIS2_PLACEMENT_3D ( 'NONE', #19, #122, #197 ) ;
#91 = UNCERTAINTY_MEASURE_WITH_UNIT (LENGTH_MEASURE( 1.000000000000000082E-05 ), #144, 'distance_accuracy_value', 'NONE');
#92 = CARTESIAN_POINT ( 'NONE',  ( -6.123233995736772199E-17, 3.000000000000000444, 0.000000000000000000 ) ) ;
#93 = DIRECTION ( 'NONE',  ( 1.000000000000000000, 3.061616997868386099E-17, 0.000000000000000000 ) ) ;
#94 = FILL_AREA_STYLE_COLOUR ( '', #111 ) ;
#95 =( GEOMETRIC_REPRESENTATION_CONTEXT ( 3 ) GLOBAL_UNCERTAINTY_ASSIGNED_CONTEXT ( ( #253 ) ) GLOBAL_UNIT_ASSIGNED_CONTEXT ( ( #170, #33, #113 ) ) REPRESENTATION_CONTEXT ( 'NONE', 'WORKASPACE' ) );
#96 = AXIS2_PLACEMENT_3D ( 'NONE', #9, #63, #251 ) ;
#97 =( CONVERSION_BASED_UNIT ( 'INCH', #70 ) LENGTH_UNIT ( ) NAMED_UNIT ( #107 ) );
#98 = ORIENTED_EDGE ( 'NONE', *, *, #51, .T. ) ;
#99 =( NAMED_UNIT ( * ) PLANE_ANGLE_UNIT ( ) SI_UNIT ( $, .RADIAN. ) );
#100 = PRODUCT_DEFINITION ( 'UNKNOWN', '', #32, #167 ) ;
#101 = ORIENTED_EDGE ( 'NONE', *, *, #40, .T. ) ;
#102 = COLOUR_RGB ( '',1.000000000000000000, 0.000000000000000000, 0.000000000000000000 ) ;
#103 = MECHANICAL_DESIGN_GEOMETRIC_PRESENTATION_REPRESENTATION (  '', ( #56 ), #139 ) ;
#104 = SURFACE_SIDE_STYLE ('',( #52 ) ) ;
#105 = CARTESIAN_POINT ( 'NONE',  ( -0.1250000000000001110, 3.000000000000000444, 0.000000000000000000 ) ) ;
#106 =( CONVERSION_BASED_UNIT ( 'INCH', #223 ) LENGTH_UNIT ( ) NAMED_UNIT ( #188 ) );
#107 = DIMENSIONAL_EXPONENTS ( 1.000000000000000000, 0.000000000000000000, 0.000000000000000000, 0.000000000000000000, 0.000000000000000000, 0.000000000000000000, 0.000000000000000000 ) ;
#108 = APPLICATION_CONTEXT ( 'automotive_design' ) ;
#109 = DIRECTION ( 'NONE',  ( -1.000000000000000000, 0.000000000000000000, 0.000000000000000000 ) ) ;
#110 = EDGE_LOOP ( 'NONE', ( #127, #155, #284, #175 ) ) ;
#111 = COLOUR_RGB ( '',0.7921568627450980005, 0.8196078431372548767, 0.9333333333333333481 ) ;
#112 = DIRECTION ( 'NONE',  ( -0.000000000000000000, -1.000000000000000000, -0.000000000000000000 ) ) ;
#113 =( NAMED_UNIT ( * ) SI_UNIT ( $, .STERADIAN. ) SOLID_ANGLE_UNIT ( ) );
#114 = FILL_AREA_STYLE_COLOUR ( '', #267 ) ;
#115 = COLOUR_RGB ( '',1.000000000000000000, 0.000000000000000000, 0.000000000000000000 ) ;
#116 = AXIS2_PLACEMENT_3D ( 'NONE', #39, #16, #235 ) ;
#117 = SURFACE_STYLE_FILL_AREA ( #212 ) ;
#118 = PRESENTATION_STYLE_ASSIGNMENT (( #272 ) ) ;
#119 =( LENGTH_UNIT ( ) NAMED_UNIT ( * ) SI_UNIT ( $, .METRE. ) );
#120 = VECTOR ( 'NONE', #204, 39.37007874015748143 ) ;
#121 = SURFACE_SIDE_STYLE ('',( #43 ) ) ;
#122 = DIRECTION ( 'NONE',  ( 0.000000000000000000, 1.000000000000000000, 0.000000000000000000 ) ) ;
#123 =( LENGTH_UNIT ( ) NAMED_UNIT ( * ) SI_UNIT ( $, .METRE. ) );
#124 = EDGE_CURVE ( 'NONE', #281, #163, #186, .T. ) ;
#125 = DIRECTION ( 'NONE',  ( -1.000000000000000000, -3.061616997868386099E-17, 0.000000000000000000 ) ) ;
#126 = CARTESIAN_POINT ( 'NONE',  ( 0.000000000000000000, 0.000000000000000000, 0.000000000000000000 ) ) ;
#127 = ORIENTED_EDGE ( 'NONE', *, *, #252, .T. ) ;
#128 = PRODUCT_RELATED_PRODUCT_CATEGORY ( 'part', '', ( #285 ) ) ;
#129 = AXIS2_PLACEMENT_3D ( 'NONE', #203, #55, #159 ) ;
#130 = SURFACE_STYLE_FILL_AREA ( #133 ) ;
#131 = CIRCLE ( 'NONE', #96, 0.1250000000000000000 ) ;
#132 = VERTEX_POINT ( 'NONE', #145 ) ;
#133 = FILL_AREA_STYLE ('',( #306 ) ) ;
#134 =( LENGTH_UNIT ( ) NAMED_UNIT ( * ) SI_UNIT ( $, .METRE. ) );
#135 = CYLINDRICAL_SURFACE ( 'NONE', #169, 0.1250000000000000000 ) ;
#136 = PRESENTATION_STYLE_ASSIGNMENT (( #85 ) ) ;
#137 = ORIENTED_EDGE ( 'NONE', *, *, #124, .F. ) ;
#138 = EDGE_CURVE ( 'NONE', #161, #292, #215, .T. ) ;
#139 =( GEOMETRIC_REPRESENTATION_CONTEXT ( 3 ) GLOBAL_UNCERTAINTY_ASSIGNED_CONTEXT ( ( #227 ) ) GLOBAL_UNIT_ASSIGNED_CONTEXT ( ( #97, #99, #279 ) ) REPRESENTATION_CONTEXT ( 'NONE', 'WORKASPACE' ) );
#140 = CARTESIAN_POINT ( 'NONE',  ( 0.000000000000000000, 0.000000000000000000, 0.000000000000000000 ) ) ;
#141 = LENGTH_MEASURE_WITH_UNIT ( LENGTH_MEASURE( 0.02539999999999999897 ), #187 );
#142 = APPLICATION_PROTOCOL_DEFINITION ( 'draft international standard', 'automotive_design', 1998, #108 ) ;
#143 = ADVANCED_FACE ( 'NONE', ( #15 ), #300, .F. ) ;
#144 =( CONVERSION_BASED_UNIT ( 'INCH', #271 ) LENGTH_UNIT ( ) NAMED_UNIT ( #210 ) );
#145 = CARTESIAN_POINT ( 'NONE',  ( 0.1250000000000000278, 1.000000000000000000, 1.530808498934192125E-17 ) ) ;
#146 = SURFACE_STYLE_FILL_AREA ( #174 ) ;
#147 = MECHANICAL_DESIGN_GEOMETRIC_PRESENTATION_REPRESENTATION (  '', ( #84 ), #298 ) ;
#148 = AXIS2_PLACEMENT_3D ( 'NONE', #140, #112, #296 ) ;
#149 = SHAPE_DEFINITION_REPRESENTATION ( #304, #184 ) ;
#150 = VECTOR ( 'NONE', #226, 39.37007874015748143 ) ;
#151 = CARTESIAN_POINT ( 'NONE',  ( 0.1250000000000000278, 3.000000000000000444, 1.530808498934192125E-17 ) ) ;
#152 = LINE ( 'NONE', #179, #150 ) ;
#153 =( NAMED_UNIT ( * ) PLANE_ANGLE_UNIT ( ) SI_UNIT ( $, .RADIAN. ) );
#154 = DIRECTION ( 'NONE',  ( -3.061616997868386099E-17, 1.000000000000000000, -0.000000000000000000 ) ) ;
#155 = ORIENTED_EDGE ( 'NONE', *, *, #199, .T. ) ;
#156 = MANIFOLD_SOLID_BREP ( 'Revolve - Tool Body (Straight Shanked)', #217 ) ;
#157 = DIRECTION ( 'NONE',  ( -0.000000000000000000, -1.000000000000000000, -0.000000000000000000 ) ) ;
#158 = CIRCLE ( 'NONE', #218, 0.1250000000000000000 ) ;
#159 = DIRECTION ( 'NONE',  ( 0.000000000000000000, 0.000000000000000000, -1.000000000000000000 ) ) ;
#160 = DIRECTION ( 'NONE',  ( 0.000000000000000000, 0.000000000000000000, -1.000000000000000000 ) ) ;
#161 = VERTEX_POINT ( 'NONE', #72 ) ;
#162 = ADVANCED_FACE ( 'NONE', ( #216 ), #46, .T. ) ;
#163 = VERTEX_POINT ( 'NONE', #263 ) ;
#164 = UNCERTAINTY_MEASURE_WITH_UNIT (LENGTH_MEASURE( 1.000000000000000082E-05 ), #106, 'distance_accuracy_value', 'NONE');
#165 =( GEOMETRIC_REPRESENTATION_CONTEXT ( 3 ) GLOBAL_UNCERTAINTY_ASSIGNED_CONTEXT ( ( #273 ) ) GLOBAL_UNIT_ASSIGNED_CONTEXT ( ( #41, #171, #10 ) ) REPRESENTATION_CONTEXT ( 'NONE', 'WORKASPACE' ) );
#166 = SURFACE_SIDE_STYLE ('',( #117 ) ) ;
#167 = PRODUCT_DEFINITION_CONTEXT ( 'detailed design', #108, 'design' ) ;
#168 = SURFACE_SIDE_STYLE ('',( #257 ) ) ;
#169 = AXIS2_PLACEMENT_3D ( 'NONE', #126, #157, #77 ) ;
#170 =( CONVERSION_BASED_UNIT ( 'INCH', #141 ) LENGTH_UNIT ( ) NAMED_UNIT ( #297 ) );
#171 =( NAMED_UNIT ( * ) PLANE_ANGLE_UNIT ( ) SI_UNIT ( $, .RADIAN. ) );
#172 = DIRECTION ( 'NONE',  ( 0.000000000000000000, 0.000000000000000000, -1.000000000000000000 ) ) ;
#173 = ADVANCED_FACE ( 'NONE', ( #219 ), #135, .T. ) ;
#174 = FILL_AREA_STYLE ('',( #94 ) ) ;
#175 = ORIENTED_EDGE ( 'NONE', *, *, #276, .F. ) ;
#176 = FILL_AREA_STYLE_COLOUR ( '', #42 ) ;
#177 = AXIS2_PLACEMENT_3D ( 'NONE', #198, #154, #109 ) ;
#178 = PLANE ( 'NONE',  #129 ) ;
#179 = CARTESIAN_POINT ( 'NONE',  ( 0.1249999999999999584, 3.000000000000000444, 1.530808498934191817E-17 ) ) ;
#180 = ORIENTED_EDGE ( 'NONE', *, *, #76, .T. ) ;
#181 = ORIENTED_EDGE ( 'NONE', *, *, #124, .T. ) ;
#182 = DIRECTION ( 'NONE',  ( -0.000000000000000000, -1.000000000000000000, -0.000000000000000000 ) ) ;
#183 = FACE_OUTER_BOUND ( 'NONE', #269, .T. ) ;
#184 = ADVANCED_BREP_SHAPE_REPRESENTATION ( '82265W', ( #47, #156, #116 ), #165 ) ;
#185 = FACE_OUTER_BOUND ( 'NONE', #208, .T. ) ;
#186 = CIRCLE ( 'NONE', #277, 0.1250000000000000555 ) ;
#187 =( LENGTH_UNIT ( ) NAMED_UNIT ( * ) SI_UNIT ( $, .METRE. ) );
#188 = DIMENSIONAL_EXPONENTS ( 1.000000000000000000, 0.000000000000000000, 0.000000000000000000, 0.000000000000000000, 0.000000000000000000, 0.000000000000000000, 0.000000000000000000 ) ;
#189 = CARTESIAN_POINT ( 'NONE',  ( 0.000000000000000000, 1.000000000000000000, 0.000000000000000000 ) ) ;
#190 = AXIS2_PLACEMENT_3D ( 'NONE', #61, #89, #12 ) ;
#191 = CIRCLE ( 'NONE', #148, 0.1250000000000000000 ) ;
#192 =( CONVERSION_BASED_UNIT ( 'INCH', #238 ) LENGTH_UNIT ( ) NAMED_UNIT ( #233 ) );
#193 = EDGE_CURVE ( 'NONE', #287, #292, #158, .T. ) ;
#194 = MECHANICAL_DESIGN_GEOMETRIC_PRESENTATION_REPRESENTATION (  '', ( #307 ), #95 ) ;
#195 = PRESENTATION_LAYER_ASSIGNMENT (  '', '', ( #56 ) ) ;
#196 = SURFACE_STYLE_USAGE ( .BOTH. , #121 ) ;
#197 = DIRECTION ( 'NONE',  ( 0.000000000000000000, -0.000000000000000000, 1.000000000000000000 ) ) ;
#198 = CARTESIAN_POINT ( 'NONE',  ( -6.123233995736772199E-17, 3.000000000000000444, 0.000000000000000000 ) ) ;
#199 = EDGE_CURVE ( 'NONE', #132, #281, #152, .T. ) ;
#200 = PLANE ( 'NONE',  #259 ) ;
#201 = ORIENTED_EDGE ( 'NONE', *, *, #51, .F. ) ;
#202 = CYLINDRICAL_SURFACE ( 'NONE', #177, 0.1250000000000000278 ) ;
#203 = CARTESIAN_POINT ( 'NONE',  ( 0.000000000000000000, 0.000000000000000000, 0.000000000000000000 ) ) ;
#204 = DIRECTION ( 'NONE',  ( -3.061616997868386099E-17, 1.000000000000000000, -0.000000000000000000 ) ) ;
#205 = ADVANCED_FACE ( 'NONE', ( #50 ), #200, .F. ) ;
#206 = CARTESIAN_POINT ( 'NONE',  ( 7.582401355855259480E-33, 1.000000000000000000, 0.000000000000000000 ) ) ;
#207 =( GEOMETRIC_REPRESENTATION_CONTEXT ( 3 ) GLOBAL_UNCERTAINTY_ASSIGNED_CONTEXT ( ( #59 ) ) GLOBAL_UNIT_ASSIGNED_CONTEXT ( ( #192, #69, #237 ) ) REPRESENTATION_CONTEXT ( 'NONE', 'WORKASPACE' ) );
#208 = EDGE_LOOP ( 'NONE', ( #44, #180, #88, #137 ) ) ;
#209 = CARTESIAN_POINT ( 'NONE',  ( -0.1250000000000000000, 1.000000000000000000, 0.000000000000000000 ) ) ;
#210 = DIMENSIONAL_EXPONENTS ( 1.000000000000000000, 0.000000000000000000, 0.000000000000000000, 0.000000000000000000, 0.000000000000000000, 0.000000000000000000, 0.000000000000000000 ) ;
#211 = PRESENTATION_STYLE_ASSIGNMENT (( #38 ) ) ;
#212 = FILL_AREA_STYLE ('',( #114 ) ) ;
#213 = EDGE_CURVE ( 'NONE', #221, #287, #305, .T. ) ;
#214 = CIRCLE ( 'NONE', #254, 0.1250000000000000000 ) ;
#215 = LINE ( 'NONE', #75, #295 ) ;
#216 = FACE_OUTER_BOUND ( 'NONE', #60, .T. ) ;
#217 = CLOSED_SHELL ( 'NONE', ( #231, #205, #64, #143 ) ) ;
#218 = AXIS2_PLACEMENT_3D ( 'NONE', #21, #283, #160 ) ;
#219 = FACE_OUTER_BOUND ( 'NONE', #80, .T. ) ;
#220 = DIRECTION ( 'NONE',  ( -1.000000000000000000, 0.000000000000000000, 0.000000000000000000 ) ) ;
#221 = VERTEX_POINT ( 'NONE', #29 ) ;
#222 =( GEOMETRIC_REPRESENTATION_CONTEXT ( 3 ) GLOBAL_UNCERTAINTY_ASSIGNED_CONTEXT ( ( #68 ) ) GLOBAL_UNIT_ASSIGNED_CONTEXT ( ( #57, #268, #48 ) ) REPRESENTATION_CONTEXT ( 'NONE', 'WORKASPACE' ) );
#223 = LENGTH_MEASURE_WITH_UNIT ( LENGTH_MEASURE( 0.02539999999999999897 ), #134 );
#224 = FACE_OUTER_BOUND ( 'NONE', #110, .T. ) ;
#225 = FILL_AREA_STYLE_COLOUR ( '', #5 ) ;
#226 = DIRECTION ( 'NONE',  ( -3.061616997868386099E-17, 1.000000000000000000, -0.000000000000000000 ) ) ;
#227 = UNCERTAINTY_MEASURE_WITH_UNIT (LENGTH_MEASURE( 1.000000000000000082E-05 ), #97, 'distance_accuracy_value', 'NONE');
#228 = ORIENTED_EDGE ( 'NONE', *, *, #82, .T. ) ;
#229 = PRESENTATION_LAYER_ASSIGNMENT (  '', '', ( #37 ) ) ;
#230 =( NAMED_UNIT ( * ) PLANE_ANGLE_UNIT ( ) SI_UNIT ( $, .RADIAN. ) );
#231 = ADVANCED_FACE ( 'NONE', ( #224 ), #202, .T. ) ;
#232 = FILL_AREA_STYLE ('',( #225 ) ) ;
#233 = DIMENSIONAL_EXPONENTS ( 1.000000000000000000, 0.000000000000000000, 0.000000000000000000, 0.000000000000000000, 0.000000000000000000, 0.000000000000000000, 0.000000000000000000 ) ;
#234 = PRODUCT_CONTEXT ( 'NONE', #53, 'mechanical' ) ;
#235 = DIRECTION ( 'NONE',  ( 1.000000000000000000, 0.000000000000000000, 0.000000000000000000 ) ) ;
#236 = AXIS2_PLACEMENT_3D ( 'NONE', #275, #73, #93 ) ;
#237 =( NAMED_UNIT ( * ) SI_UNIT ( $, .STERADIAN. ) SOLID_ANGLE_UNIT ( ) );
#238 = LENGTH_MEASURE_WITH_UNIT ( LENGTH_MEASURE( 0.02539999999999999897 ), #119 );
#239 = CIRCLE ( 'NONE', #6, 0.1250000000000000555 ) ;
#240 = AXIS2_PLACEMENT_3D ( 'NONE', #87, #182, #2 ) ;
#241 = PRESENTATION_STYLE_ASSIGNMENT (( #83 ) ) ;
#242 = DIRECTION ( 'NONE',  ( -3.061616997868386099E-17, 1.000000000000000000, 0.000000000000000000 ) ) ;
#243 = DIRECTION ( 'NONE',  ( -0.000000000000000000, -1.000000000000000000, -0.000000000000000000 ) ) ;
#244 =( NAMED_UNIT ( * ) SI_UNIT ( $, .STERADIAN. ) SOLID_ANGLE_UNIT ( ) );
#245 = FACE_OUTER_BOUND ( 'NONE', #18, .T. ) ;
#246 = CARTESIAN_POINT ( 'NONE',  ( 1.530808498934191509E-17, 0.000000000000000000, 0.1250000000000000000 ) ) ;
#247 = EDGE_LOOP ( 'NONE', ( #101, #181 ) ) ;
#248 = ORIENTED_EDGE ( 'NONE', *, *, #193, .T. ) ;
#249 = AXIS2_PLACEMENT_3D ( 'NONE', #189, #255, #172 ) ;
#250 =( LENGTH_UNIT ( ) NAMED_UNIT ( * ) SI_UNIT ( $, .METRE. ) );
#251 = DIRECTION ( 'NONE',  ( -1.000000000000000000, 0.000000000000000000, 0.000000000000000000 ) ) ;
#252 = EDGE_CURVE ( 'NONE', #58, #132, #214, .T. ) ;
#253 = UNCERTAINTY_MEASURE_WITH_UNIT (LENGTH_MEASURE( 1.000000000000000082E-05 ), #170, 'distance_accuracy_value', 'NONE');
#254 = AXIS2_PLACEMENT_3D ( 'NONE', #206, #291, #220 ) ;
#255 = DIRECTION ( 'NONE',  ( -0.000000000000000000, -1.000000000000000000, -0.000000000000000000 ) ) ;
#256 = DIMENSIONAL_EXPONENTS ( 1.000000000000000000, 0.000000000000000000, 0.000000000000000000, 0.000000000000000000, 0.000000000000000000, 0.000000000000000000, 0.000000000000000000 ) ;
#257 = SURFACE_STYLE_FILL_AREA ( #232 ) ;
#258 = DIRECTION ( 'NONE',  ( -0.000000000000000000, -1.000000000000000000, -0.000000000000000000 ) ) ;
#259 = AXIS2_PLACEMENT_3D ( 'NONE', #26, #242, #125 ) ;
#260 = DIRECTION ( 'NONE',  ( -1.000000000000000000, 0.000000000000000000, 0.000000000000000000 ) ) ;
#261 = SURFACE_SIDE_STYLE ('',( #146 ) ) ;
#262 = ORIENTED_EDGE ( 'NONE', *, *, #213, .F. ) ;
#263 = CARTESIAN_POINT ( 'NONE',  ( -0.1250000000000001388, 3.000000000000000444, 0.000000000000000000 ) ) ;
#264 = LINE ( 'NONE', #105, #120 ) ;
#265 = EDGE_CURVE ( 'NONE', #161, #221, #20, .T. ) ;
#266 = LENGTH_MEASURE_WITH_UNIT ( LENGTH_MEASURE( 0.02539999999999999897 ), #54 );
#267 = COLOUR_RGB ( '',0.7921568627450980005, 0.8196078431372548767, 0.9333333333333333481 ) ;
#268 =( NAMED_UNIT ( * ) PLANE_ANGLE_UNIT ( ) SI_UNIT ( $, .RADIAN. ) );
#269 = EDGE_LOOP ( 'NONE', ( #98, #248 ) ) ;
#270 =( GEOMETRIC_REPRESENTATION_CONTEXT ( 3 ) GLOBAL_UNCERTAINTY_ASSIGNED_CONTEXT ( ( #91 ) ) GLOBAL_UNIT_ASSIGNED_CONTEXT ( ( #144, #230, #7 ) ) REPRESENTATION_CONTEXT ( 'NONE', 'WORKASPACE' ) );
#271 = LENGTH_MEASURE_WITH_UNIT ( LENGTH_MEASURE( 0.02539999999999999897 ), #250 );
#272 = SURFACE_STYLE_USAGE ( .BOTH. , #168 ) ;
#273 = UNCERTAINTY_MEASURE_WITH_UNIT (LENGTH_MEASURE( 1.000000000000000082E-05 ), #41, 'distance_accuracy_value', 'NONE');
#274 = APPLICATION_PROTOCOL_DEFINITION ( 'draft international standard', 'automotive_design', 1998, #53 ) ;
#275 = CARTESIAN_POINT ( 'NONE',  ( 0.1250000000000000000, 3.000000000000000444, 0.000000000000000000 ) ) ;
#276 = EDGE_CURVE ( 'NONE', #58, #163, #264, .T. ) ;
#277 = AXIS2_PLACEMENT_3D ( 'NONE', #278, #299, #260 ) ;
#278 = CARTESIAN_POINT ( 'NONE',  ( -6.123233995736772199E-17, 3.000000000000000444, 0.000000000000000000 ) ) ;
#279 =( NAMED_UNIT ( * ) SI_UNIT ( $, .STERADIAN. ) SOLID_ANGLE_UNIT ( ) );
#280 = CARTESIAN_POINT ( 'NONE',  ( 1.530808498934191509E-17, 0.000000000000000000, 0.1250000000000000000 ) ) ;
#281 = VERTEX_POINT ( 'NONE', #151 ) ;
#282 = MECHANICAL_DESIGN_GEOMETRIC_PRESENTATION_REPRESENTATION (  '', ( #37 ), #270 ) ;
#283 = DIRECTION ( 'NONE',  ( -0.000000000000000000, -1.000000000000000000, -0.000000000000000000 ) ) ;
#284 = ORIENTED_EDGE ( 'NONE', *, *, #40, .F. ) ;
#285 = PRODUCT ( '82265W', '82265W', '', ( #234 ) ) ;
#286 =( LENGTH_UNIT ( ) NAMED_UNIT ( * ) SI_UNIT ( $, .METRE. ) );
#287 = VERTEX_POINT ( 'NONE', #280 ) ;
#288 = SURFACE_SIDE_STYLE ('',( #130 ) ) ;
#289 = ORIENTED_EDGE ( 'NONE', *, *, #76, .F. ) ;
#290 = PRESENTATION_LAYER_ASSIGNMENT (  '', '', ( #62 ) ) ;
#291 = DIRECTION ( 'NONE',  ( -3.061616997868386099E-17, 1.000000000000000000, -0.000000000000000000 ) ) ;
#292 = VERTEX_POINT ( 'NONE', #23 ) ;
#293 = DIRECTION ( 'NONE',  ( -3.061616997868386099E-17, 1.000000000000000000, -0.000000000000000000 ) ) ;
#294 = DIMENSIONAL_EXPONENTS ( 1.000000000000000000, 0.000000000000000000, 0.000000000000000000, 0.000000000000000000, 0.000000000000000000, 0.000000000000000000, 0.000000000000000000 ) ;
#295 = VECTOR ( 'NONE', #258, 39.37007874015748143 ) ;
#296 = DIRECTION ( 'NONE',  ( 0.000000000000000000, 0.000000000000000000, -1.000000000000000000 ) ) ;
#297 = DIMENSIONAL_EXPONENTS ( 1.000000000000000000, 0.000000000000000000, 0.000000000000000000, 0.000000000000000000, 0.000000000000000000, 0.000000000000000000, 0.000000000000000000 ) ;
#298 =( GEOMETRIC_REPRESENTATION_CONTEXT ( 3 ) GLOBAL_UNCERTAINTY_ASSIGNED_CONTEXT ( ( #164 ) ) GLOBAL_UNIT_ASSIGNED_CONTEXT ( ( #106, #153, #244 ) ) REPRESENTATION_CONTEXT ( 'NONE', 'WORKASPACE' ) );
#299 = DIRECTION ( 'NONE',  ( -3.061616997868386099E-17, 1.000000000000000000, -0.000000000000000000 ) ) ;
#300 = PLANE ( 'NONE',  #236 ) ;
#301 = FILL_AREA_STYLE ('',( #176 ) ) ;
#302 = PRESENTATION_LAYER_ASSIGNMENT (  '', '', ( #25 ) ) ;
#303 = PRESENTATION_STYLE_ASSIGNMENT (( #196 ) ) ;
#304 = PRODUCT_DEFINITION_SHAPE ( 'NONE', 'NONE',  #100 ) ;
#305 = LINE ( 'NONE', #246, #86 ) ;
#306 = FILL_AREA_STYLE_COLOUR ( '', #115 ) ;
#307 = STYLED_ITEM ( 'NONE', ( #118 ), #35 ) ;
#308 = ORIENTED_EDGE ( 'NONE', *, *, #265, .T. ) ;
#309 = CIRCLE ( 'NONE', #249, 0.1250000000000000000 ) ;
ENDSEC;
END-ISO-10303-21;
