ISO-10303-21;
HEADER;
FILE_DESCRIPTION (( 'STEP AP214' ),
    '1' );
FILE_NAME ('06528.STEP',
    '2023-07-05T16:04:19',
    ( '' ),
    ( '' ),
    'SwSTEP 2.0',
    'SolidWorks 2023',
    '' );
FILE_SCHEMA (( 'AUTOMOTIVE_DESIGN' ));
ENDSEC;

DATA;
#1 = DIRECTION ( 'NONE',  ( -1.000000000000000000, 0.000000000000000000, 0.000000000000000000 ) ) ;
#2 = DIRECTION ( 'NONE',  ( 0.000000000000000000, 0.000000000000000000, -1.000000000000000000 ) ) ;
#3 = VERTEX_POINT ( 'NONE', #156 ) ;
#4 = FACE_OUTER_BOUND ( 'NONE', #175, .T. ) ;
#5 = SURFACE_STYLE_USAGE ( .BOTH. , #246 ) ;
#6 = EDGE_CURVE ( 'NONE', #3, #28, #49, .T. ) ;
#7 = ORIENTED_EDGE ( 'NONE', *, *, #41, .T. ) ;
#8 = VECTOR ( 'NONE', #253, 39.37007874015748143 ) ;
#9 = ORIENTED_EDGE ( 'NONE', *, *, #41, .F. ) ;
#10 = VERTEX_POINT ( 'NONE', #197 ) ;
#11 =( CONVERSION_BASED_UNIT ( 'INCH', #188 ) LENGTH_UNIT ( ) NAMED_UNIT ( #255 ) );
#12 = EDGE_LOOP ( 'NONE', ( #190, #89, #7 ) ) ;
#13 = LINE ( 'NONE', #93, #8 ) ;
#14 = DIRECTION ( 'NONE',  ( 0.000000000000000000, 1.000000000000000000, 0.000000000000000000 ) ) ;
#15 = CARTESIAN_POINT ( 'NONE',  ( 0.000000000000000000, 0.000000000000000000, 0.000000000000000000 ) ) ;
#16 =( LENGTH_UNIT ( ) NAMED_UNIT ( * ) SI_UNIT ( $, .METRE. ) );
#17 = AXIS2_PLACEMENT_3D ( 'NONE', #217, #157, #238 ) ;
#18 = DIRECTION ( 'NONE',  ( 0.000000000000000000, -0.000000000000000000, 1.000000000000000000 ) ) ;
#19 = CARTESIAN_POINT ( 'NONE',  ( -6.123233995736772199E-17, 3.000000000000000444, 0.000000000000000000 ) ) ;
#20 =( LENGTH_UNIT ( ) NAMED_UNIT ( * ) SI_UNIT ( $, .METRE. ) );
#21 = DIRECTION ( 'NONE',  ( -1.000000000000000000, -1.365923996832133088E-16, 0.000000000000000000 ) ) ;
#22 =( NAMED_UNIT ( * ) PLANE_ANGLE_UNIT ( ) SI_UNIT ( $, .RADIAN. ) );
#23 = CIRCLE ( 'NONE', #227, 0.2500000000000000555 ) ;
#24 = EDGE_CURVE ( 'NONE', #63, #10, #13, .T. ) ;
#25 =( LENGTH_UNIT ( ) NAMED_UNIT ( * ) SI_UNIT ( $, .METRE. ) );
#26 = EDGE_CURVE ( 'NONE', #104, #10, #23, .T. ) ;
#27 = DIRECTION ( 'NONE',  ( 0.000000000000000000, 0.000000000000000000, -1.000000000000000000 ) ) ;
#28 = VERTEX_POINT ( 'NONE', #196 ) ;
#29 = AXIS2_PLACEMENT_3D ( 'NONE', #179, #185, #21 ) ;
#30 = EDGE_CURVE ( 'NONE', #63, #177, #128, .T. ) ;
#31 = ORIENTED_EDGE ( 'NONE', *, *, #30, .F. ) ;
#32 = DIRECTION ( 'NONE',  ( 0.000000000000000000, 1.000000000000000000, 0.000000000000000000 ) ) ;
#33 = CARTESIAN_POINT ( 'NONE',  ( 0.000000000000000000, 0.000000000000000000, 0.000000000000000000 ) ) ;
#34 = AXIS2_PLACEMENT_3D ( 'NONE', #171, #141, #1 ) ;
#35 = CARTESIAN_POINT ( 'NONE',  ( -6.123233995736772199E-17, 3.000000000000000444, 0.000000000000000000 ) ) ;
#36 = APPLICATION_PROTOCOL_DEFINITION ( 'draft international standard', 'automotive_design', 1998, #57 ) ;
#37 = DIRECTION ( 'NONE',  ( -1.000000000000000000, 0.000000000000000000, 0.000000000000000000 ) ) ;
#38 = FACE_OUTER_BOUND ( 'NONE', #12, .T. ) ;
#39 = ADVANCED_FACE ( 'NONE', ( #4 ), #75, .F. ) ;
#40 = CARTESIAN_POINT ( 'NONE',  ( 0.000000000000000000, 0.1443375672974056556, 0.000000000000000000 ) ) ;
#41 = EDGE_CURVE ( 'NONE', #28, #254, #172, .T. ) ;
#42 =( GEOMETRIC_REPRESENTATION_CONTEXT ( 3 ) GLOBAL_UNCERTAINTY_ASSIGNED_CONTEXT ( ( #189 ) ) GLOBAL_UNIT_ASSIGNED_CONTEXT ( ( #81, #213, #130 ) ) REPRESENTATION_CONTEXT ( 'NONE', 'WORKASPACE' ) );
#43 = ORIENTED_EDGE ( 'NONE', *, *, #30, .T. ) ;
#44 = DIRECTION ( 'NONE',  ( 0.000000000000000000, 0.000000000000000000, 1.000000000000000000 ) ) ;
#45 = UNCERTAINTY_MEASURE_WITH_UNIT (LENGTH_MEASURE( 1.000000000000000082E-05 ), #145, 'distance_accuracy_value', 'NONE');
#46 = MECHANICAL_DESIGN_GEOMETRIC_PRESENTATION_REPRESENTATION (  '', ( #50 ), #214 ) ;
#47 = APPLICATION_CONTEXT ( 'automotive_design' ) ;
#48 = ORIENTED_EDGE ( 'NONE', *, *, #6, .F. ) ;
#49 = LINE ( 'NONE', #33, #127 ) ;
#50 = STYLED_ITEM ( 'NONE', ( #97 ), #136 ) ;
#51 = DIRECTION ( 'NONE',  ( -1.215909390471913142E-16, 1.000000000000000000, -0.000000000000000000 ) ) ;
#52 = CARTESIAN_POINT ( 'NONE',  ( 0.2500000000000000000, 3.000000000000000444, 3.061616997868382402E-17 ) ) ;
#53 = ADVANCED_FACE ( 'NONE', ( #38 ), #235, .T. ) ;
#54 = MECHANICAL_DESIGN_GEOMETRIC_PRESENTATION_REPRESENTATION (  '', ( #68 ), #42 ) ;
#55 = ORIENTED_EDGE ( 'NONE', *, *, #64, .T. ) ;
#56 = SURFACE_STYLE_FILL_AREA ( #184 ) ;
#57 = APPLICATION_CONTEXT ( 'automotive_design' ) ;
#58 = PRESENTATION_STYLE_ASSIGNMENT (( #74 ) ) ;
#59 = CIRCLE ( 'NONE', #153, 0.2499999999999999722 ) ;
#60 = PRODUCT_DEFINITION_CONTEXT ( 'detailed design', #57, 'design' ) ;
#61 = COLOUR_RGB ( '',0.7921568627450980005, 0.8196078431372548767, 0.9333333333333333481 ) ;
#62 = ORIENTED_EDGE ( 'NONE', *, *, #24, .T. ) ;
#63 = VERTEX_POINT ( 'NONE', #243 ) ;
#64 = EDGE_CURVE ( 'NONE', #177, #104, #70, .T. ) ;
#65 = DIRECTION ( 'NONE',  ( 0.000000000000000000, 0.000000000000000000, 1.000000000000000000 ) ) ;
#66 = SURFACE_STYLE_FILL_AREA ( #203 ) ;
#67 = DIRECTION ( 'NONE',  ( -1.215909390471913142E-16, 1.000000000000000000, -0.000000000000000000 ) ) ;
#68 = STYLED_ITEM ( 'NONE', ( #252 ), #53 ) ;
#69 =( LENGTH_UNIT ( ) NAMED_UNIT ( * ) SI_UNIT ( $, .METRE. ) );
#70 = LINE ( 'NONE', #100, #165 ) ;
#71 = EDGE_CURVE ( 'NONE', #3, #254, #163, .T. ) ;
#72 = FILL_AREA_STYLE_COLOUR ( '', #186 ) ;
#73 = AXIS2_PLACEMENT_3D ( 'NONE', #180, #135, #220 ) ;
#74 = SURFACE_STYLE_USAGE ( .BOTH. , #204 ) ;
#75 = PLANE ( 'NONE',  #258 ) ;
#76 = PRESENTATION_STYLE_ASSIGNMENT (( #205 ) ) ;
#77 = CARTESIAN_POINT ( 'NONE',  ( 0.2500000000000000000, 3.000000000000000444, 0.000000000000000000 ) ) ;
#78 =( NAMED_UNIT ( * ) SI_UNIT ( $, .STERADIAN. ) SOLID_ANGLE_UNIT ( ) );
#79 = MECHANICAL_DESIGN_GEOMETRIC_PRESENTATION_REPRESENTATION (  '', ( #118 ), #150 ) ;
#80 = DIMENSIONAL_EXPONENTS ( 1.000000000000000000, 0.000000000000000000, 0.000000000000000000, 0.000000000000000000, 0.000000000000000000, 0.000000000000000000, 0.000000000000000000 ) ;
#81 =( CONVERSION_BASED_UNIT ( 'INCH', #234 ) LENGTH_UNIT ( ) NAMED_UNIT ( #80 ) );
#82 = CARTESIAN_POINT ( 'NONE',  ( 0.000000000000000000, 39.37007874015748143, 0.000000000000000000 ) ) ;
#83 = CARTESIAN_POINT ( 'NONE',  ( 0.000000000000000000, 0.000000000000000000, 0.000000000000000000 ) ) ;
#84 = AXIS2_PLACEMENT_3D ( 'NONE', #35, #51, #201 ) ;
#85 = ORIENTED_EDGE ( 'NONE', *, *, #242, .F. ) ;
#86 = UNCERTAINTY_MEASURE_WITH_UNIT (LENGTH_MEASURE( 1.000000000000000082E-05 ), #11, 'distance_accuracy_value', 'NONE');
#87 =( NAMED_UNIT ( * ) PLANE_ANGLE_UNIT ( ) SI_UNIT ( $, .RADIAN. ) );
#88 = ORIENTED_EDGE ( 'NONE', *, *, #119, .T. ) ;
#89 = ORIENTED_EDGE ( 'NONE', *, *, #6, .T. ) ;
#90 =( GEOMETRIC_REPRESENTATION_CONTEXT ( 3 ) GLOBAL_UNCERTAINTY_ASSIGNED_CONTEXT ( ( #45 ) ) GLOBAL_UNIT_ASSIGNED_CONTEXT ( ( #145, #229, #209 ) ) REPRESENTATION_CONTEXT ( 'NONE', 'WORKASPACE' ) );
#91 =( CONVERSION_BASED_UNIT ( 'INCH', #95 ) LENGTH_UNIT ( ) NAMED_UNIT ( #149 ) );
#92 = PRODUCT_CONTEXT ( 'NONE', #47, 'mechanical' ) ;
#93 = CARTESIAN_POINT ( 'NONE',  ( -0.2499999999999999722, 3.000000000000000444, 0.000000000000000000 ) ) ;
#94 = CARTESIAN_POINT ( 'NONE',  ( 0.000000000000000000, 39.37007874015748143, 0.000000000000000000 ) ) ;
#95 = LENGTH_MEASURE_WITH_UNIT ( LENGTH_MEASURE( 0.02539999999999999897 ), #16 );
#96 = AXIS2_PLACEMENT_3D ( 'NONE', #200, #32, #18 ) ;
#97 = PRESENTATION_STYLE_ASSIGNMENT (( #160 ) ) ;
#98 = PLANE ( 'NONE',  #73 ) ;
#99 = FILL_AREA_STYLE ('',( #116 ) ) ;
#100 = CARTESIAN_POINT ( 'NONE',  ( 0.2499999999999998335, 3.000000000000000444, 3.061616997868381785E-17 ) ) ;
#101 = MECHANICAL_DESIGN_GEOMETRIC_PRESENTATION_REPRESENTATION (  '', ( #222 ), #90 ) ;
#102 = LENGTH_MEASURE_WITH_UNIT ( LENGTH_MEASURE( 0.02539999999999999897 ), #20 );
#103 = DIRECTION ( 'NONE',  ( 0.000000000000000000, 1.000000000000000000, 0.000000000000000000 ) ) ;
#104 = VERTEX_POINT ( 'NONE', #52 ) ;
#105 = FILL_AREA_STYLE_COLOUR ( '', #265 ) ;
#106 = DIRECTION ( 'NONE',  ( -1.000000000000000000, 0.000000000000000000, 0.000000000000000000 ) ) ;
#107 = AXIS2_PLACEMENT_3D ( 'NONE', #94, #14, #65 ) ;
#108 = DIRECTION ( 'NONE',  ( 0.000000000000000000, 0.4999999999999979461, 0.8660254037844397068 ) ) ;
#109 = ADVANCED_FACE ( 'NONE', ( #114 ), #142, .T. ) ;
#110 = FILL_AREA_STYLE ('',( #105 ) ) ;
#111 = ADVANCED_FACE ( 'NONE', ( #162 ), #137, .T. ) ;
#112 =( CONVERSION_BASED_UNIT ( 'INCH', #113 ) LENGTH_UNIT ( ) NAMED_UNIT ( #151 ) );
#113 = LENGTH_MEASURE_WITH_UNIT ( LENGTH_MEASURE( 0.02539999999999999897 ), #69 );
#114 = FACE_OUTER_BOUND ( 'NONE', #232, .T. ) ;
#115 = AXIS2_PLACEMENT_3D ( 'NONE', #82, #103, #44 ) ;
#116 = FILL_AREA_STYLE_COLOUR ( '', #61 ) ;
#117 = SURFACE_SIDE_STYLE ('',( #66 ) ) ;
#118 = STYLED_ITEM ( 'NONE', ( #58 ), #174 ) ;
#119 = EDGE_CURVE ( 'NONE', #177, #63, #134, .T. ) ;
#120 = DIRECTION ( 'NONE',  ( -0.000000000000000000, -1.000000000000000000, -0.000000000000000000 ) ) ;
#121 = AXIS2_PLACEMENT_3D ( 'NONE', #146, #183, #2 ) ;
#122 = SHAPE_DEFINITION_REPRESENTATION ( #257, #216 ) ;
#123 = EDGE_LOOP ( 'NONE', ( #31, #125 ) ) ;
#124 = UNCERTAINTY_MEASURE_WITH_UNIT (LENGTH_MEASURE( 1.000000000000000082E-05 ), #112, 'distance_accuracy_value', 'NONE');
#125 = ORIENTED_EDGE ( 'NONE', *, *, #119, .F. ) ;
#126 =( LENGTH_UNIT ( ) NAMED_UNIT ( * ) SI_UNIT ( $, .METRE. ) );
#127 = VECTOR ( 'NONE', #108, 39.37007874015748854 ) ;
#128 = CIRCLE ( 'NONE', #29, 0.2499999999999997224 ) ;
#129 = ORIENTED_EDGE ( 'NONE', *, *, #26, .T. ) ;
#130 =( NAMED_UNIT ( * ) SI_UNIT ( $, .STERADIAN. ) SOLID_ANGLE_UNIT ( ) );
#131 = UNCERTAINTY_MEASURE_WITH_UNIT (LENGTH_MEASURE( 1.000000000000000082E-05 ), #247, 'distance_accuracy_value', 'NONE');
#132 = ORIENTED_EDGE ( 'NONE', *, *, #64, .F. ) ;
#133 = EDGE_LOOP ( 'NONE', ( #132, #88, #62, #152 ) ) ;
#134 = CIRCLE ( 'NONE', #17, 0.2499999999999997224 ) ;
#135 = DIRECTION ( 'NONE',  ( -1.215909390471913142E-16, 1.000000000000000000, 0.000000000000000000 ) ) ;
#136 = ADVANCED_FACE ( 'NONE', ( #139 ), #219, .T. ) ;
#137 = CYLINDRICAL_SURFACE ( 'NONE', #138, 0.2499999999999998890 ) ;
#138 = AXIS2_PLACEMENT_3D ( 'NONE', #259, #260, #37 ) ;
#139 = FACE_OUTER_BOUND ( 'NONE', #212, .T. ) ;
#140 = EDGE_CURVE ( 'NONE', #10, #104, #218, .T. ) ;
#141 = DIRECTION ( 'NONE',  ( -1.215909390471913142E-16, 1.000000000000000000, -0.000000000000000000 ) ) ;
#142 = CONICAL_SURFACE ( 'NONE', #107, 68.19097667594041923, 1.047197551196600074 ) ;
#143 = FILL_AREA_STYLE_COLOUR ( '', #210 ) ;
#144 = CARTESIAN_POINT ( 'NONE',  ( 3.061616997868383018E-17, 0.1443375672974056556, -0.2500000000000000000 ) ) ;
#145 =( CONVERSION_BASED_UNIT ( 'INCH', #251 ) LENGTH_UNIT ( ) NAMED_UNIT ( #233 ) );
#146 = CARTESIAN_POINT ( 'NONE',  ( 0.000000000000000000, 0.1443375672974056556, 0.000000000000000000 ) ) ;
#147 = DIMENSIONAL_EXPONENTS ( 1.000000000000000000, 0.000000000000000000, 0.000000000000000000, 0.000000000000000000, 0.000000000000000000, 0.000000000000000000, 0.000000000000000000 ) ;
#148 = DIRECTION ( 'NONE',  ( 1.000000000000000000, 0.000000000000000000, 0.000000000000000000 ) ) ;
#149 = DIMENSIONAL_EXPONENTS ( 1.000000000000000000, 0.000000000000000000, 0.000000000000000000, 0.000000000000000000, 0.000000000000000000, 0.000000000000000000, 0.000000000000000000 ) ;
#150 =( GEOMETRIC_REPRESENTATION_CONTEXT ( 3 ) GLOBAL_UNCERTAINTY_ASSIGNED_CONTEXT ( ( #131 ) ) GLOBAL_UNIT_ASSIGNED_CONTEXT ( ( #247, #22, #78 ) ) REPRESENTATION_CONTEXT ( 'NONE', 'WORKASPACE' ) );
#151 = DIMENSIONAL_EXPONENTS ( 1.000000000000000000, 0.000000000000000000, 0.000000000000000000, 0.000000000000000000, 0.000000000000000000, 0.000000000000000000, 0.000000000000000000 ) ;
#152 = ORIENTED_EDGE ( 'NONE', *, *, #26, .F. ) ;
#153 = AXIS2_PLACEMENT_3D ( 'NONE', #40, #120, #27 ) ;
#154 = EDGE_LOOP ( 'NONE', ( #43, #55, #193, #215 ) ) ;
#155 = APPLICATION_PROTOCOL_DEFINITION ( 'draft international standard', 'automotive_design', 1998, #47 ) ;
#156 = CARTESIAN_POINT ( 'NONE',  ( 0.000000000000000000, 0.000000000000000000, 0.000000000000000000 ) ) ;
#157 = DIRECTION ( 'NONE',  ( -1.215909390471913142E-16, 1.000000000000000000, -0.000000000000000000 ) ) ;
#158 = CLOSED_SHELL ( 'NONE', ( #237, #173, #111, #39 ) ) ;
#159 = PRESENTATION_LAYER_ASSIGNMENT (  '', '', ( #192 ) ) ;
#160 = SURFACE_STYLE_USAGE ( .BOTH. , #198 ) ;
#161 = DIRECTION ( 'NONE',  ( 1.060575238724908024E-16, 0.4999999999999979461, -0.8660254037844397068 ) ) ;
#162 = FACE_OUTER_BOUND ( 'NONE', #133, .T. ) ;
#163 = LINE ( 'NONE', #15, #250 ) ;
#164 = FACE_OUTER_BOUND ( 'NONE', #123, .T. ) ;
#165 = VECTOR ( 'NONE', #67, 39.37007874015748143 ) ;
#166 = FILL_AREA_STYLE_COLOUR ( '', #202 ) ;
#167 = CARTESIAN_POINT ( 'NONE',  ( 0.2500000000000000000, 0.1443375672974054613, 3.061616997868382402E-17 ) ) ;
#168 = PRESENTATION_LAYER_ASSIGNMENT (  '', '', ( #118 ) ) ;
#169 = SURFACE_SIDE_STYLE ('',( #182 ) ) ;
#170 = AXIS2_PLACEMENT_3D ( 'NONE', #83, #176, #148 ) ;
#171 = CARTESIAN_POINT ( 'NONE',  ( -6.123233995736772199E-17, 3.000000000000000444, 0.000000000000000000 ) ) ;
#172 = CIRCLE ( 'NONE', #121, 0.2499999999999999722 ) ;
#173 = ADVANCED_FACE ( 'NONE', ( #164 ), #98, .F. ) ;
#174 = MANIFOLD_SOLID_BREP ( 'Revolve - Cutting Edge', #226 ) ;
#175 = EDGE_LOOP ( 'NONE', ( #228, #129 ) ) ;
#176 = DIRECTION ( 'NONE',  ( 0.000000000000000000, 0.000000000000000000, 1.000000000000000000 ) ) ;
#177 = VERTEX_POINT ( 'NONE', #167 ) ;
#178 =( NAMED_UNIT ( * ) SI_UNIT ( $, .STERADIAN. ) SOLID_ANGLE_UNIT ( ) );
#179 = CARTESIAN_POINT ( 'NONE',  ( 2.859903368367275526E-16, 0.1443375672974054336, 0.000000000000000000 ) ) ;
#180 = CARTESIAN_POINT ( 'NONE',  ( 2.859903368367275526E-16, 0.1443375672974056556, 0.000000000000000000 ) ) ;
#181 = DIRECTION ( 'NONE',  ( -1.215909390471913142E-16, 1.000000000000000000, -0.000000000000000000 ) ) ;
#182 = SURFACE_STYLE_FILL_AREA ( #99 ) ;
#183 = DIRECTION ( 'NONE',  ( -0.000000000000000000, -1.000000000000000000, -0.000000000000000000 ) ) ;
#184 = FILL_AREA_STYLE ('',( #72 ) ) ;
#185 = DIRECTION ( 'NONE',  ( -1.215909390471913142E-16, 1.000000000000000000, -0.000000000000000000 ) ) ;
#186 = COLOUR_RGB ( '',0.7921568627450980005, 0.8196078431372548767, 0.9333333333333333481 ) ;
#187 = FILL_AREA_STYLE ('',( #166 ) ) ;
#188 = LENGTH_MEASURE_WITH_UNIT ( LENGTH_MEASURE( 0.02539999999999999897 ), #223 );
#189 = UNCERTAINTY_MEASURE_WITH_UNIT (LENGTH_MEASURE( 1.000000000000000082E-05 ), #81, 'distance_accuracy_value', 'NONE');
#190 = ORIENTED_EDGE ( 'NONE', *, *, #71, .F. ) ;
#191 =( NAMED_UNIT ( * ) SI_UNIT ( $, .STERADIAN. ) SOLID_ANGLE_UNIT ( ) );
#192 = STYLED_ITEM ( 'NONE', ( #194 ), #109 ) ;
#193 = ORIENTED_EDGE ( 'NONE', *, *, #140, .F. ) ;
#194 = PRESENTATION_STYLE_ASSIGNMENT (( #206 ) ) ;
#195 =( GEOMETRIC_REPRESENTATION_CONTEXT ( 3 ) GLOBAL_UNCERTAINTY_ASSIGNED_CONTEXT ( ( #211 ) ) GLOBAL_UNIT_ASSIGNED_CONTEXT ( ( #91, #241, #178 ) ) REPRESENTATION_CONTEXT ( 'NONE', 'WORKASPACE' ) );
#196 = CARTESIAN_POINT ( 'NONE',  ( 0.000000000000000000, 0.1443375672974056556, 0.2500000000000000000 ) ) ;
#197 = CARTESIAN_POINT ( 'NONE',  ( -0.2500000000000001110, 3.000000000000000444, 0.000000000000000000 ) ) ;
#198 = SURFACE_SIDE_STYLE ('',( #262 ) ) ;
#199 = PRODUCT ( '06528', '06528', '', ( #92 ) ) ;
#200 = CARTESIAN_POINT ( 'NONE',  ( 0.000000000000000000, 0.1443375672974056556, 0.000000000000000000 ) ) ;
#201 = DIRECTION ( 'NONE',  ( -1.000000000000000000, 0.000000000000000000, 0.000000000000000000 ) ) ;
#202 = COLOUR_RGB ( '',1.000000000000000000, 0.000000000000000000, 0.000000000000000000 ) ;
#203 = FILL_AREA_STYLE ('',( #143 ) ) ;
#204 = SURFACE_SIDE_STYLE ('',( #56 ) ) ;
#205 = SURFACE_STYLE_USAGE ( .BOTH. , #169 ) ;
#206 = SURFACE_STYLE_USAGE ( .BOTH. , #117 ) ;
#207 = PRESENTATION_LAYER_ASSIGNMENT (  '', '', ( #50 ) ) ;
#208 = PRODUCT_DEFINITION_FORMATION_WITH_SPECIFIED_SOURCE ( 'ANY', '', #199, .NOT_KNOWN. ) ;
#209 =( NAMED_UNIT ( * ) SI_UNIT ( $, .STERADIAN. ) SOLID_ANGLE_UNIT ( ) );
#210 = COLOUR_RGB ( '',1.000000000000000000, 0.000000000000000000, 0.000000000000000000 ) ;
#211 = UNCERTAINTY_MEASURE_WITH_UNIT (LENGTH_MEASURE( 1.000000000000000082E-05 ), #91, 'distance_accuracy_value', 'NONE');
#212 = EDGE_LOOP ( 'NONE', ( #9, #85 ) ) ;
#213 =( NAMED_UNIT ( * ) PLANE_ANGLE_UNIT ( ) SI_UNIT ( $, .RADIAN. ) );
#214 =( GEOMETRIC_REPRESENTATION_CONTEXT ( 3 ) GLOBAL_UNCERTAINTY_ASSIGNED_CONTEXT ( ( #124 ) ) GLOBAL_UNIT_ASSIGNED_CONTEXT ( ( #112, #239, #221 ) ) REPRESENTATION_CONTEXT ( 'NONE', 'WORKASPACE' ) );
#215 = ORIENTED_EDGE ( 'NONE', *, *, #24, .F. ) ;
#216 = ADVANCED_BREP_SHAPE_REPRESENTATION ( '06528', ( #174, #261, #170 ), #245 ) ;
#217 = CARTESIAN_POINT ( 'NONE',  ( 2.859903368367275526E-16, 0.1443375672974054336, 0.000000000000000000 ) ) ;
#218 = CIRCLE ( 'NONE', #84, 0.2500000000000000555 ) ;
#219 = PLANE ( 'NONE',  #96 ) ;
#220 = DIRECTION ( 'NONE',  ( -1.000000000000000000, -1.215909390471913142E-16, 0.000000000000000000 ) ) ;
#221 =( NAMED_UNIT ( * ) SI_UNIT ( $, .STERADIAN. ) SOLID_ANGLE_UNIT ( ) );
#222 = STYLED_ITEM ( 'NONE', ( #76 ), #261 ) ;
#223 =( LENGTH_UNIT ( ) NAMED_UNIT ( * ) SI_UNIT ( $, .METRE. ) );
#224 = CYLINDRICAL_SURFACE ( 'NONE', #34, 0.2499999999999998890 ) ;
#225 = PRODUCT_DEFINITION ( 'UNKNOWN', '', #208, #60 ) ;
#226 = CLOSED_SHELL ( 'NONE', ( #109, #136, #53 ) ) ;
#227 = AXIS2_PLACEMENT_3D ( 'NONE', #19, #181, #106 ) ;
#228 = ORIENTED_EDGE ( 'NONE', *, *, #140, .T. ) ;
#229 =( NAMED_UNIT ( * ) PLANE_ANGLE_UNIT ( ) SI_UNIT ( $, .RADIAN. ) );
#230 = SURFACE_STYLE_FILL_AREA ( #187 ) ;
#231 = PRESENTATION_LAYER_ASSIGNMENT (  '', '', ( #68 ) ) ;
#232 = EDGE_LOOP ( 'NONE', ( #48, #236, #256 ) ) ;
#233 = DIMENSIONAL_EXPONENTS ( 1.000000000000000000, 0.000000000000000000, 0.000000000000000000, 0.000000000000000000, 0.000000000000000000, 0.000000000000000000, 0.000000000000000000 ) ;
#234 = LENGTH_MEASURE_WITH_UNIT ( LENGTH_MEASURE( 0.02539999999999999897 ), #126 );
#235 = CONICAL_SURFACE ( 'NONE', #115, 68.19097667594041923, 1.047197551196600074 ) ;
#236 = ORIENTED_EDGE ( 'NONE', *, *, #71, .T. ) ;
#237 = ADVANCED_FACE ( 'NONE', ( #263 ), #224, .T. ) ;
#238 = DIRECTION ( 'NONE',  ( -1.000000000000000000, -1.365923996832133088E-16, 0.000000000000000000 ) ) ;
#239 =( NAMED_UNIT ( * ) PLANE_ANGLE_UNIT ( ) SI_UNIT ( $, .RADIAN. ) );
#240 = MECHANICAL_DESIGN_GEOMETRIC_PRESENTATION_REPRESENTATION (  '', ( #192 ), #195 ) ;
#241 =( NAMED_UNIT ( * ) PLANE_ANGLE_UNIT ( ) SI_UNIT ( $, .RADIAN. ) );
#242 = EDGE_CURVE ( 'NONE', #254, #28, #59, .T. ) ;
#243 = CARTESIAN_POINT ( 'NONE',  ( -0.2499999999999994449, 0.1443375672974054058, 0.000000000000000000 ) ) ;
#244 = PRESENTATION_LAYER_ASSIGNMENT (  '', '', ( #222 ) ) ;
#245 =( GEOMETRIC_REPRESENTATION_CONTEXT ( 3 ) GLOBAL_UNCERTAINTY_ASSIGNED_CONTEXT ( ( #86 ) ) GLOBAL_UNIT_ASSIGNED_CONTEXT ( ( #11, #87, #191 ) ) REPRESENTATION_CONTEXT ( 'NONE', 'WORKASPACE' ) );
#246 = SURFACE_SIDE_STYLE ('',( #230 ) ) ;
#247 =( CONVERSION_BASED_UNIT ( 'INCH', #102 ) LENGTH_UNIT ( ) NAMED_UNIT ( #147 ) );
#248 = DIRECTION ( 'NONE',  ( 1.215909390471913142E-16, -1.000000000000000000, 0.000000000000000000 ) ) ;
#249 = PRODUCT_RELATED_PRODUCT_CATEGORY ( 'part', '', ( #199 ) ) ;
#250 = VECTOR ( 'NONE', #161, 39.37007874015748854 ) ;
#251 = LENGTH_MEASURE_WITH_UNIT ( LENGTH_MEASURE( 0.02539999999999999897 ), #25 );
#252 = PRESENTATION_STYLE_ASSIGNMENT (( #5 ) ) ;
#253 = DIRECTION ( 'NONE',  ( -1.215909390471913142E-16, 1.000000000000000000, -0.000000000000000000 ) ) ;
#254 = VERTEX_POINT ( 'NONE', #144 ) ;
#255 = DIMENSIONAL_EXPONENTS ( 1.000000000000000000, 0.000000000000000000, 0.000000000000000000, 0.000000000000000000, 0.000000000000000000, 0.000000000000000000, 0.000000000000000000 ) ;
#256 = ORIENTED_EDGE ( 'NONE', *, *, #242, .T. ) ;
#257 = PRODUCT_DEFINITION_SHAPE ( 'NONE', 'NONE',  #225 ) ;
#258 = AXIS2_PLACEMENT_3D ( 'NONE', #77, #248, #264 ) ;
#259 = CARTESIAN_POINT ( 'NONE',  ( -6.123233995736772199E-17, 3.000000000000000444, 0.000000000000000000 ) ) ;
#260 = DIRECTION ( 'NONE',  ( -1.215909390471913142E-16, 1.000000000000000000, -0.000000000000000000 ) ) ;
#261 = MANIFOLD_SOLID_BREP ( 'Revolve - Tool Body (Pointed)', #158 ) ;
#262 = SURFACE_STYLE_FILL_AREA ( #110 ) ;
#263 = FACE_OUTER_BOUND ( 'NONE', #154, .T. ) ;
#264 = DIRECTION ( 'NONE',  ( 1.000000000000000000, 1.215909390471913142E-16, 0.000000000000000000 ) ) ;
#265 = COLOUR_RGB ( '',1.000000000000000000, 0.000000000000000000, 0.000000000000000000 ) ;
ENDSEC;
END-ISO-10303-21;
