ISO-10303-21;
HEADER;
FILE_DESCRIPTION (( 'STEP AP214' ),
    '1' );
FILE_NAME ('Micro_GEM-312-2X.STEP',
    '2021-09-01T20:30:37',
    ( '' ),
    ( '' ),
    'SwSTEP 2.0',
    'SolidWorks 2020',
    '' );
FILE_SCHEMA (( 'AUTOMOTIVE_DESIGN' ));
ENDSEC;

DATA;
#1 = VERTEX_POINT ( 'NONE', #159 ) ;
#2 = ADVANCED_FACE ( 'NONE', ( #73 ), #9, .T. ) ;
#3 = CARTESIAN_POINT ( 'NONE',  ( 0.0000000000000000000, 0.0000000000000000000, 0.0000000000000000000 ) ) ;
#4 = ORIENTED_EDGE ( 'NONE', *, *, #182, .F. ) ;
#5 = CIRCLE ( 'NONE', #163, 0.1562500000000000000 ) ;
#6 = ADVANCED_FACE ( 'NONE', ( #95 ), #253, .T. ) ;
#7 = VERTEX_POINT ( 'NONE', #34 ) ;
#8 = ORIENTED_EDGE ( 'NONE', *, *, #72, .F. ) ;
#9 = CYLINDRICAL_SURFACE ( 'NONE', #275, 0.1560937499999999756 ) ;
#10 = PRODUCT ( 'Micro_GEM-312-2X', 'Micro_GEM-312-2X', '', ( #257 ) ) ;
#11 = CARTESIAN_POINT ( 'NONE',  ( -0.1562500000000000000, 0.0000000000000000000, 2.484999999999999432 ) ) ;
#12 = CARTESIAN_POINT ( 'NONE',  ( 9.956378477067980482E-17, 0.0000000000000000000, 0.8129999999999999449 ) ) ;
#13 = DIRECTION ( 'NONE',  ( 1.000000000000000000, 0.0000000000000000000, 0.0000000000000000000 ) ) ;
#14 = ADVANCED_FACE ( 'NONE', ( #216 ), #206, .T. ) ;
#15 = CIRCLE ( 'NONE', #19, 0.1562500000000000000 ) ;
#16 = DIRECTION ( 'NONE',  ( 0.0000000000000000000, 0.0000000000000000000, -1.000000000000000000 ) ) ;
#17 = CARTESIAN_POINT ( 'NONE',  ( 0.1562500000000001110, 1.913510623667740388E-17, 0.8138861377843152889 ) ) ;
#18 = DIRECTION ( 'NONE',  ( -1.000000000000000000, 0.0000000000000000000, 0.0000000000000000000 ) ) ;
#19 = AXIS2_PLACEMENT_3D ( 'NONE', #98, #119, #13 ) ;
#20 = DIRECTION ( 'NONE',  ( -0.0000000000000000000, -0.0000000000000000000, -1.000000000000000000 ) ) ;
#21 = VERTEX_POINT ( 'NONE', #11 ) ;
#22 = EDGE_CURVE ( 'NONE', #285, #1, #298, .T. ) ;
#23 = DIRECTION ( 'NONE',  ( 1.000000000000000000, 0.0000000000000000000, -0.0000000000000000000 ) ) ;
#24 = DIRECTION ( 'NONE',  ( -1.000000000000000000, 0.0000000000000000000, 1.224646799147353454E-16 ) ) ;
#25 = ORIENTED_EDGE ( 'NONE', *, *, #116, .F. ) ;
#26 = ADVANCED_FACE ( 'NONE', ( #198 ), #177, .T. ) ;
#27 = ORIENTED_EDGE ( 'NONE', *, *, #75, .T. ) ;
#28 = APPLICATION_PROTOCOL_DEFINITION ( 'draft international standard', 'automotive_design', 1998, #235 ) ;
#29 = EDGE_LOOP ( 'NONE', ( #283, #203, #260, #236 ) ) ;
#30 = AXIS2_PLACEMENT_3D ( 'NONE', #103, #120, #57 ) ;
#31 = CIRCLE ( 'NONE', #292, 0.1560937499999999756 ) ;
#32 = ORIENTED_EDGE ( 'NONE', *, *, #182, .T. ) ;
#33 = SURFACE_SIDE_STYLE ('',( #265 ) ) ;
#34 = CARTESIAN_POINT ( 'NONE',  ( 0.1560937499999999756, 1.911597113044071690E-17, 0.0000000000000000000 ) ) ;
#35 = CARTESIAN_POINT ( 'NONE',  ( -0.1560937499999999756, 0.0000000000000000000, 3.823194226088143379E-17 ) ) ;
#36 = LENGTH_MEASURE_WITH_UNIT ( LENGTH_MEASURE( 0.02539999999999999897 ), #218 );
#37 = FILL_AREA_STYLE_COLOUR ( '', #217 ) ;
#38 = DIRECTION ( 'NONE',  ( -0.0000000000000000000, -0.0000000000000000000, -1.000000000000000000 ) ) ;
#39 = ADVANCED_FACE ( 'NONE', ( #219 ), #99, .T. ) ;
#40 = VECTOR ( 'NONE', #150, 39.37007874015748143 ) ;
#41 = CYLINDRICAL_SURFACE ( 'NONE', #50, 0.1562500000000000000 ) ;
#42 = CARTESIAN_POINT ( 'NONE',  ( -0.1562499999999999167, 0.0000000000000000000, 0.8138861377843152889 ) ) ;
#43 = DIRECTION ( 'NONE',  ( -1.224646799147353207E-16, -0.0000000000000000000, -1.000000000000000000 ) ) ;
#44 = EDGE_LOOP ( 'NONE', ( #48, #71, #69, #131 ) ) ;
#45 = ORIENTED_EDGE ( 'NONE', *, *, #116, .T. ) ;
#46 = CARTESIAN_POINT ( 'NONE',  ( 0.0000000000000000000, 0.0000000000000000000, 2.500000000000000000 ) ) ;
#47 = PRESENTATION_STYLE_ASSIGNMENT (( #70 ) ) ;
#48 = ORIENTED_EDGE ( 'NONE', *, *, #180, .F. ) ;
#49 = CIRCLE ( 'NONE', #280, 0.1562500000000000000 ) ;
#50 = AXIS2_PLACEMENT_3D ( 'NONE', #83, #59, #105 ) ;
#51 =( NAMED_UNIT ( * ) PLANE_ANGLE_UNIT ( ) SI_UNIT ( $, .RADIAN. ) );
#52 = ORIENTED_EDGE ( 'NONE', *, *, #104, .F. ) ;
#53 = SURFACE_STYLE_USAGE ( .BOTH. , #58 ) ;
#54 = DIRECTION ( 'NONE',  ( 0.7071067811865410224, 8.659560562354852739E-17, -0.7071067811865539010 ) ) ;
#55 = MECHANICAL_DESIGN_GEOMETRIC_PRESENTATION_REPRESENTATION (  '', ( #82 ), #221 ) ;
#56 = DIRECTION ( 'NONE',  ( 0.0000000000000000000, 0.0000000000000000000, 1.000000000000000000 ) ) ;
#57 = DIRECTION ( 'NONE',  ( -1.000000000000000000, 0.0000000000000000000, 0.0000000000000000000 ) ) ;
#58 = SURFACE_SIDE_STYLE ('',( #268 ) ) ;
#59 = DIRECTION ( 'NONE',  ( -0.0000000000000000000, -0.0000000000000000000, -1.000000000000000000 ) ) ;
#60 = DIRECTION ( 'NONE',  ( -1.224646799147353207E-16, -0.0000000000000000000, -1.000000000000000000 ) ) ;
#61 = CYLINDRICAL_SURFACE ( 'NONE', #178, 0.1562500000000000000 ) ;
#62 = DIRECTION ( 'NONE',  ( 1.000000000000000000, 0.0000000000000000000, 0.0000000000000000000 ) ) ;
#63 = ORIENTED_EDGE ( 'NONE', *, *, #252, .F. ) ;
#64 = EDGE_CURVE ( 'NONE', #258, #299, #259, .T. ) ;
#65 = DIRECTION ( 'NONE',  ( -1.000000000000000000, 0.0000000000000000000, 1.224646799147353454E-16 ) ) ;
#66 =( NAMED_UNIT ( * ) SI_UNIT ( $, .STERADIAN. ) SOLID_ANGLE_UNIT ( ) );
#67 = VERTEX_POINT ( 'NONE', #17 ) ;
#68 = VECTOR ( 'NONE', #60, 39.37007874015748143 ) ;
#69 = ORIENTED_EDGE ( 'NONE', *, *, #72, .T. ) ;
#70 = SURFACE_STYLE_USAGE ( .BOTH. , #33 ) ;
#71 = ORIENTED_EDGE ( 'NONE', *, *, #141, .T. ) ;
#72 = EDGE_CURVE ( 'NONE', #21, #153, #145, .T. ) ;
#73 = FACE_OUTER_BOUND ( 'NONE', #93, .T. ) ;
#74 = LINE ( 'NONE', #166, #264 ) ;
#75 = EDGE_CURVE ( 'NONE', #258, #186, #102, .T. ) ;
#76 = DIRECTION ( 'NONE',  ( 1.000000000000000000, 0.0000000000000000000, 0.0000000000000000000 ) ) ;
#77 = DIRECTION ( 'NONE',  ( -0.1736481776669311916, 2.126576849575783316E-17, 0.9848077530122080203 ) ) ;
#78 = PRODUCT_DEFINITION_FORMATION_WITH_SPECIFIED_SOURCE ( 'ANY', '', #10, .NOT_KNOWN. ) ;
#79 = DIRECTION ( 'NONE',  ( -1.224646799147353207E-16, -0.0000000000000000000, -1.000000000000000000 ) ) ;
#80 = CARTESIAN_POINT ( 'NONE',  ( 9.956378477067980482E-17, 0.0000000000000000000, 0.8129999999999999449 ) ) ;
#81 = CYLINDRICAL_SURFACE ( 'NONE', #144, 0.1560937499999999756 ) ;
#82 = STYLED_ITEM ( 'NONE', ( #142 ), #140 ) ;
#83 = CARTESIAN_POINT ( 'NONE',  ( 0.0000000000000000000, 0.0000000000000000000, 2.500000000000000000 ) ) ;
#84 = FACE_OUTER_BOUND ( 'NONE', #44, .T. ) ;
#85 = FACE_OUTER_BOUND ( 'NONE', #155, .T. ) ;
#86 = CARTESIAN_POINT ( 'NONE',  ( 2.341031285748743514E-33, 0.0000000000000000000, 1.911597113044071690E-17 ) ) ;
#87 = CIRCLE ( 'NONE', #121, 0.1562500000000000000 ) ;
#88 = PRESENTATION_LAYER_ASSIGNMENT (  '', '', ( #138 ) ) ;
#89 = APPLICATION_PROTOCOL_DEFINITION ( 'draft international standard', 'automotive_design', 1998, #130 ) ;
#90 = CARTESIAN_POINT ( 'NONE',  ( 0.0000000000000000000, 0.0000000000000000000, 2.500000000000000000 ) ) ;
#91 = EDGE_LOOP ( 'NONE', ( #210, #239, #263, #94 ) ) ;
#92 =( GEOMETRIC_REPRESENTATION_CONTEXT ( 3 ) GLOBAL_UNCERTAINTY_ASSIGNED_CONTEXT ( ( #238 ) ) GLOBAL_UNIT_ASSIGNED_CONTEXT ( ( #209, #51, #237 ) ) REPRESENTATION_CONTEXT ( 'NONE', 'WORKASPACE' ) );
#93 = EDGE_LOOP ( 'NONE', ( #45, #189, #4, #228 ) ) ;
#94 = ORIENTED_EDGE ( 'NONE', *, *, #169, .T. ) ;
#95 = FACE_OUTER_BOUND ( 'NONE', #29, .T. ) ;
#96 = VECTOR ( 'NONE', #54, 39.37007874015748854 ) ;
#97 = DIRECTION ( 'NONE',  ( 0.0000000000000000000, 0.0000000000000000000, 1.000000000000000000 ) ) ;
#98 = CARTESIAN_POINT ( 'NONE',  ( 9.967230535079632947E-17, 0.0000000000000000000, 0.8138861377843152889 ) ) ;
#99 = CONICAL_SURFACE ( 'NONE', #190, 0.1560937499999999756, 0.1745329251994338915 ) ;
#100 = AXIS2_PLACEMENT_3D ( 'NONE', #3, #211, #282 ) ;
#101 = EDGE_CURVE ( 'NONE', #1, #153, #165, .T. ) ;
#102 = LINE ( 'NONE', #245, #96 ) ;
#103 = CARTESIAN_POINT ( 'NONE',  ( 9.956378477067980482E-17, 0.0000000000000000000, 0.8129999999999999449 ) ) ;
#104 = EDGE_CURVE ( 'NONE', #21, #186, #49, .T. ) ;
#105 = DIRECTION ( 'NONE',  ( -1.000000000000000000, 0.0000000000000000000, 0.0000000000000000000 ) ) ;
#106 = EDGE_CURVE ( 'NONE', #153, #67, #15, .T. ) ;
#107 = AXIS2_PLACEMENT_3D ( 'NONE', #80, #79, #267 ) ;
#108 = DIRECTION ( 'NONE',  ( 1.000000000000000000, 0.0000000000000000000, 0.0000000000000000000 ) ) ;
#109 = DIMENSIONAL_EXPONENTS ( 1.000000000000000000, 0.0000000000000000000, 0.0000000000000000000, 0.0000000000000000000, 0.0000000000000000000, 0.0000000000000000000, 0.0000000000000000000 ) ;
#110 = DIRECTION ( 'NONE',  ( 1.224646799147353207E-16, 0.0000000000000000000, 1.000000000000000000 ) ) ;
#111 = EDGE_CURVE ( 'NONE', #285, #67, #74, .T. ) ;
#112 =( LENGTH_UNIT ( ) NAMED_UNIT ( * ) SI_UNIT ( $, .METRE. ) );
#113 = ORIENTED_EDGE ( 'NONE', *, *, #106, .T. ) ;
#114 = CARTESIAN_POINT ( 'NONE',  ( 0.0000000000000000000, 0.0000000000000000000, 0.0000000000000000000 ) ) ;
#115 = ORIENTED_EDGE ( 'NONE', *, *, #134, .F. ) ;
#116 = EDGE_CURVE ( 'NONE', #1, #285, #242, .T. ) ;
#117 = ORIENTED_EDGE ( 'NONE', *, *, #252, .T. ) ;
#118 = EDGE_LOOP ( 'NONE', ( #286, #187 ) ) ;
#119 = DIRECTION ( 'NONE',  ( -1.224646799147353207E-16, -0.0000000000000000000, -1.000000000000000000 ) ) ;
#120 = DIRECTION ( 'NONE',  ( -1.224646799147353207E-16, -0.0000000000000000000, -1.000000000000000000 ) ) ;
#121 = AXIS2_PLACEMENT_3D ( 'NONE', #143, #123, #226 ) ;
#122 =( CONVERSION_BASED_UNIT ( 'INCH', #36 ) LENGTH_UNIT ( ) NAMED_UNIT ( #109 ) );
#123 = DIRECTION ( 'NONE',  ( 0.0000000000000000000, 0.0000000000000000000, -1.000000000000000000 ) ) ;
#124 = FACE_OUTER_BOUND ( 'NONE', #287, .T. ) ;
#125 = DIMENSIONAL_EXPONENTS ( 1.000000000000000000, 0.0000000000000000000, 0.0000000000000000000, 0.0000000000000000000, 0.0000000000000000000, 0.0000000000000000000, 0.0000000000000000000 ) ;
#126 = DIMENSIONAL_EXPONENTS ( 1.000000000000000000, 0.0000000000000000000, 0.0000000000000000000, 0.0000000000000000000, 0.0000000000000000000, 0.0000000000000000000, 0.0000000000000000000 ) ;
#127 = CARTESIAN_POINT ( 'NONE',  ( 9.967230535079632947E-17, 0.0000000000000000000, 0.8138861377843152889 ) ) ;
#128 = VECTOR ( 'NONE', #77, 39.37007874015747433 ) ;
#129 = DIRECTION ( 'NONE',  ( -1.000000000000000000, 0.0000000000000000000, 1.224646799147353454E-16 ) ) ;
#130 = APPLICATION_CONTEXT ( 'automotive_design' ) ;
#131 = ORIENTED_EDGE ( 'NONE', *, *, #169, .F. ) ;
#132 = EDGE_CURVE ( 'NONE', #299, #258, #184, .T. ) ;
#133 = VERTEX_POINT ( 'NONE', #35 ) ;
#134 = EDGE_CURVE ( 'NONE', #299, #21, #272, .T. ) ;
#135 =( NAMED_UNIT ( * ) PLANE_ANGLE_UNIT ( ) SI_UNIT ( $, .RADIAN. ) );
#136 = ORIENTED_EDGE ( 'NONE', *, *, #106, .F. ) ;
#137 = PRESENTATION_LAYER_ASSIGNMENT (  '', '', ( #82 ) ) ;
#138 = STYLED_ITEM ( 'NONE', ( #47 ), #288 ) ;
#139 = ORIENTED_EDGE ( 'NONE', *, *, #192, .F. ) ;
#140 = MANIFOLD_SOLID_BREP ( 'Cut-Revolve1', #162 ) ;
#141 = EDGE_CURVE ( 'NONE', #186, #21, #87, .T. ) ;
#142 = PRESENTATION_STYLE_ASSIGNMENT (( #53 ) ) ;
#143 = CARTESIAN_POINT ( 'NONE',  ( 0.0000000000000000000, 0.0000000000000000000, 2.484999999999999432 ) ) ;
#144 = AXIS2_PLACEMENT_3D ( 'NONE', #251, #296, #297 ) ;
#145 = LINE ( 'NONE', #197, #195 ) ;
#146 = DIRECTION ( 'NONE',  ( 1.224646799147353207E-16, 0.0000000000000000000, 1.000000000000000000 ) ) ;
#147 = AXIS2_PLACEMENT_3D ( 'NONE', #90, #97, #293 ) ;
#148 = CARTESIAN_POINT ( 'NONE',  ( -0.1412499999999994871, 0.0000000000000000000, 2.500000000000000000 ) ) ;
#149 = CARTESIAN_POINT ( 'NONE',  ( 0.1412499999999994871, 1.821662113731684786E-17, 2.500000000000000000 ) ) ;
#150 = DIRECTION ( 'NONE',  ( -0.0000000000000000000, -0.0000000000000000000, -1.000000000000000000 ) ) ;
#151 = COLOUR_RGB ( '',0.7921568627450980005, 0.8196078431372548767, 0.9333333333333333481 ) ;
#152 = PLANE ( 'NONE',  #222 ) ;
#153 = VERTEX_POINT ( 'NONE', #42 ) ;
#154 = DIRECTION ( 'NONE',  ( -1.224646799147353207E-16, -0.0000000000000000000, -1.000000000000000000 ) ) ;
#155 = EDGE_LOOP ( 'NONE', ( #25, #183, #113, #241 ) ) ;
#156 = AXIS2_PLACEMENT_3D ( 'NONE', #289, #193, #76 ) ;
#157 = EDGE_LOOP ( 'NONE', ( #32, #117 ) ) ;
#158 = ADVANCED_FACE ( 'NONE', ( #124 ), #41, .T. ) ;
#159 = CARTESIAN_POINT ( 'NONE',  ( -0.1560937499999998923, 1.912553868355905422E-17, 0.8129999999999999449 ) ) ;
#160 = EDGE_LOOP ( 'NONE', ( #139, #250, #214, #63 ) ) ;
#161 = DIRECTION ( 'NONE',  ( -1.000000000000000000, 0.0000000000000000000, 0.0000000000000000000 ) ) ;
#162 = CLOSED_SHELL ( 'NONE', ( #2, #262, #26, #158, #277, #14, #6, #39, #271, #173 ) ) ;
#163 = AXIS2_PLACEMENT_3D ( 'NONE', #127, #231, #108 ) ;
#164 = DIRECTION ( 'NONE',  ( -0.7071067811865410224, 0.0000000000000000000, -0.7071067811865539010 ) ) ;
#165 = LINE ( 'NONE', #246, #128 ) ;
#166 = CARTESIAN_POINT ( 'NONE',  ( 0.1560937500000000866, 0.0000000000000000000, 0.8129999999999999449 ) ) ;
#167 = AXIS2_PLACEMENT_3D ( 'NONE', #256, #43, #24 ) ;
#168 = DIRECTION ( 'NONE',  ( 0.0000000000000000000, 0.0000000000000000000, -1.000000000000000000 ) ) ;
#169 = EDGE_CURVE ( 'NONE', #67, #153, #5, .T. ) ;
#170 = DIRECTION ( 'NONE',  ( 1.000000000000000000, 0.0000000000000000000, 0.0000000000000000000 ) ) ;
#171 = CARTESIAN_POINT ( 'NONE',  ( 0.1562500000000000000, 1.913510623667739463E-17, 2.500000000000000000 ) ) ;
#172 = AXIS2_PLACEMENT_3D ( 'NONE', #220, #56, #170 ) ;
#173 = ADVANCED_FACE ( 'NONE', ( #295 ), #152, .F. ) ;
#174 =( NAMED_UNIT ( * ) SI_UNIT ( $, .STERADIAN. ) SOLID_ANGLE_UNIT ( ) );
#175 = LINE ( 'NONE', #176, #201 ) ;
#176 = CARTESIAN_POINT ( 'NONE',  ( -0.1560937499999999756, 0.0000000000000000000, 1.911597113044071690E-17 ) ) ;
#177 = CONICAL_SURFACE ( 'NONE', #290, 0.1412499999999994871, 0.7853981633974391752 ) ;
#178 = AXIS2_PLACEMENT_3D ( 'NONE', #227, #20, #18 ) ;
#179 = CARTESIAN_POINT ( 'NONE',  ( 0.1560937499999999756, 1.911597113044071690E-17, -1.911597113044071690E-17 ) ) ;
#180 = EDGE_CURVE ( 'NONE', #186, #67, #202, .T. ) ;
#181 = FILL_AREA_STYLE_COLOUR ( '', #151 ) ;
#182 = EDGE_CURVE ( 'NONE', #133, #7, #31, .T. ) ;
#183 = ORIENTED_EDGE ( 'NONE', *, *, #101, .T. ) ;
#184 = CIRCLE ( 'NONE', #172, 0.1412499999999994871 ) ;
#185 =( CONVERSION_BASED_UNIT ( 'INCH', #281 ) LENGTH_UNIT ( ) NAMED_UNIT ( #125 ) );
#186 = VERTEX_POINT ( 'NONE', #255 ) ;
#187 = ORIENTED_EDGE ( 'NONE', *, *, #64, .T. ) ;
#188 = ORIENTED_EDGE ( 'NONE', *, *, #104, .T. ) ;
#189 = ORIENTED_EDGE ( 'NONE', *, *, #192, .T. ) ;
#190 = AXIS2_PLACEMENT_3D ( 'NONE', #12, #146, #223 ) ;
#191 = DIRECTION ( 'NONE',  ( -1.000000000000000000, 0.0000000000000000000, 0.0000000000000000000 ) ) ;
#192 = EDGE_CURVE ( 'NONE', #285, #7, #294, .T. ) ;
#193 = DIRECTION ( 'NONE',  ( 0.0000000000000000000, 0.0000000000000000000, 1.000000000000000000 ) ) ;
#194 = CARTESIAN_POINT ( 'NONE',  ( 0.0000000000000000000, 0.0000000000000000000, 2.500000000000000000 ) ) ;
#195 = VECTOR ( 'NONE', #38, 39.37007874015748143 ) ;
#196 = CIRCLE ( 'NONE', #167, 0.1560937499999999756 ) ;
#197 = CARTESIAN_POINT ( 'NONE',  ( -0.1562500000000000000, 0.0000000000000000000, 2.500000000000000000 ) ) ;
#198 = FACE_OUTER_BOUND ( 'NONE', #230, .T. ) ;
#199 =( NAMED_UNIT ( * ) PLANE_ANGLE_UNIT ( ) SI_UNIT ( $, .RADIAN. ) );
#200 = VECTOR ( 'NONE', #164, 39.37007874015748854 ) ;
#201 = VECTOR ( 'NONE', #154, 39.37007874015748143 ) ;
#202 = LINE ( 'NONE', #171, #40 ) ;
#203 = ORIENTED_EDGE ( 'NONE', *, *, #132, .F. ) ;
#204 = CARTESIAN_POINT ( 'NONE',  ( 0.0000000000000000000, 0.0000000000000000000, 0.0000000000000000000 ) ) ;
#205 = FILL_AREA_STYLE ('',( #181 ) ) ;
#206 = PLANE ( 'NONE',  #147 ) ;
#207 = SHAPE_DEFINITION_REPRESENTATION ( #224, #288 ) ;
#208 = DIRECTION ( 'NONE',  ( -1.224646799147353207E-16, -0.0000000000000000000, -1.000000000000000000 ) ) ;
#209 =( CONVERSION_BASED_UNIT ( 'INCH', #225 ) LENGTH_UNIT ( ) NAMED_UNIT ( #126 ) );
#210 = ORIENTED_EDGE ( 'NONE', *, *, #101, .F. ) ;
#211 = DIRECTION ( 'NONE',  ( 0.0000000000000000000, 0.0000000000000000000, 1.000000000000000000 ) ) ;
#212 = EDGE_CURVE ( 'NONE', #1, #133, #175, .T. ) ;
#213 = UNCERTAINTY_MEASURE_WITH_UNIT (LENGTH_MEASURE( 1.000000000000000082E-05 ), #185, 'distance_accuracy_value', 'NONE');
#214 = ORIENTED_EDGE ( 'NONE', *, *, #212, .T. ) ;
#215 = PRODUCT_DEFINITION ( 'UNKNOWN', '', #78, #233 ) ;
#216 = FACE_OUTER_BOUND ( 'NONE', #118, .T. ) ;
#217 = COLOUR_RGB ( '',0.7921568627450980005, 0.8196078431372548767, 0.9333333333333333481 ) ;
#218 =( LENGTH_UNIT ( ) NAMED_UNIT ( * ) SI_UNIT ( $, .METRE. ) );
#219 = FACE_OUTER_BOUND ( 'NONE', #91, .T. ) ;
#220 = CARTESIAN_POINT ( 'NONE',  ( 0.0000000000000000000, 0.0000000000000000000, 2.500000000000000000 ) ) ;
#221 =( GEOMETRIC_REPRESENTATION_CONTEXT ( 3 ) GLOBAL_UNCERTAINTY_ASSIGNED_CONTEXT ( ( #229 ) ) GLOBAL_UNIT_ASSIGNED_CONTEXT ( ( #122, #199, #174 ) ) REPRESENTATION_CONTEXT ( 'NONE', 'WORKASPACE' ) );
#222 = AXIS2_PLACEMENT_3D ( 'NONE', #204, #249, #23 ) ;
#223 = DIRECTION ( 'NONE',  ( 1.000000000000000000, 0.0000000000000000000, 0.0000000000000000000 ) ) ;
#224 = PRODUCT_DEFINITION_SHAPE ( 'NONE', 'NONE',  #215 ) ;
#225 = LENGTH_MEASURE_WITH_UNIT ( LENGTH_MEASURE( 0.02539999999999999897 ), #248 );
#226 = DIRECTION ( 'NONE',  ( 1.000000000000000000, 0.0000000000000000000, 0.0000000000000000000 ) ) ;
#227 = CARTESIAN_POINT ( 'NONE',  ( 0.0000000000000000000, 0.0000000000000000000, 2.500000000000000000 ) ) ;
#228 = ORIENTED_EDGE ( 'NONE', *, *, #212, .F. ) ;
#229 = UNCERTAINTY_MEASURE_WITH_UNIT (LENGTH_MEASURE( 1.000000000000000082E-05 ), #122, 'distance_accuracy_value', 'NONE');
#230 = EDGE_LOOP ( 'NONE', ( #284, #27, #52, #115 ) ) ;
#231 = DIRECTION ( 'NONE',  ( -1.224646799147353207E-16, -0.0000000000000000000, -1.000000000000000000 ) ) ;
#232 = AXIS2_PLACEMENT_3D ( 'NONE', #278, #110, #62 ) ;
#233 = PRODUCT_DEFINITION_CONTEXT ( 'detailed design', #130, 'design' ) ;
#234 = DIRECTION ( 'NONE',  ( 0.0000000000000000000, 0.0000000000000000000, -1.000000000000000000 ) ) ;
#235 = APPLICATION_CONTEXT ( 'automotive_design' ) ;
#236 = ORIENTED_EDGE ( 'NONE', *, *, #141, .F. ) ;
#237 =( NAMED_UNIT ( * ) SI_UNIT ( $, .STERADIAN. ) SOLID_ANGLE_UNIT ( ) );
#238 = UNCERTAINTY_MEASURE_WITH_UNIT (LENGTH_MEASURE( 1.000000000000000082E-05 ), #209, 'distance_accuracy_value', 'NONE');
#239 = ORIENTED_EDGE ( 'NONE', *, *, #22, .F. ) ;
#240 = MECHANICAL_DESIGN_GEOMETRIC_PRESENTATION_REPRESENTATION (  '', ( #138 ), #266 ) ;
#241 = ORIENTED_EDGE ( 'NONE', *, *, #111, .F. ) ;
#242 = CIRCLE ( 'NONE', #107, 0.1560937499999999756 ) ;
#243 = FILL_AREA_STYLE ('',( #37 ) ) ;
#244 = CARTESIAN_POINT ( 'NONE',  ( -0.1412499999999994871, 0.0000000000000000000, 2.500000000000000000 ) ) ;
#245 = CARTESIAN_POINT ( 'NONE',  ( 0.1412499999999994871, 1.729813603795630110E-17, 2.500000000000000000 ) ) ;
#246 = CARTESIAN_POINT ( 'NONE',  ( -0.1560937499999998923, 1.911597113044071690E-17, 0.8129999999999999449 ) ) ;
#247 = AXIS2_PLACEMENT_3D ( 'NONE', #46, #234, #161 ) ;
#248 =( LENGTH_UNIT ( ) NAMED_UNIT ( * ) SI_UNIT ( $, .METRE. ) );
#249 = DIRECTION ( 'NONE',  ( 0.0000000000000000000, 0.0000000000000000000, 1.000000000000000000 ) ) ;
#250 = ORIENTED_EDGE ( 'NONE', *, *, #22, .T. ) ;
#251 = CARTESIAN_POINT ( 'NONE',  ( 0.0000000000000000000, 0.0000000000000000000, 0.0000000000000000000 ) ) ;
#252 = EDGE_CURVE ( 'NONE', #7, #133, #196, .T. ) ;
#253 = CONICAL_SURFACE ( 'NONE', #247, 0.1412499999999994871, 0.7853981633974391752 ) ;
#254 = CONICAL_SURFACE ( 'NONE', #232, 0.1560937499999999756, 0.1745329251994338915 ) ;
#255 = CARTESIAN_POINT ( 'NONE',  ( 0.1562500000000000000, 1.913510623667739463E-17, 2.484999999999999432 ) ) ;
#256 = CARTESIAN_POINT ( 'NONE',  ( 2.341031285748743514E-33, 0.0000000000000000000, 1.911597113044071690E-17 ) ) ;
#257 = PRODUCT_CONTEXT ( 'NONE', #235, 'mechanical' ) ;
#258 = VERTEX_POINT ( 'NONE', #149 ) ;
#259 = CIRCLE ( 'NONE', #156, 0.1412499999999994871 ) ;
#260 = ORIENTED_EDGE ( 'NONE', *, *, #134, .T. ) ;
#261 = ORIENTED_EDGE ( 'NONE', *, *, #180, .T. ) ;
#262 = ADVANCED_FACE ( 'NONE', ( #85 ), #254, .T. ) ;
#263 = ORIENTED_EDGE ( 'NONE', *, *, #111, .T. ) ;
#264 = VECTOR ( 'NONE', #270, 39.37007874015748143 ) ;
#265 = SURFACE_STYLE_FILL_AREA ( #205 ) ;
#266 =( GEOMETRIC_REPRESENTATION_CONTEXT ( 3 ) GLOBAL_UNCERTAINTY_ASSIGNED_CONTEXT ( ( #213 ) ) GLOBAL_UNIT_ASSIGNED_CONTEXT ( ( #185, #135, #66 ) ) REPRESENTATION_CONTEXT ( 'NONE', 'WORKASPACE' ) );
#267 = DIRECTION ( 'NONE',  ( -1.000000000000000000, 0.0000000000000000000, 0.0000000000000000000 ) ) ;
#268 = SURFACE_STYLE_FILL_AREA ( #243 ) ;
#269 = DIRECTION ( 'NONE',  ( 1.000000000000000000, 0.0000000000000000000, 0.0000000000000000000 ) ) ;
#270 = DIRECTION ( 'NONE',  ( 0.1736481776669313859, 0.0000000000000000000, 0.9848077530122077983 ) ) ;
#271 = ADVANCED_FACE ( 'NONE', ( #279 ), #81, .T. ) ;
#272 = LINE ( 'NONE', #244, #200 ) ;
#273 = PRODUCT_RELATED_PRODUCT_CATEGORY ( 'part', '', ( #10 ) ) ;
#274 = CARTESIAN_POINT ( 'NONE',  ( 0.1560937500000000866, 0.0000000000000000000, 0.8129999999999999449 ) ) ;
#275 = AXIS2_PLACEMENT_3D ( 'NONE', #114, #208, #129 ) ;
#276 = DIRECTION ( 'NONE',  ( -1.224646799147353207E-16, -0.0000000000000000000, -1.000000000000000000 ) ) ;
#277 = ADVANCED_FACE ( 'NONE', ( #84 ), #61, .T. ) ;
#278 = CARTESIAN_POINT ( 'NONE',  ( 9.956378477067980482E-17, 0.0000000000000000000, 0.8129999999999999449 ) ) ;
#279 = FACE_OUTER_BOUND ( 'NONE', #160, .T. ) ;
#280 = AXIS2_PLACEMENT_3D ( 'NONE', #291, #16, #269 ) ;
#281 = LENGTH_MEASURE_WITH_UNIT ( LENGTH_MEASURE( 0.02539999999999999897 ), #112 );
#282 = DIRECTION ( 'NONE',  ( 1.000000000000000000, 0.0000000000000000000, 0.0000000000000000000 ) ) ;
#283 = ORIENTED_EDGE ( 'NONE', *, *, #75, .F. ) ;
#284 = ORIENTED_EDGE ( 'NONE', *, *, #64, .F. ) ;
#285 = VERTEX_POINT ( 'NONE', #274 ) ;
#286 = ORIENTED_EDGE ( 'NONE', *, *, #132, .T. ) ;
#287 = EDGE_LOOP ( 'NONE', ( #188, #261, #136, #8 ) ) ;
#288 = ADVANCED_BREP_SHAPE_REPRESENTATION ( 'Micro_GEM-312-2X', ( #140, #100 ), #92 ) ;
#289 = CARTESIAN_POINT ( 'NONE',  ( 0.0000000000000000000, 0.0000000000000000000, 2.500000000000000000 ) ) ;
#290 = AXIS2_PLACEMENT_3D ( 'NONE', #194, #168, #191 ) ;
#291 = CARTESIAN_POINT ( 'NONE',  ( 0.0000000000000000000, 0.0000000000000000000, 2.484999999999999432 ) ) ;
#292 = AXIS2_PLACEMENT_3D ( 'NONE', #86, #276, #65 ) ;
#293 = DIRECTION ( 'NONE',  ( 1.000000000000000000, 0.0000000000000000000, -0.0000000000000000000 ) ) ;
#294 = LINE ( 'NONE', #179, #68 ) ;
#295 = FACE_OUTER_BOUND ( 'NONE', #157, .T. ) ;
#296 = DIRECTION ( 'NONE',  ( -1.224646799147353207E-16, -0.0000000000000000000, -1.000000000000000000 ) ) ;
#297 = DIRECTION ( 'NONE',  ( -1.000000000000000000, 0.0000000000000000000, 1.224646799147353454E-16 ) ) ;
#298 = CIRCLE ( 'NONE', #30, 0.1560937499999999756 ) ;
#299 = VERTEX_POINT ( 'NONE', #148 ) ;
ENDSEC;
END-ISO-10303-21;
