ISO-10303-21;
HEADER;
FILE_DESCRIPTION (( 'STEP AP214' ),
    '1' );
FILE_NAME ('84990.STEP',
    '2023-06-23T15:19:05',
    ( '' ),
    ( '' ),
    'SwSTEP 2.0',
    'SolidWorks 2023',
    '' );
FILE_SCHEMA (( 'AUTOMOTIVE_DESIGN' ));
ENDSEC;

DATA;
#1 = CARTESIAN_POINT ( 'NONE',  ( 0.000000000000000000, 4.250000000000000000, 0.000000000000000000 ) ) ;
#2 = MECHANICAL_DESIGN_GEOMETRIC_PRESENTATION_REPRESENTATION (  '', ( #14 ), #174 ) ;
#3 = DIRECTION ( 'NONE',  ( -0.000000000000000000, -1.000000000000000000, -0.000000000000000000 ) ) ;
#4 =( NAMED_UNIT ( * ) PLANE_ANGLE_UNIT ( ) SI_UNIT ( $, .RADIAN. ) );
#5 = FILL_AREA_STYLE ('',( #298 ) ) ;
#6 = LINE ( 'NONE', #113, #300 ) ;
#7 = LENGTH_MEASURE_WITH_UNIT ( LENGTH_MEASURE( 0.02539999999999999897 ), #196 );
#8 = DIRECTION ( 'NONE',  ( -1.000000000000000000, 0.000000000000000000, 0.000000000000000000 ) ) ;
#9 = ADVANCED_FACE ( 'NONE', ( #165 ), #233, .T. ) ;
#10 = PLANE ( 'NONE',  #26 ) ;
#11 = PRODUCT ( '84990', '84990', '', ( #139 ) ) ;
#12 = FACE_OUTER_BOUND ( 'NONE', #213, .T. ) ;
#13 = EDGE_LOOP ( 'NONE', ( #235, #18 ) ) ;
#14 = STYLED_ITEM ( 'NONE', ( #146 ), #290 ) ;
#15 = LENGTH_MEASURE_WITH_UNIT ( LENGTH_MEASURE( 0.02539999999999999897 ), #289 );
#16 = EDGE_LOOP ( 'NONE', ( #71, #297 ) ) ;
#17 = SURFACE_STYLE_FILL_AREA ( #38 ) ;
#18 = ORIENTED_EDGE ( 'NONE', *, *, #259, .F. ) ;
#19 = PLANE ( 'NONE',  #210 ) ;
#20 = STYLED_ITEM ( 'NONE', ( #287 ), #9 ) ;
#21 = CARTESIAN_POINT ( 'NONE',  ( 0.000000000000000000, 4.250000000000000000, -0.5000000000000000000 ) ) ;
#22 = DIRECTION ( 'NONE',  ( -0.000000000000000000, -1.000000000000000000, -0.000000000000000000 ) ) ;
#23 = COLOUR_RGB ( '',0.7921568627450980005, 0.8196078431372548767, 0.9333333333333333481 ) ;
#24 = EDGE_CURVE ( 'NONE', #66, #160, #63, .T. ) ;
#25 =( NAMED_UNIT ( * ) SI_UNIT ( $, .STERADIAN. ) SOLID_ANGLE_UNIT ( ) );
#26 = AXIS2_PLACEMENT_3D ( 'NONE', #155, #84, #176 ) ;
#27 = SURFACE_STYLE_FILL_AREA ( #5 ) ;
#28 = EDGE_CURVE ( 'NONE', #43, #87, #171, .T. ) ;
#29 = PRESENTATION_STYLE_ASSIGNMENT (( #178 ) ) ;
#30 = VERTEX_POINT ( 'NONE', #221 ) ;
#31 = DIRECTION ( 'NONE',  ( -1.000000000000000000, 0.000000000000000000, 0.000000000000000000 ) ) ;
#32 = ORIENTED_EDGE ( 'NONE', *, *, #306, .T. ) ;
#33 = EDGE_CURVE ( 'NONE', #305, #30, #217, .T. ) ;
#34 = AXIS2_PLACEMENT_3D ( 'NONE', #123, #254, #72 ) ;
#35 = DIRECTION ( 'NONE',  ( 0.000000000000000000, 0.000000000000000000, -1.000000000000000000 ) ) ;
#36 = UNCERTAINTY_MEASURE_WITH_UNIT (LENGTH_MEASURE( 1.000000000000000082E-05 ), #124, 'distance_accuracy_value', 'NONE');
#37 = DIRECTION ( 'NONE',  ( -1.000000000000000000, 0.000000000000000000, 0.000000000000000000 ) ) ;
#38 = FILL_AREA_STYLE ('',( #128 ) ) ;
#39 = CARTESIAN_POINT ( 'NONE',  ( -3.673940397442059375E-16, 7.000000000000000000, 0.000000000000000000 ) ) ;
#40 = EDGE_LOOP ( 'NONE', ( #162, #224, #114, #179 ) ) ;
#41 = EDGE_CURVE ( 'NONE', #202, #184, #53, .T. ) ;
#42 = SURFACE_SIDE_STYLE ('',( #237 ) ) ;
#43 = VERTEX_POINT ( 'NONE', #80 ) ;
#44 = CARTESIAN_POINT ( 'NONE',  ( 0.000000000000000000, 4.250000000000000000, 0.000000000000000000 ) ) ;
#45 = ORIENTED_EDGE ( 'NONE', *, *, #24, .T. ) ;
#46 = FILL_AREA_STYLE ('',( #257 ) ) ;
#47 = AXIS2_PLACEMENT_3D ( 'NONE', #193, #198, #35 ) ;
#48 = DIRECTION ( 'NONE',  ( 0.000000000000000000, 0.000000000000000000, -1.000000000000000000 ) ) ;
#49 = LENGTH_MEASURE_WITH_UNIT ( LENGTH_MEASURE( 0.02539999999999999897 ), #172 );
#50 = DIRECTION ( 'NONE',  ( -0.000000000000000000, -1.000000000000000000, -0.000000000000000000 ) ) ;
#51 = STYLED_ITEM ( 'NONE', ( #29 ), #108 ) ;
#52 = PRODUCT_RELATED_PRODUCT_CATEGORY ( 'part', '', ( #11 ) ) ;
#53 = LINE ( 'NONE', #189, #81 ) ;
#54 = SURFACE_STYLE_FILL_AREA ( #244 ) ;
#55 = DIRECTION ( 'NONE',  ( -1.000000000000000000, 0.000000000000000000, 0.000000000000000000 ) ) ;
#56 =( CONVERSION_BASED_UNIT ( 'INCH', #91 ) LENGTH_UNIT ( ) NAMED_UNIT ( #268 ) );
#57 = PRESENTATION_LAYER_ASSIGNMENT (  '', '', ( #20 ) ) ;
#58 =( NAMED_UNIT ( * ) SI_UNIT ( $, .STERADIAN. ) SOLID_ANGLE_UNIT ( ) );
#59 =( NAMED_UNIT ( * ) SI_UNIT ( $, .STERADIAN. ) SOLID_ANGLE_UNIT ( ) );
#60 = CYLINDRICAL_SURFACE ( 'NONE', #220, 0.5000000000000001110 ) ;
#61 = ADVANCED_FACE ( 'NONE', ( #218 ), #133, .T. ) ;
#62 = FACE_OUTER_BOUND ( 'NONE', #40, .T. ) ;
#63 = CIRCLE ( 'NONE', #145, 0.5000000000000000000 ) ;
#64 =( GEOMETRIC_REPRESENTATION_CONTEXT ( 3 ) GLOBAL_UNCERTAINTY_ASSIGNED_CONTEXT ( ( #309 ) ) GLOBAL_UNIT_ASSIGNED_CONTEXT ( ( #182, #97, #183 ) ) REPRESENTATION_CONTEXT ( 'NONE', 'WORKASPACE' ) );
#65 = UNCERTAINTY_MEASURE_WITH_UNIT (LENGTH_MEASURE( 1.000000000000000082E-05 ), #110, 'distance_accuracy_value', 'NONE');
#66 = VERTEX_POINT ( 'NONE', #21 ) ;
#67 = CARTESIAN_POINT ( 'NONE',  ( -0.5000000000000006661, 7.000000000000000000, 0.000000000000000000 ) ) ;
#68 = EDGE_LOOP ( 'NONE', ( #303, #274, #284, #159 ) ) ;
#69 = ORIENTED_EDGE ( 'NONE', *, *, #28, .F. ) ;
#70 = CARTESIAN_POINT ( 'NONE',  ( 4.462095221142717523E-33, 4.250000000000000000, 0.000000000000000000 ) ) ;
#71 = ORIENTED_EDGE ( 'NONE', *, *, #24, .F. ) ;
#72 = DIRECTION ( 'NONE',  ( -1.000000000000000000, 0.000000000000000000, 0.000000000000000000 ) ) ;
#73 = AXIS2_PLACEMENT_3D ( 'NONE', #154, #222, #223 ) ;
#74 = UNCERTAINTY_MEASURE_WITH_UNIT (LENGTH_MEASURE( 1.000000000000000082E-05 ), #296, 'distance_accuracy_value', 'NONE');
#75 = CARTESIAN_POINT ( 'NONE',  ( 0.000000000000000000, 0.000000000000000000, 0.000000000000000000 ) ) ;
#76 = STYLED_ITEM ( 'NONE', ( #255 ), #281 ) ;
#77 = CARTESIAN_POINT ( 'NONE',  ( 0.4999999999999997780, 7.000000000000000000, 6.123233995736767268E-17 ) ) ;
#78 = DIRECTION ( 'NONE',  ( 0.000000000000000000, -0.000000000000000000, 1.000000000000000000 ) ) ;
#79 = APPLICATION_CONTEXT ( 'automotive_design' ) ;
#80 = CARTESIAN_POINT ( 'NONE',  ( 0.5000000000000000000, 4.250000000000000000, 6.123233995736768501E-17 ) ) ;
#81 = VECTOR ( 'NONE', #151, 39.37007874015748143 ) ;
#82 = PRESENTATION_LAYER_ASSIGNMENT (  '', '', ( #14 ) ) ;
#83 = SURFACE_STYLE_FILL_AREA ( #216 ) ;
#84 = DIRECTION ( 'NONE',  ( 0.000000000000000000, -1.000000000000000000, -0.000000000000000000 ) ) ;
#85 = APPLICATION_CONTEXT ( 'automotive_design' ) ;
#86 = AXIS2_PLACEMENT_3D ( 'NONE', #44, #126, #181 ) ;
#87 = VERTEX_POINT ( 'NONE', #219 ) ;
#88 = LENGTH_MEASURE_WITH_UNIT ( LENGTH_MEASURE( 0.02539999999999999897 ), #194 );
#89 = CYLINDRICAL_SURFACE ( 'NONE', #149, 0.5000000000000001110 ) ;
#90 = ADVANCED_FACE ( 'NONE', ( #293 ), #129, .T. ) ;
#91 = LENGTH_MEASURE_WITH_UNIT ( LENGTH_MEASURE( 0.02539999999999999897 ), #199 );
#92 = ORIENTED_EDGE ( 'NONE', *, *, #33, .T. ) ;
#93 = COLOUR_RGB ( '',1.000000000000000000, 0.000000000000000000, 0.000000000000000000 ) ;
#94 = CIRCLE ( 'NONE', #34, 0.5000000000000000000 ) ;
#95 = DIRECTION ( 'NONE',  ( -0.000000000000000000, -1.000000000000000000, -0.000000000000000000 ) ) ;
#96 = ADVANCED_FACE ( 'NONE', ( #12 ), #89, .T. ) ;
#97 =( NAMED_UNIT ( * ) PLANE_ANGLE_UNIT ( ) SI_UNIT ( $, .RADIAN. ) );
#98 = MECHANICAL_DESIGN_GEOMETRIC_PRESENTATION_REPRESENTATION (  '', ( #51 ), #169 ) ;
#99 = ADVANCED_FACE ( 'NONE', ( #62 ), #60, .T. ) ;
#100 = SURFACE_SIDE_STYLE ('',( #140 ) ) ;
#101 = DIRECTION ( 'NONE',  ( 1.000000000000000000, 1.335978326342567180E-16, 0.000000000000000000 ) ) ;
#102 = SURFACE_STYLE_USAGE ( .BOTH. , #100 ) ;
#103 = PRESENTATION_STYLE_ASSIGNMENT (( #173 ) ) ;
#104 = VECTOR ( 'NONE', #301, 39.37007874015748143 ) ;
#105 = EDGE_CURVE ( 'NONE', #184, #87, #292, .T. ) ;
#106 = DIRECTION ( 'NONE',  ( 0.000000000000000000, 0.000000000000000000, -1.000000000000000000 ) ) ;
#107 = FILL_AREA_STYLE_COLOUR ( '', #185 ) ;
#108 = ADVANCED_FACE ( 'NONE', ( #190 ), #10, .T. ) ;
#109 = CIRCLE ( 'NONE', #170, 0.5000000000000003331 ) ;
#110 =( CONVERSION_BASED_UNIT ( 'INCH', #7 ) LENGTH_UNIT ( ) NAMED_UNIT ( #279 ) );
#111 =( NAMED_UNIT ( * ) PLANE_ANGLE_UNIT ( ) SI_UNIT ( $, .RADIAN. ) );
#112 =( NAMED_UNIT ( * ) SI_UNIT ( $, .STERADIAN. ) SOLID_ANGLE_UNIT ( ) );
#113 = CARTESIAN_POINT ( 'NONE',  ( 6.123233995736766036E-17, 0.000000000000000000, 0.5000000000000000000 ) ) ;
#114 = ORIENTED_EDGE ( 'NONE', *, *, #105, .F. ) ;
#115 = MECHANICAL_DESIGN_GEOMETRIC_PRESENTATION_REPRESENTATION (  '', ( #308 ), #283 ) ;
#116 = MECHANICAL_DESIGN_GEOMETRIC_PRESENTATION_REPRESENTATION (  '', ( #76 ), #64 ) ;
#117 =( CONVERSION_BASED_UNIT ( 'INCH', #157 ) LENGTH_UNIT ( ) NAMED_UNIT ( #215 ) );
#118 = DIRECTION ( 'NONE',  ( -1.335978326342567180E-16, 1.000000000000000000, -0.000000000000000000 ) ) ;
#119 =( NAMED_UNIT ( * ) PLANE_ANGLE_UNIT ( ) SI_UNIT ( $, .RADIAN. ) );
#120 =( LENGTH_UNIT ( ) NAMED_UNIT ( * ) SI_UNIT ( $, .METRE. ) );
#121 = DIMENSIONAL_EXPONENTS ( 1.000000000000000000, 0.000000000000000000, 0.000000000000000000, 0.000000000000000000, 0.000000000000000000, 0.000000000000000000, 0.000000000000000000 ) ;
#122 = MECHANICAL_DESIGN_GEOMETRIC_PRESENTATION_REPRESENTATION (  '', ( #238 ), #180 ) ;
#123 = CARTESIAN_POINT ( 'NONE',  ( 0.000000000000000000, 4.250000000000000000, 0.000000000000000000 ) ) ;
#124 =( CONVERSION_BASED_UNIT ( 'INCH', #15 ) LENGTH_UNIT ( ) NAMED_UNIT ( #125 ) );
#125 = DIMENSIONAL_EXPONENTS ( 1.000000000000000000, 0.000000000000000000, 0.000000000000000000, 0.000000000000000000, 0.000000000000000000, 0.000000000000000000, 0.000000000000000000 ) ;
#126 = DIRECTION ( 'NONE',  ( -1.335978326342567180E-16, 1.000000000000000000, -0.000000000000000000 ) ) ;
#127 = FACE_OUTER_BOUND ( 'NONE', #13, .T. ) ;
#128 = FILL_AREA_STYLE_COLOUR ( '', #265 ) ;
#129 = CYLINDRICAL_SURFACE ( 'NONE', #47, 0.5000000000000000000 ) ;
#130 = COLOUR_RGB ( '',1.000000000000000000, 0.000000000000000000, 0.000000000000000000 ) ;
#131 = SURFACE_STYLE_USAGE ( .BOTH. , #266 ) ;
#132 = DIRECTION ( 'NONE',  ( -1.335978326342567180E-16, 1.000000000000000000, -0.000000000000000000 ) ) ;
#133 = CYLINDRICAL_SURFACE ( 'NONE', #299, 0.5000000000000000000 ) ;
#134 = AXIS2_PLACEMENT_3D ( 'NONE', #153, #50, #48 ) ;
#135 =( NAMED_UNIT ( * ) PLANE_ANGLE_UNIT ( ) SI_UNIT ( $, .RADIAN. ) );
#136 =( LENGTH_UNIT ( ) NAMED_UNIT ( * ) SI_UNIT ( $, .METRE. ) );
#137 = CARTESIAN_POINT ( 'NONE',  ( -3.673940397442059375E-16, 7.000000000000000000, 0.000000000000000000 ) ) ;
#138 = ORIENTED_EDGE ( 'NONE', *, *, #105, .T. ) ;
#139 = PRODUCT_CONTEXT ( 'NONE', #79, 'mechanical' ) ;
#140 = SURFACE_STYLE_FILL_AREA ( #258 ) ;
#141 = AXIS2_PLACEMENT_3D ( 'NONE', #161, #302, #206 ) ;
#142 = EDGE_LOOP ( 'NONE', ( #45, #249, #208, #147 ) ) ;
#143 = CARTESIAN_POINT ( 'NONE',  ( 0.5000000000000000000, 7.000000000000000000, 0.000000000000000000 ) ) ;
#144 = ORIENTED_EDGE ( 'NONE', *, *, #152, .T. ) ;
#145 = AXIS2_PLACEMENT_3D ( 'NONE', #148, #22, #106 ) ;
#146 = PRESENTATION_STYLE_ASSIGNMENT (( #234 ) ) ;
#147 = ORIENTED_EDGE ( 'NONE', *, *, #253, .F. ) ;
#148 = CARTESIAN_POINT ( 'NONE',  ( 0.000000000000000000, 4.250000000000000000, 0.000000000000000000 ) ) ;
#149 = AXIS2_PLACEMENT_3D ( 'NONE', #271, #156, #31 ) ;
#150 = AXIS2_PLACEMENT_3D ( 'NONE', #211, #285, #166 ) ;
#151 = DIRECTION ( 'NONE',  ( -1.335978326342567180E-16, 1.000000000000000000, -0.000000000000000000 ) ) ;
#152 = EDGE_CURVE ( 'NONE', #30, #305, #203, .T. ) ;
#153 = CARTESIAN_POINT ( 'NONE',  ( 0.000000000000000000, 0.000000000000000000, 0.000000000000000000 ) ) ;
#154 = CARTESIAN_POINT ( 'NONE',  ( 0.000000000000000000, 0.000000000000000000, 0.000000000000000000 ) ) ;
#155 = CARTESIAN_POINT ( 'NONE',  ( 0.000000000000000000, 0.000000000000000000, 0.000000000000000000 ) ) ;
#156 = DIRECTION ( 'NONE',  ( -1.335978326342567180E-16, 1.000000000000000000, -0.000000000000000000 ) ) ;
#157 = LENGTH_MEASURE_WITH_UNIT ( LENGTH_MEASURE( 0.02539999999999999897 ), #136 );
#158 = EDGE_CURVE ( 'NONE', #160, #305, #6, .T. ) ;
#159 = ORIENTED_EDGE ( 'NONE', *, *, #33, .F. ) ;
#160 = VERTEX_POINT ( 'NONE', #260 ) ;
#161 = CARTESIAN_POINT ( 'NONE',  ( 0.000000000000000000, 4.250000000000000000, 0.000000000000000000 ) ) ;
#162 = ORIENTED_EDGE ( 'NONE', *, *, #197, .T. ) ;
#163 = PRESENTATION_LAYER_ASSIGNMENT (  '', '', ( #238 ) ) ;
#164 = AXIS2_PLACEMENT_3D ( 'NONE', #143, #304, #101 ) ;
#165 = FACE_OUTER_BOUND ( 'NONE', #16, .T. ) ;
#166 = DIRECTION ( 'NONE',  ( 1.000000000000000000, 0.000000000000000000, 0.000000000000000000 ) ) ;
#167 = ORIENTED_EDGE ( 'NONE', *, *, #259, .T. ) ;
#168 = UNCERTAINTY_MEASURE_WITH_UNIT (LENGTH_MEASURE( 1.000000000000000082E-05 ), #246, 'distance_accuracy_value', 'NONE');
#169 =( GEOMETRIC_REPRESENTATION_CONTEXT ( 3 ) GLOBAL_UNCERTAINTY_ASSIGNED_CONTEXT ( ( #201 ) ) GLOBAL_UNIT_ASSIGNED_CONTEXT ( ( #56, #135, #59 ) ) REPRESENTATION_CONTEXT ( 'NONE', 'WORKASPACE' ) );
#170 = AXIS2_PLACEMENT_3D ( 'NONE', #39, #118, #55 ) ;
#171 = LINE ( 'NONE', #77, #225 ) ;
#172 =( LENGTH_UNIT ( ) NAMED_UNIT ( * ) SI_UNIT ( $, .METRE. ) );
#173 = SURFACE_STYLE_USAGE ( .BOTH. , #307 ) ;
#174 =( GEOMETRIC_REPRESENTATION_CONTEXT ( 3 ) GLOBAL_UNCERTAINTY_ASSIGNED_CONTEXT ( ( #74 ) ) GLOBAL_UNIT_ASSIGNED_CONTEXT ( ( #296, #247, #58 ) ) REPRESENTATION_CONTEXT ( 'NONE', 'WORKASPACE' ) );
#175 = DIRECTION ( 'NONE',  ( 0.000000000000000000, 1.000000000000000000, 0.000000000000000000 ) ) ;
#176 = DIRECTION ( 'NONE',  ( 0.000000000000000000, 0.000000000000000000, -1.000000000000000000 ) ) ;
#177 = DIRECTION ( 'NONE',  ( -1.335978326342567180E-16, 1.000000000000000000, -0.000000000000000000 ) ) ;
#178 = SURFACE_STYLE_USAGE ( .BOTH. , #273 ) ;
#179 = ORIENTED_EDGE ( 'NONE', *, *, #41, .F. ) ;
#180 =( GEOMETRIC_REPRESENTATION_CONTEXT ( 3 ) GLOBAL_UNCERTAINTY_ASSIGNED_CONTEXT ( ( #168 ) ) GLOBAL_UNIT_ASSIGNED_CONTEXT ( ( #246, #188, #295 ) ) REPRESENTATION_CONTEXT ( 'NONE', 'WORKASPACE' ) );
#181 = DIRECTION ( 'NONE',  ( -1.000000000000000000, 0.000000000000000000, 0.000000000000000000 ) ) ;
#182 =( CONVERSION_BASED_UNIT ( 'INCH', #263 ) LENGTH_UNIT ( ) NAMED_UNIT ( #200 ) );
#183 =( NAMED_UNIT ( * ) SI_UNIT ( $, .STERADIAN. ) SOLID_ANGLE_UNIT ( ) );
#184 = VERTEX_POINT ( 'NONE', #67 ) ;
#185 = COLOUR_RGB ( '',1.000000000000000000, 0.000000000000000000, 0.000000000000000000 ) ;
#186 = CARTESIAN_POINT ( 'NONE',  ( 0.000000000000000000, 0.000000000000000000, -0.5000000000000000000 ) ) ;
#187 =( GEOMETRIC_REPRESENTATION_CONTEXT ( 3 ) GLOBAL_UNCERTAINTY_ASSIGNED_CONTEXT ( ( #65 ) ) GLOBAL_UNIT_ASSIGNED_CONTEXT ( ( #110, #4, #192 ) ) REPRESENTATION_CONTEXT ( 'NONE', 'WORKASPACE' ) );
#188 =( NAMED_UNIT ( * ) PLANE_ANGLE_UNIT ( ) SI_UNIT ( $, .RADIAN. ) );
#189 = CARTESIAN_POINT ( 'NONE',  ( -0.5000000000000004441, 7.000000000000000000, 0.000000000000000000 ) ) ;
#190 = FACE_OUTER_BOUND ( 'NONE', #276, .T. ) ;
#191 = ADVANCED_FACE ( 'NONE', ( #286 ), #212, .F. ) ;
#192 =( NAMED_UNIT ( * ) SI_UNIT ( $, .STERADIAN. ) SOLID_ANGLE_UNIT ( ) );
#193 = CARTESIAN_POINT ( 'NONE',  ( 0.000000000000000000, 0.000000000000000000, 0.000000000000000000 ) ) ;
#194 =( LENGTH_UNIT ( ) NAMED_UNIT ( * ) SI_UNIT ( $, .METRE. ) );
#195 = PRODUCT_DEFINITION_FORMATION_WITH_SPECIFIED_SOURCE ( 'ANY', '', #11, .NOT_KNOWN. ) ;
#196 =( LENGTH_UNIT ( ) NAMED_UNIT ( * ) SI_UNIT ( $, .METRE. ) );
#197 = EDGE_CURVE ( 'NONE', #202, #43, #239, .T. ) ;
#198 = DIRECTION ( 'NONE',  ( -0.000000000000000000, -1.000000000000000000, -0.000000000000000000 ) ) ;
#199 =( LENGTH_UNIT ( ) NAMED_UNIT ( * ) SI_UNIT ( $, .METRE. ) );
#200 = DIMENSIONAL_EXPONENTS ( 1.000000000000000000, 0.000000000000000000, 0.000000000000000000, 0.000000000000000000, 0.000000000000000000, 0.000000000000000000, 0.000000000000000000 ) ;
#201 = UNCERTAINTY_MEASURE_WITH_UNIT (LENGTH_MEASURE( 1.000000000000000082E-05 ), #56, 'distance_accuracy_value', 'NONE');
#202 = VERTEX_POINT ( 'NONE', #288 ) ;
#203 = CIRCLE ( 'NONE', #73, 0.5000000000000000000 ) ;
#204 = CIRCLE ( 'NONE', #141, 0.5000000000000000000 ) ;
#205 = EDGE_LOOP ( 'NONE', ( #138, #32 ) ) ;
#206 = DIRECTION ( 'NONE',  ( 0.000000000000000000, 0.000000000000000000, -1.000000000000000000 ) ) ;
#207 = LINE ( 'NONE', #186, #104 ) ;
#208 = ORIENTED_EDGE ( 'NONE', *, *, #152, .F. ) ;
#209 =( GEOMETRIC_REPRESENTATION_CONTEXT ( 3 ) GLOBAL_UNCERTAINTY_ASSIGNED_CONTEXT ( ( #36 ) ) GLOBAL_UNIT_ASSIGNED_CONTEXT ( ( #124, #111, #25 ) ) REPRESENTATION_CONTEXT ( 'NONE', 'WORKASPACE' ) );
#210 = AXIS2_PLACEMENT_3D ( 'NONE', #70, #280, #231 ) ;
#211 = CARTESIAN_POINT ( 'NONE',  ( 0.000000000000000000, 0.000000000000000000, 0.000000000000000000 ) ) ;
#212 = PLANE ( 'NONE',  #164 ) ;
#213 = EDGE_LOOP ( 'NONE', ( #69, #167, #214, #277 ) ) ;
#214 = ORIENTED_EDGE ( 'NONE', *, *, #41, .T. ) ;
#215 = DIMENSIONAL_EXPONENTS ( 1.000000000000000000, 0.000000000000000000, 0.000000000000000000, 0.000000000000000000, 0.000000000000000000, 0.000000000000000000, 0.000000000000000000 ) ;
#216 = FILL_AREA_STYLE ('',( #107 ) ) ;
#217 = CIRCLE ( 'NONE', #134, 0.5000000000000000000 ) ;
#218 = FACE_OUTER_BOUND ( 'NONE', #142, .T. ) ;
#219 = CARTESIAN_POINT ( 'NONE',  ( 0.5000000000000000000, 7.000000000000000000, 6.123233995736768501E-17 ) ) ;
#220 = AXIS2_PLACEMENT_3D ( 'NONE', #275, #177, #8 ) ;
#221 = CARTESIAN_POINT ( 'NONE',  ( 0.000000000000000000, 0.000000000000000000, -0.5000000000000000000 ) ) ;
#222 = DIRECTION ( 'NONE',  ( -0.000000000000000000, -1.000000000000000000, -0.000000000000000000 ) ) ;
#223 = DIRECTION ( 'NONE',  ( 0.000000000000000000, 0.000000000000000000, -1.000000000000000000 ) ) ;
#224 = ORIENTED_EDGE ( 'NONE', *, *, #28, .T. ) ;
#225 = VECTOR ( 'NONE', #132, 39.37007874015748143 ) ;
#226 = CLOSED_SHELL ( 'NONE', ( #99, #236, #96, #191 ) ) ;
#227 = DIMENSIONAL_EXPONENTS ( 1.000000000000000000, 0.000000000000000000, 0.000000000000000000, 0.000000000000000000, 0.000000000000000000, 0.000000000000000000, 0.000000000000000000 ) ;
#228 = SURFACE_SIDE_STYLE ('',( #17 ) ) ;
#229 = PRESENTATION_LAYER_ASSIGNMENT (  '', '', ( #51 ) ) ;
#230 = PRESENTATION_LAYER_ASSIGNMENT (  '', '', ( #76 ) ) ;
#231 = DIRECTION ( 'NONE',  ( -1.000000000000000000, -1.335978326342567180E-16, 0.000000000000000000 ) ) ;
#232 = ADVANCED_BREP_SHAPE_REPRESENTATION ( '84990', ( #290, #281, #150 ), #187 ) ;
#233 = PLANE ( 'NONE',  #269 ) ;
#234 = SURFACE_STYLE_USAGE ( .BOTH. , #42 ) ;
#235 = ORIENTED_EDGE ( 'NONE', *, *, #197, .F. ) ;
#236 = ADVANCED_FACE ( 'NONE', ( #127 ), #19, .F. ) ;
#237 = SURFACE_STYLE_FILL_AREA ( #46 ) ;
#238 = STYLED_ITEM ( 'NONE', ( #245 ), #61 ) ;
#239 = CIRCLE ( 'NONE', #86, 0.5000000000000000000 ) ;
#240 = CLOSED_SHELL ( 'NONE', ( #61, #9, #90, #108 ) ) ;
#241 = CARTESIAN_POINT ( 'NONE',  ( 6.123233995736766036E-17, 0.000000000000000000, 0.5000000000000000000 ) ) ;
#242 = UNCERTAINTY_MEASURE_WITH_UNIT (LENGTH_MEASURE( 1.000000000000000082E-05 ), #117, 'distance_accuracy_value', 'NONE');
#243 = SHAPE_DEFINITION_REPRESENTATION ( #278, #232 ) ;
#244 = FILL_AREA_STYLE ('',( #270 ) ) ;
#245 = PRESENTATION_STYLE_ASSIGNMENT (( #131 ) ) ;
#246 =( CONVERSION_BASED_UNIT ( 'INCH', #49 ) LENGTH_UNIT ( ) NAMED_UNIT ( #121 ) );
#247 =( NAMED_UNIT ( * ) PLANE_ANGLE_UNIT ( ) SI_UNIT ( $, .RADIAN. ) );
#248 = APPLICATION_PROTOCOL_DEFINITION ( 'draft international standard', 'automotive_design', 1998, #79 ) ;
#249 = ORIENTED_EDGE ( 'NONE', *, *, #158, .T. ) ;
#250 = PRESENTATION_LAYER_ASSIGNMENT (  '', '', ( #308 ) ) ;
#251 = APPLICATION_PROTOCOL_DEFINITION ( 'draft international standard', 'automotive_design', 1998, #85 ) ;
#252 = DIRECTION ( 'NONE',  ( -1.335978326342567180E-16, 1.000000000000000000, -0.000000000000000000 ) ) ;
#253 = EDGE_CURVE ( 'NONE', #66, #30, #207, .T. ) ;
#254 = DIRECTION ( 'NONE',  ( -1.335978326342567180E-16, 1.000000000000000000, -0.000000000000000000 ) ) ;
#255 = PRESENTATION_STYLE_ASSIGNMENT (( #282 ) ) ;
#256 = AXIS2_PLACEMENT_3D ( 'NONE', #137, #252, #37 ) ;
#257 = FILL_AREA_STYLE_COLOUR ( '', #23 ) ;
#258 = FILL_AREA_STYLE ('',( #262 ) ) ;
#259 = EDGE_CURVE ( 'NONE', #43, #202, #94, .T. ) ;
#260 = CARTESIAN_POINT ( 'NONE',  ( 6.123233995736766036E-17, 4.250000000000000000, 0.5000000000000000000 ) ) ;
#261 = PRODUCT_DEFINITION_CONTEXT ( 'detailed design', #85, 'design' ) ;
#262 = FILL_AREA_STYLE_COLOUR ( '', #93 ) ;
#263 = LENGTH_MEASURE_WITH_UNIT ( LENGTH_MEASURE( 0.02539999999999999897 ), #120 );
#264 = MECHANICAL_DESIGN_GEOMETRIC_PRESENTATION_REPRESENTATION (  '', ( #20 ), #209 ) ;
#265 = COLOUR_RGB ( '',0.7921568627450980005, 0.8196078431372548767, 0.9333333333333333481 ) ;
#266 = SURFACE_SIDE_STYLE ('',( #54 ) ) ;
#267 = EDGE_CURVE ( 'NONE', #160, #66, #204, .T. ) ;
#268 = DIMENSIONAL_EXPONENTS ( 1.000000000000000000, 0.000000000000000000, 0.000000000000000000, 0.000000000000000000, 0.000000000000000000, 0.000000000000000000, 0.000000000000000000 ) ;
#269 = AXIS2_PLACEMENT_3D ( 'NONE', #1, #175, #78 ) ;
#270 = FILL_AREA_STYLE_COLOUR ( '', #130 ) ;
#271 = CARTESIAN_POINT ( 'NONE',  ( -3.673940397442059375E-16, 7.000000000000000000, 0.000000000000000000 ) ) ;
#272 = COLOUR_RGB ( '',1.000000000000000000, 0.000000000000000000, 0.000000000000000000 ) ;
#273 = SURFACE_SIDE_STYLE ('',( #27 ) ) ;
#274 = ORIENTED_EDGE ( 'NONE', *, *, #267, .T. ) ;
#275 = CARTESIAN_POINT ( 'NONE',  ( -3.673940397442059375E-16, 7.000000000000000000, 0.000000000000000000 ) ) ;
#276 = EDGE_LOOP ( 'NONE', ( #144, #92 ) ) ;
#277 = ORIENTED_EDGE ( 'NONE', *, *, #306, .F. ) ;
#278 = PRODUCT_DEFINITION_SHAPE ( 'NONE', 'NONE',  #294 ) ;
#279 = DIMENSIONAL_EXPONENTS ( 1.000000000000000000, 0.000000000000000000, 0.000000000000000000, 0.000000000000000000, 0.000000000000000000, 0.000000000000000000, 0.000000000000000000 ) ;
#280 = DIRECTION ( 'NONE',  ( -1.335978326342567180E-16, 1.000000000000000000, 0.000000000000000000 ) ) ;
#281 = MANIFOLD_SOLID_BREP ( 'Revolve - Tool Body (Straight Shanked)', #226 ) ;
#282 = SURFACE_STYLE_USAGE ( .BOTH. , #228 ) ;
#283 =( GEOMETRIC_REPRESENTATION_CONTEXT ( 3 ) GLOBAL_UNCERTAINTY_ASSIGNED_CONTEXT ( ( #242 ) ) GLOBAL_UNIT_ASSIGNED_CONTEXT ( ( #117, #119, #112 ) ) REPRESENTATION_CONTEXT ( 'NONE', 'WORKASPACE' ) );
#284 = ORIENTED_EDGE ( 'NONE', *, *, #253, .T. ) ;
#285 = DIRECTION ( 'NONE',  ( 0.000000000000000000, 0.000000000000000000, 1.000000000000000000 ) ) ;
#286 = FACE_OUTER_BOUND ( 'NONE', #205, .T. ) ;
#287 = PRESENTATION_STYLE_ASSIGNMENT (( #102 ) ) ;
#288 = CARTESIAN_POINT ( 'NONE',  ( -0.5000000000000000000, 4.250000000000000000, 0.000000000000000000 ) ) ;
#289 =( LENGTH_UNIT ( ) NAMED_UNIT ( * ) SI_UNIT ( $, .METRE. ) );
#290 = MANIFOLD_SOLID_BREP ( 'Revolve - Cutting Edge', #240 ) ;
#291 = DIRECTION ( 'NONE',  ( 0.000000000000000000, 0.000000000000000000, -1.000000000000000000 ) ) ;
#292 = CIRCLE ( 'NONE', #256, 0.5000000000000003331 ) ;
#293 = FACE_OUTER_BOUND ( 'NONE', #68, .T. ) ;
#294 = PRODUCT_DEFINITION ( 'UNKNOWN', '', #195, #261 ) ;
#295 =( NAMED_UNIT ( * ) SI_UNIT ( $, .STERADIAN. ) SOLID_ANGLE_UNIT ( ) );
#296 =( CONVERSION_BASED_UNIT ( 'INCH', #88 ) LENGTH_UNIT ( ) NAMED_UNIT ( #227 ) );
#297 = ORIENTED_EDGE ( 'NONE', *, *, #267, .F. ) ;
#298 = FILL_AREA_STYLE_COLOUR ( '', #272 ) ;
#299 = AXIS2_PLACEMENT_3D ( 'NONE', #75, #3, #291 ) ;
#300 = VECTOR ( 'NONE', #95, 39.37007874015748143 ) ;
#301 = DIRECTION ( 'NONE',  ( -0.000000000000000000, -1.000000000000000000, -0.000000000000000000 ) ) ;
#302 = DIRECTION ( 'NONE',  ( -0.000000000000000000, -1.000000000000000000, -0.000000000000000000 ) ) ;
#303 = ORIENTED_EDGE ( 'NONE', *, *, #158, .F. ) ;
#304 = DIRECTION ( 'NONE',  ( 1.335978326342567180E-16, -1.000000000000000000, 0.000000000000000000 ) ) ;
#305 = VERTEX_POINT ( 'NONE', #241 ) ;
#306 = EDGE_CURVE ( 'NONE', #87, #184, #109, .T. ) ;
#307 = SURFACE_SIDE_STYLE ('',( #83 ) ) ;
#308 = STYLED_ITEM ( 'NONE', ( #103 ), #90 ) ;
#309 = UNCERTAINTY_MEASURE_WITH_UNIT (LENGTH_MEASURE( 1.000000000000000082E-05 ), #182, 'distance_accuracy_value', 'NONE');
ENDSEC;
END-ISO-10303-21;
