ISO-10303-21;
HEADER;
FILE_DESCRIPTION (( 'STEP AP214' ),
    '1' );
FILE_NAME ('Micro_BMS-034-2.STEP',
    '2021-09-03T15:15:06',
    ( '' ),
    ( '' ),
    'SwSTEP 2.0',
    'SolidWorks 2020',
    '' );
FILE_SCHEMA (( 'AUTOMOTIVE_DESIGN' ));
ENDSEC;

DATA;
#1 =( NAMED_UNIT ( * ) PLANE_ANGLE_UNIT ( ) SI_UNIT ( $, .RADIAN. ) );
#2 = AXIS2_PLACEMENT_3D ( 'NONE', #218, #237, #110 ) ;
#3 = CONICAL_SURFACE ( 'NONE', #177, 0.01698300000000000504, 0.1745329251994338915 ) ;
#4 = PRODUCT_CONTEXT ( 'NONE', #181, 'mechanical' ) ;
#5 = SURFACE_STYLE_USAGE ( .BOTH. , #83 ) ;
#6 = EDGE_LOOP ( 'NONE', ( #216, #151, #138, #156 ) ) ;
#7 = DIMENSIONAL_EXPONENTS ( 1.000000000000000000, 0.0000000000000000000, 0.0000000000000000000, 0.0000000000000000000, 0.0000000000000000000, 0.0000000000000000000, 0.0000000000000000000 ) ;
#8 = VECTOR ( 'NONE', #54, 39.37007874015748143 ) ;
#9 = DIRECTION ( 'NONE',  ( 1.224646799147353454E-16, 0.0000000000000000000, 1.000000000000000000 ) ) ;
#10 = DIRECTION ( 'NONE',  ( -0.0000000000000000000, -0.0000000000000000000, -1.000000000000000000 ) ) ;
#11 = DIRECTION ( 'NONE',  ( 1.000000000000000000, 0.0000000000000000000, 0.0000000000000000000 ) ) ;
#12 = MECHANICAL_DESIGN_GEOMETRIC_PRESENTATION_REPRESENTATION (  '', ( #307 ), #137 ) ;
#13 = CARTESIAN_POINT ( 'NONE',  ( 6.245698675651502164E-18, 0.0000000000000000000, 0.05099999999999999672 ) ) ;
#14 = DIRECTION ( 'NONE',  ( 0.0000000000000000000, 0.0000000000000000000, 1.000000000000000000 ) ) ;
#15 = FACE_OUTER_BOUND ( 'NONE', #6, .T. ) ;
#16 = CIRCLE ( 'NONE', #26, 0.06250000000000000000 ) ;
#17 = CARTESIAN_POINT ( 'NONE',  ( 0.01698300000000001198, 0.0000000000000000000, 0.05099999999999999672 ) ) ;
#18 = ORIENTED_EDGE ( 'NONE', *, *, #135, .T. ) ;
#19 = EDGE_CURVE ( 'NONE', #265, #127, #317, .T. ) ;
#20 = AXIS2_PLACEMENT_3D ( 'NONE', #279, #301, #46 ) ;
#21 = EDGE_CURVE ( 'NONE', #198, #324, #160, .T. ) ;
#22 = LINE ( 'NONE', #252, #59 ) ;
#23 = ORIENTED_EDGE ( 'NONE', *, *, #21, .T. ) ;
#24 = DIRECTION ( 'NONE',  ( 0.0000000000000000000, 0.0000000000000000000, -1.000000000000000000 ) ) ;
#25 = VERTEX_POINT ( 'NONE', #308 ) ;
#26 = AXIS2_PLACEMENT_3D ( 'NONE', #169, #67, #11 ) ;
#27 = CARTESIAN_POINT ( 'NONE',  ( 3.785869864469919836E-17, 0.0000000000000000000, 0.3091397345835377730 ) ) ;
#28 = CYLINDRICAL_SURFACE ( 'NONE', #313, 0.01698300000000000504 ) ;
#29 = CONICAL_SURFACE ( 'NONE', #277, 0.01698300000000000504, 0.1745329251994338915 ) ;
#30 = ORIENTED_EDGE ( 'NONE', *, *, #322, .T. ) ;
#31 = DIRECTION ( 'NONE',  ( -0.1736481776669311916, 2.126576849575783316E-17, 0.9848077530122080203 ) ) ;
#32 = PRODUCT ( 'Micro_BMS-034-2', 'Micro_BMS-034-2', '', ( #4 ) ) ;
#33 = DIRECTION ( 'NONE',  ( 1.224646799147353454E-16, 0.0000000000000000000, 1.000000000000000000 ) ) ;
#34 = ORIENTED_EDGE ( 'NONE', *, *, #41, .F. ) ;
#35 = SPHERICAL_SURFACE ( 'NONE', #200, 0.01698300000000000157 ) ;
#36 = CIRCLE ( 'NONE', #109, 0.06250000000000000000 ) ;
#37 = DIRECTION ( 'NONE',  ( 0.0000000000000000000, 1.000000000000000000, 0.0000000000000000000 ) ) ;
#38 = APPLICATION_CONTEXT ( 'automotive_design' ) ;
#39 = LINE ( 'NONE', #111, #207 ) ;
#40 = CARTESIAN_POINT ( 'NONE',  ( 0.0000000000000000000, 0.0000000000000000000, 1.500000000000000222 ) ) ;
#41 = EDGE_CURVE ( 'NONE', #120, #311, #244, .T. ) ;
#42 = UNCERTAINTY_MEASURE_WITH_UNIT (LENGTH_MEASURE( 1.000000000000000082E-05 ), #101, 'distance_accuracy_value', 'NONE');
#43 = DIRECTION ( 'NONE',  ( -1.224646799147353454E-16, -0.0000000000000000000, -1.000000000000000000 ) ) ;
#44 = AXIS2_PLACEMENT_3D ( 'NONE', #284, #184, #61 ) ;
#45 = ORIENTED_EDGE ( 'NONE', *, *, #123, .T. ) ;
#46 = DIRECTION ( 'NONE',  ( 1.000000000000000000, 0.0000000000000000000, 0.0000000000000000000 ) ) ;
#47 = SURFACE_SIDE_STYLE ('',( #174 ) ) ;
#48 = AXIS2_PLACEMENT_3D ( 'NONE', #94, #14, #63 ) ;
#49 = ORIENTED_EDGE ( 'NONE', *, *, #107, .T. ) ;
#50 =( CONVERSION_BASED_UNIT ( 'INCH', #298 ) LENGTH_UNIT ( ) NAMED_UNIT ( #7 ) );
#51 = APPLICATION_PROTOCOL_DEFINITION ( 'draft international standard', 'automotive_design', 1998, #181 ) ;
#52 = ORIENTED_EDGE ( 'NONE', *, *, #255, .F. ) ;
#53 = VECTOR ( 'NONE', #31, 39.37007874015747433 ) ;
#54 = DIRECTION ( 'NONE',  ( -0.7071067811865456854, 0.0000000000000000000, -0.7071067811865493491 ) ) ;
#55 = DIMENSIONAL_EXPONENTS ( 1.000000000000000000, 0.0000000000000000000, 0.0000000000000000000, 0.0000000000000000000, 0.0000000000000000000, 0.0000000000000000000, 0.0000000000000000000 ) ;
#56 = DIRECTION ( 'NONE',  ( -1.000000000000000000, 0.0000000000000000000, 1.224646799147353207E-16 ) ) ;
#57 = PRODUCT_DEFINITION ( 'UNKNOWN', '', #314, #208 ) ;
#58 = DIRECTION ( 'NONE',  ( 1.000000000000000000, 0.0000000000000000000, -0.0000000000000000000 ) ) ;
#59 = VECTOR ( 'NONE', #299, 39.37007874015748143 ) ;
#60 = DIRECTION ( 'NONE',  ( -1.224646799147353454E-16, -0.0000000000000000000, -1.000000000000000000 ) ) ;
#61 = DIRECTION ( 'NONE',  ( 1.000000000000000000, 0.0000000000000000000, 0.0000000000000000000 ) ) ;
#62 = EDGE_LOOP ( 'NONE', ( #302, #30, #203 ) ) ;
#63 = DIRECTION ( 'NONE',  ( 1.000000000000000000, 0.0000000000000000000, 0.0000000000000000000 ) ) ;
#64 = AXIS2_PLACEMENT_3D ( 'NONE', #245, #325, #242 ) ;
#65 = DIRECTION ( 'NONE',  ( 0.1736481776669313859, 0.0000000000000000000, 0.9848077530122077983 ) ) ;
#66 = DIRECTION ( 'NONE',  ( -0.0000000000000000000, -0.0000000000000000000, -1.000000000000000000 ) ) ;
#67 = DIRECTION ( 'NONE',  ( -1.224646799147353454E-16, -0.0000000000000000000, -1.000000000000000000 ) ) ;
#68 = DIRECTION ( 'NONE',  ( 0.0000000000000000000, 0.0000000000000000000, -1.000000000000000000 ) ) ;
#69 = CIRCLE ( 'NONE', #187, 0.01698300000000000504 ) ;
#70 = PRESENTATION_LAYER_ASSIGNMENT (  '', '', ( #304 ) ) ;
#71 = EDGE_LOOP ( 'NONE', ( #100, #243, #305, #281 ) ) ;
#72 = CARTESIAN_POINT ( 'NONE',  ( 0.06250000000000002776, 7.654042494670959086E-18, 0.3091397345835377730 ) ) ;
#73 = DIRECTION ( 'NONE',  ( 0.0000000000000000000, -1.000000000000000000, 0.0000000000000000000 ) ) ;
#74 = ORIENTED_EDGE ( 'NONE', *, *, #107, .F. ) ;
#75 = DIRECTION ( 'NONE',  ( -1.000000000000000000, 0.0000000000000000000, 0.0000000000000000000 ) ) ;
#76 = EDGE_CURVE ( 'NONE', #324, #249, #69, .T. ) ;
#77 = DIRECTION ( 'NONE',  ( -1.000000000000000000, 0.0000000000000000000, 1.256701551581113425E-16 ) ) ;
#78 = CIRCLE ( 'NONE', #48, 0.04750000000000064587 ) ;
#79 = ORIENTED_EDGE ( 'NONE', *, *, #253, .F. ) ;
#80 = FACE_OUTER_BOUND ( 'NONE', #262, .T. ) ;
#81 = CARTESIAN_POINT ( 'NONE',  ( 0.0000000000000000000, 0.0000000000000000000, 1.500000000000000222 ) ) ;
#82 = EDGE_LOOP ( 'NONE', ( #185, #34, #106, #321 ) ) ;
#83 = SURFACE_SIDE_STYLE ('',( #206 ) ) ;
#84 = AXIS2_PLACEMENT_3D ( 'NONE', #165, #9, #77 ) ;
#85 = VECTOR ( 'NONE', #289, 39.37007874015748143 ) ;
#86 = FACE_OUTER_BOUND ( 'NONE', #212, .T. ) ;
#87 = FACE_OUTER_BOUND ( 'NONE', #62, .T. ) ;
#88 = EDGE_CURVE ( 'NONE', #303, #127, #143, .T. ) ;
#89 = FACE_OUTER_BOUND ( 'NONE', #231, .T. ) ;
#90 = EDGE_LOOP ( 'NONE', ( #131, #204, #45, #316 ) ) ;
#91 = AXIS2_PLACEMENT_3D ( 'NONE', #153, #73, #119 ) ;
#92 = DIRECTION ( 'NONE',  ( -0.0000000000000000000, -0.0000000000000000000, -1.000000000000000000 ) ) ;
#93 = CARTESIAN_POINT ( 'NONE',  ( 0.04750000000000064587, 5.817072295950006528E-18, 1.500000000000000222 ) ) ;
#94 = CARTESIAN_POINT ( 'NONE',  ( 0.0000000000000000000, 0.0000000000000000000, 1.500000000000000222 ) ) ;
#95 = VECTOR ( 'NONE', #10, 39.37007874015748143 ) ;
#96 =( CONVERSION_BASED_UNIT ( 'INCH', #147 ) LENGTH_UNIT ( ) NAMED_UNIT ( #55 ) );
#97 = AXIS2_PLACEMENT_3D ( 'NONE', #232, #306, #134 ) ;
#98 = PRODUCT_RELATED_PRODUCT_CATEGORY ( 'part', '', ( #32 ) ) ;
#99 = APPLICATION_PROTOCOL_DEFINITION ( 'draft international standard', 'automotive_design', 1998, #38 ) ;
#100 = ORIENTED_EDGE ( 'NONE', *, *, #254, .F. ) ;
#101 =( CONVERSION_BASED_UNIT ( 'INCH', #186 ) LENGTH_UNIT ( ) NAMED_UNIT ( #145 ) );
#102 = DIRECTION ( 'NONE',  ( -1.224646799147353454E-16, -0.0000000000000000000, -1.000000000000000000 ) ) ;
#103 = ORIENTED_EDGE ( 'NONE', *, *, #219, .T. ) ;
#104 = LINE ( 'NONE', #105, #53 ) ;
#105 = CARTESIAN_POINT ( 'NONE',  ( -0.01698299999999999810, 2.079817658991950505E-18, 0.05099999999999999672 ) ) ;
#106 = ORIENTED_EDGE ( 'NONE', *, *, #253, .T. ) ;
#107 = EDGE_CURVE ( 'NONE', #249, #324, #227, .T. ) ;
#108 = CARTESIAN_POINT ( 'NONE',  ( -0.04750000000000064587, 0.0000000000000000000, 1.500000000000000222 ) ) ;
#109 = AXIS2_PLACEMENT_3D ( 'NONE', #27, #102, #309 ) ;
#110 = DIRECTION ( 'NONE',  ( 1.000000000000000000, 0.0000000000000000000, 0.0000000000000000000 ) ) ;
#111 = CARTESIAN_POINT ( 'NONE',  ( -0.01698300000000000504, 0.0000000000000000000, 2.079817658991950505E-18 ) ) ;
#112 = EDGE_CURVE ( 'NONE', #311, #25, #104, .T. ) ;
#113 = CARTESIAN_POINT ( 'NONE',  ( 0.04750000000000064587, 6.735557395310482421E-18, 1.500000000000000222 ) ) ;
#114 = MANIFOLD_SOLID_BREP ( 'Fillet1', #276 ) ;
#115 = ADVANCED_FACE ( 'NONE', ( #80 ), #28, .T. ) ;
#116 = AXIS2_PLACEMENT_3D ( 'NONE', #40, #92, #266 ) ;
#117 = CARTESIAN_POINT ( 'NONE',  ( 2.079817658991950505E-18, 0.0000000000000000000, 0.01698300000000000157 ) ) ;
#118 = CYLINDRICAL_SURFACE ( 'NONE', #272, 0.06250000000000000000 ) ;
#119 = DIRECTION ( 'NONE',  ( 0.0000000000000000000, 0.0000000000000000000, -1.000000000000000000 ) ) ;
#120 = VERTEX_POINT ( 'NONE', #183 ) ;
#121 = FILL_AREA_STYLE_COLOUR ( '', #224 ) ;
#122 = ORIENTED_EDGE ( 'NONE', *, *, #254, .T. ) ;
#123 = EDGE_CURVE ( 'NONE', #275, #303, #229, .T. ) ;
#124 =( LENGTH_UNIT ( ) NAMED_UNIT ( * ) SI_UNIT ( $, .METRE. ) );
#125 = ORIENTED_EDGE ( 'NONE', *, *, #255, .T. ) ;
#126 = CIRCLE ( 'NONE', #2, 0.04750000000000064587 ) ;
#127 = VERTEX_POINT ( 'NONE', #256 ) ;
#128 = DIRECTION ( 'NONE',  ( 0.0000000000000000000, 0.0000000000000000000, 1.000000000000000000 ) ) ;
#129 = SHAPE_DEFINITION_REPRESENTATION ( #211, #285 ) ;
#130 = DIRECTION ( 'NONE',  ( -1.000000000000000000, 0.0000000000000000000, 1.256701551581113425E-16 ) ) ;
#131 = ORIENTED_EDGE ( 'NONE', *, *, #19, .F. ) ;
#132 = VECTOR ( 'NONE', #270, 39.37007874015748143 ) ;
#133 = ORIENTED_EDGE ( 'NONE', *, *, #269, .T. ) ;
#134 = DIRECTION ( 'NONE',  ( -1.000000000000000000, 0.0000000000000000000, 0.0000000000000000000 ) ) ;
#135 = EDGE_CURVE ( 'NONE', #303, #25, #210, .T. ) ;
#136 = DIRECTION ( 'NONE',  ( 1.000000000000000000, 0.0000000000000000000, 0.0000000000000000000 ) ) ;
#137 =( GEOMETRIC_REPRESENTATION_CONTEXT ( 3 ) GLOBAL_UNCERTAINTY_ASSIGNED_CONTEXT ( ( #293 ) ) GLOBAL_UNIT_ASSIGNED_CONTEXT ( ( #50, #1, #179 ) ) REPRESENTATION_CONTEXT ( 'NONE', 'WORKASPACE' ) );
#138 = ORIENTED_EDGE ( 'NONE', *, *, #178, .F. ) ;
#139 = CARTESIAN_POINT ( 'NONE',  ( -0.04750000000000064587, 0.0000000000000000000, 1.500000000000000222 ) ) ;
#140 = CARTESIAN_POINT ( 'NONE',  ( 0.0000000000000000000, 0.0000000000000000000, 1.485000000000000764 ) ) ;
#141 = EDGE_CURVE ( 'NONE', #283, #25, #36, .T. ) ;
#142 = CARTESIAN_POINT ( 'NONE',  ( 0.0000000000000000000, 0.0000000000000000000, 1.500000000000000222 ) ) ;
#143 = CIRCLE ( 'NONE', #44, 0.06250000000000000000 ) ;
#144 = AXIS2_PLACEMENT_3D ( 'NONE', #241, #68, #168 ) ;
#145 = DIMENSIONAL_EXPONENTS ( 1.000000000000000000, 0.0000000000000000000, 0.0000000000000000000, 0.0000000000000000000, 0.0000000000000000000, 0.0000000000000000000, 0.0000000000000000000 ) ;
#146 = DIRECTION ( 'NONE',  ( -1.000000000000000000, 0.0000000000000000000, 1.224646799147353207E-16 ) ) ;
#147 = LENGTH_MEASURE_WITH_UNIT ( LENGTH_MEASURE( 0.02539999999999999897 ), #124 );
#148 = ORIENTED_EDGE ( 'NONE', *, *, #269, .F. ) ;
#149 = SURFACE_STYLE_USAGE ( .BOTH. , #47 ) ;
#150 = AXIS2_PLACEMENT_3D ( 'NONE', #271, #43, #146 ) ;
#151 = ORIENTED_EDGE ( 'NONE', *, *, #295, .T. ) ;
#152 = ADVANCED_FACE ( 'NONE', ( #86 ), #288, .T. ) ;
#153 = CARTESIAN_POINT ( 'NONE',  ( 2.079817658991950505E-18, 0.0000000000000000000, 0.01698300000000000157 ) ) ;
#154 =( GEOMETRIC_REPRESENTATION_CONTEXT ( 3 ) GLOBAL_UNCERTAINTY_ASSIGNED_CONTEXT ( ( #235 ) ) GLOBAL_UNIT_ASSIGNED_CONTEXT ( ( #96, #248, #202 ) ) REPRESENTATION_CONTEXT ( 'NONE', 'WORKASPACE' ) );
#155 = CARTESIAN_POINT ( 'NONE',  ( 2.079817658991950505E-18, 0.0000000000000000000, 0.01698300000000000157 ) ) ;
#156 = ORIENTED_EDGE ( 'NONE', *, *, #135, .F. ) ;
#157 = ADVANCED_FACE ( 'NONE', ( #159 ), #3, .T. ) ;
#158 = CARTESIAN_POINT ( 'NONE',  ( 6.245698675651502164E-18, 0.0000000000000000000, 0.05099999999999999672 ) ) ;
#159 = FACE_OUTER_BOUND ( 'NONE', #82, .T. ) ;
#160 = CIRCLE ( 'NONE', #176, 0.01698300000000000157 ) ;
#161 = CIRCLE ( 'NONE', #320, 0.01698300000000000504 ) ;
#162 = CARTESIAN_POINT ( 'NONE',  ( -0.06250000000000000000, 0.0000000000000000000, 1.500000000000000222 ) ) ;
#163 = ADVANCED_FACE ( 'NONE', ( #319 ), #29, .T. ) ;
#164 = ORIENTED_EDGE ( 'NONE', *, *, #195, .F. ) ;
#165 = CARTESIAN_POINT ( 'NONE',  ( 2.079817658991950505E-18, 0.0000000000000000000, 0.01698300000000000157 ) ) ;
#166 = EDGE_LOOP ( 'NONE', ( #148, #197, #282, #79 ) ) ;
#167 = ADVANCED_FACE ( 'NONE', ( #15 ), #118, .T. ) ;
#168 = DIRECTION ( 'NONE',  ( -1.000000000000000000, 0.0000000000000000000, 0.0000000000000000000 ) ) ;
#169 = CARTESIAN_POINT ( 'NONE',  ( 3.785869864469919836E-17, 0.0000000000000000000, 0.3091397345835377730 ) ) ;
#170 = CARTESIAN_POINT ( 'NONE',  ( 6.245698675651502164E-18, 0.0000000000000000000, 0.05099999999999999672 ) ) ;
#171 = CARTESIAN_POINT ( 'NONE',  ( 2.079817658991950505E-18, 0.0000000000000000000, 0.01698300000000000157 ) ) ;
#172 = CYLINDRICAL_SURFACE ( 'NONE', #150, 0.01698300000000000504 ) ;
#173 = MECHANICAL_DESIGN_GEOMETRIC_PRESENTATION_REPRESENTATION (  '', ( #304 ), #250 ) ;
#174 = SURFACE_STYLE_FILL_AREA ( #223 ) ;
#175 = CARTESIAN_POINT ( 'NONE',  ( -0.06250000000000000000, 0.0000000000000000000, 1.485000000000000764 ) ) ;
#176 = AXIS2_PLACEMENT_3D ( 'NONE', #171, #312, #286 ) ;
#177 = AXIS2_PLACEMENT_3D ( 'NONE', #158, #258, #318 ) ;
#178 = EDGE_CURVE ( 'NONE', #25, #283, #16, .T. ) ;
#179 =( NAMED_UNIT ( * ) SI_UNIT ( $, .STERADIAN. ) SOLID_ANGLE_UNIT ( ) );
#180 = EDGE_CURVE ( 'NONE', #275, #265, #126, .T. ) ;
#181 = APPLICATION_CONTEXT ( 'automotive_design' ) ;
#182 = FILL_AREA_STYLE_COLOUR ( '', #238 ) ;
#183 = CARTESIAN_POINT ( 'NONE',  ( 0.01698300000000001198, 0.0000000000000000000, 0.05099999999999999672 ) ) ;
#184 = DIRECTION ( 'NONE',  ( 0.0000000000000000000, 0.0000000000000000000, -1.000000000000000000 ) ) ;
#185 = ORIENTED_EDGE ( 'NONE', *, *, #112, .F. ) ;
#186 = LENGTH_MEASURE_WITH_UNIT ( LENGTH_MEASURE( 0.02539999999999999897 ), #230 );
#187 = AXIS2_PLACEMENT_3D ( 'NONE', #155, #33, #130 ) ;
#188 = AXIS2_PLACEMENT_3D ( 'NONE', #81, #128, #58 ) ;
#189 = SPHERICAL_SURFACE ( 'NONE', #64, 0.01698300000000000157 ) ;
#190 = LINE ( 'NONE', #17, #192 ) ;
#191 = ADVANCED_FACE ( 'NONE', ( #315 ), #214, .T. ) ;
#192 = VECTOR ( 'NONE', #65, 39.37007874015748143 ) ;
#193 = DIRECTION ( 'NONE',  ( -1.224646799147353454E-16, -0.0000000000000000000, -1.000000000000000000 ) ) ;
#194 = DIRECTION ( 'NONE',  ( 0.0000000000000000000, 0.0000000000000000000, -1.000000000000000000 ) ) ;
#195 = EDGE_CURVE ( 'NONE', #311, #324, #39, .T. ) ;
#196 = FACE_OUTER_BOUND ( 'NONE', #217, .T. ) ;
#197 = ORIENTED_EDGE ( 'NONE', *, *, #112, .T. ) ;
#198 = VERTEX_POINT ( 'NONE', #296 ) ;
#199 =( LENGTH_UNIT ( ) NAMED_UNIT ( * ) SI_UNIT ( $, .METRE. ) );
#200 = AXIS2_PLACEMENT_3D ( 'NONE', #117, #37, #136 ) ;
#201 = ADVANCED_FACE ( 'NONE', ( #89 ), #215, .T. ) ;
#202 =( NAMED_UNIT ( * ) SI_UNIT ( $, .STERADIAN. ) SOLID_ANGLE_UNIT ( ) );
#203 = ORIENTED_EDGE ( 'NONE', *, *, #76, .F. ) ;
#204 = ORIENTED_EDGE ( 'NONE', *, *, #180, .F. ) ;
#205 = ORIENTED_EDGE ( 'NONE', *, *, #41, .T. ) ;
#206 = SURFACE_STYLE_FILL_AREA ( #260 ) ;
#207 = VECTOR ( 'NONE', #193, 39.37007874015748143 ) ;
#208 = PRODUCT_DEFINITION_CONTEXT ( 'detailed design', #38, 'design' ) ;
#209 = ADVANCED_FACE ( 'NONE', ( #87 ), #189, .T. ) ;
#210 = LINE ( 'NONE', #162, #95 ) ;
#211 = PRODUCT_DEFINITION_SHAPE ( 'NONE', 'NONE',  #57 ) ;
#212 = EDGE_LOOP ( 'NONE', ( #228, #122 ) ) ;
#213 = PRESENTATION_STYLE_ASSIGNMENT (( #5 ) ) ;
#214 = CONICAL_SURFACE ( 'NONE', #144, 0.04750000000000064587, 0.7853981633974457255 ) ;
#215 = CYLINDRICAL_SURFACE ( 'NONE', #116, 0.06250000000000000000 ) ;
#216 = ORIENTED_EDGE ( 'NONE', *, *, #88, .T. ) ;
#217 = EDGE_LOOP ( 'NONE', ( #278, #23, #74 ) ) ;
#218 = CARTESIAN_POINT ( 'NONE',  ( 0.0000000000000000000, 0.0000000000000000000, 1.500000000000000222 ) ) ;
#219 = EDGE_CURVE ( 'NONE', #127, #303, #291, .T. ) ;
#220 = AXIS2_PLACEMENT_3D ( 'NONE', #140, #194, #268 ) ;
#221 = DIRECTION ( 'NONE',  ( 1.224646799147353454E-16, 0.0000000000000000000, 1.000000000000000000 ) ) ;
#222 = DIRECTION ( 'NONE',  ( -1.000000000000000000, 0.0000000000000000000, 0.0000000000000000000 ) ) ;
#223 = FILL_AREA_STYLE ('',( #121 ) ) ;
#224 = COLOUR_RGB ( '',0.7921568627450980005, 0.8196078431372548767, 0.9333333333333333481 ) ;
#225 = CARTESIAN_POINT ( 'NONE',  ( -0.01698300000000000157, 0.0000000000000000000, 0.01698300000000000504 ) ) ;
#226 = CARTESIAN_POINT ( 'NONE',  ( 0.0000000000000000000, 0.0000000000000000000, 1.500000000000000222 ) ) ;
#227 = CIRCLE ( 'NONE', #84, 0.01698300000000000504 ) ;
#228 = ORIENTED_EDGE ( 'NONE', *, *, #180, .T. ) ;
#229 = LINE ( 'NONE', #108, #8 ) ;
#230 =( LENGTH_UNIT ( ) NAMED_UNIT ( * ) SI_UNIT ( $, .METRE. ) );
#231 = EDGE_LOOP ( 'NONE', ( #247, #103, #18, #273 ) ) ;
#232 = CARTESIAN_POINT ( 'NONE',  ( 6.245698675651502164E-18, 0.0000000000000000000, 0.05099999999999999672 ) ) ;
#233 = AXIS2_PLACEMENT_3D ( 'NONE', #226, #24, #75 ) ;
#234 = ORIENTED_EDGE ( 'NONE', *, *, #76, .T. ) ;
#235 = UNCERTAINTY_MEASURE_WITH_UNIT (LENGTH_MEASURE( 1.000000000000000082E-05 ), #96, 'distance_accuracy_value', 'NONE');
#236 = CARTESIAN_POINT ( 'NONE',  ( 0.0000000000000000000, 0.0000000000000000000, 0.0000000000000000000 ) ) ;
#237 = DIRECTION ( 'NONE',  ( 0.0000000000000000000, 0.0000000000000000000, 1.000000000000000000 ) ) ;
#238 = COLOUR_RGB ( '',0.7921568627450980005, 0.8196078431372548767, 0.9333333333333333481 ) ;
#239 = CIRCLE ( 'NONE', #91, 0.01698300000000000157 ) ;
#240 = FACE_OUTER_BOUND ( 'NONE', #263, .T. ) ;
#241 = CARTESIAN_POINT ( 'NONE',  ( 0.0000000000000000000, 0.0000000000000000000, 1.500000000000000222 ) ) ;
#242 = DIRECTION ( 'NONE',  ( 1.000000000000000000, 0.0000000000000000000, 0.0000000000000000000 ) ) ;
#243 = ORIENTED_EDGE ( 'NONE', *, *, #19, .T. ) ;
#244 = CIRCLE ( 'NONE', #97, 0.01698300000000000504 ) ;
#245 = CARTESIAN_POINT ( 'NONE',  ( 2.079817658991950505E-18, 0.0000000000000000000, 0.01698300000000000157 ) ) ;
#246 = CARTESIAN_POINT ( 'NONE',  ( -0.01698299999999999810, 4.866930076831453640E-18, 0.05099999999999999672 ) ) ;
#247 = ORIENTED_EDGE ( 'NONE', *, *, #295, .F. ) ;
#248 =( NAMED_UNIT ( * ) PLANE_ANGLE_UNIT ( ) SI_UNIT ( $, .RADIAN. ) );
#249 = VERTEX_POINT ( 'NONE', #292 ) ;
#250 =( GEOMETRIC_REPRESENTATION_CONTEXT ( 3 ) GLOBAL_UNCERTAINTY_ASSIGNED_CONTEXT ( ( #42 ) ) GLOBAL_UNIT_ASSIGNED_CONTEXT ( ( #101, #310, #259 ) ) REPRESENTATION_CONTEXT ( 'NONE', 'WORKASPACE' ) );
#251 = FACE_OUTER_BOUND ( 'NONE', #90, .T. ) ;
#252 = CARTESIAN_POINT ( 'NONE',  ( 0.06250000000000000000, 7.654042494670956004E-18, 1.500000000000000222 ) ) ;
#253 = EDGE_CURVE ( 'NONE', #120, #283, #190, .T. ) ;
#254 = EDGE_CURVE ( 'NONE', #265, #275, #78, .T. ) ;
#255 = EDGE_CURVE ( 'NONE', #120, #249, #261, .T. ) ;
#256 = CARTESIAN_POINT ( 'NONE',  ( 0.06250000000000000000, 7.654042494670956004E-18, 1.485000000000000764 ) ) ;
#257 = ORIENTED_EDGE ( 'NONE', *, *, #195, .T. ) ;
#258 = DIRECTION ( 'NONE',  ( 1.224646799147353454E-16, 0.0000000000000000000, 1.000000000000000000 ) ) ;
#259 =( NAMED_UNIT ( * ) SI_UNIT ( $, .STERADIAN. ) SOLID_ANGLE_UNIT ( ) );
#260 = FILL_AREA_STYLE ('',( #182 ) ) ;
#261 = LINE ( 'NONE', #264, #85 ) ;
#262 = EDGE_LOOP ( 'NONE', ( #52, #205, #257, #234 ) ) ;
#263 = EDGE_LOOP ( 'NONE', ( #133, #125, #49, #164 ) ) ;
#264 = CARTESIAN_POINT ( 'NONE',  ( 0.01698300000000000504, 2.079817658991950505E-18, -2.079817658991950505E-18 ) ) ;
#265 = VERTEX_POINT ( 'NONE', #113 ) ;
#266 = DIRECTION ( 'NONE',  ( -1.000000000000000000, 0.0000000000000000000, 0.0000000000000000000 ) ) ;
#267 = ADVANCED_FACE ( 'NONE', ( #196 ), #35, .T. ) ;
#268 = DIRECTION ( 'NONE',  ( 1.000000000000000000, 0.0000000000000000000, 0.0000000000000000000 ) ) ;
#269 = EDGE_CURVE ( 'NONE', #311, #120, #161, .T. ) ;
#270 = DIRECTION ( 'NONE',  ( 0.7071067811865456854, 8.659560562354911904E-17, -0.7071067811865493491 ) ) ;
#271 = CARTESIAN_POINT ( 'NONE',  ( 0.0000000000000000000, 0.0000000000000000000, 0.0000000000000000000 ) ) ;
#272 = AXIS2_PLACEMENT_3D ( 'NONE', #142, #66, #222 ) ;
#273 = ORIENTED_EDGE ( 'NONE', *, *, #141, .F. ) ;
#274 = PRESENTATION_STYLE_ASSIGNMENT (( #149 ) ) ;
#275 = VERTEX_POINT ( 'NONE', #139 ) ;
#276 = CLOSED_SHELL ( 'NONE', ( #267, #280, #163, #191, #167, #201, #152, #300, #157, #115, #209 ) ) ;
#277 = AXIS2_PLACEMENT_3D ( 'NONE', #13, #221, #290 ) ;
#278 = ORIENTED_EDGE ( 'NONE', *, *, #322, .F. ) ;
#279 = CARTESIAN_POINT ( 'NONE',  ( 0.0000000000000000000, 0.0000000000000000000, 0.0000000000000000000 ) ) ;
#280 = ADVANCED_FACE ( 'NONE', ( #240 ), #172, .T. ) ;
#281 = ORIENTED_EDGE ( 'NONE', *, *, #123, .F. ) ;
#282 = ORIENTED_EDGE ( 'NONE', *, *, #178, .T. ) ;
#283 = VERTEX_POINT ( 'NONE', #72 ) ;
#284 = CARTESIAN_POINT ( 'NONE',  ( 0.0000000000000000000, 0.0000000000000000000, 1.485000000000000764 ) ) ;
#285 = ADVANCED_BREP_SHAPE_REPRESENTATION ( 'Micro_BMS-034-2', ( #114, #20 ), #154 ) ;
#286 = DIRECTION ( 'NONE',  ( -1.000000000000000000, 1.224646799147353207E-16, 0.0000000000000000000 ) ) ;
#287 = PRESENTATION_LAYER_ASSIGNMENT (  '', '', ( #307 ) ) ;
#288 = PLANE ( 'NONE',  #188 ) ;
#289 = DIRECTION ( 'NONE',  ( -1.224646799147353454E-16, -0.0000000000000000000, -1.000000000000000000 ) ) ;
#290 = DIRECTION ( 'NONE',  ( 1.000000000000000000, 0.0000000000000000000, 0.0000000000000000000 ) ) ;
#291 = CIRCLE ( 'NONE', #220, 0.06250000000000000000 ) ;
#292 = CARTESIAN_POINT ( 'NONE',  ( 0.01698300000000000504, 2.079817658991950505E-18, 0.01698299999999999810 ) ) ;
#293 = UNCERTAINTY_MEASURE_WITH_UNIT (LENGTH_MEASURE( 1.000000000000000082E-05 ), #50, 'distance_accuracy_value', 'NONE');
#294 = DIRECTION ( 'NONE',  ( -1.000000000000000000, 0.0000000000000000000, 0.0000000000000000000 ) ) ;
#295 = EDGE_CURVE ( 'NONE', #127, #283, #22, .T. ) ;
#296 = CARTESIAN_POINT ( 'NONE',  ( 3.119726488487925757E-18, 0.0000000000000000000, 0.0000000000000000000 ) ) ;
#297 = CONICAL_SURFACE ( 'NONE', #233, 0.04750000000000064587, 0.7853981633974457255 ) ;
#298 = LENGTH_MEASURE_WITH_UNIT ( LENGTH_MEASURE( 0.02539999999999999897 ), #199 );
#299 = DIRECTION ( 'NONE',  ( -0.0000000000000000000, -0.0000000000000000000, -1.000000000000000000 ) ) ;
#300 = ADVANCED_FACE ( 'NONE', ( #251 ), #297, .T. ) ;
#301 = DIRECTION ( 'NONE',  ( 0.0000000000000000000, 0.0000000000000000000, 1.000000000000000000 ) ) ;
#302 = ORIENTED_EDGE ( 'NONE', *, *, #21, .F. ) ;
#303 = VERTEX_POINT ( 'NONE', #175 ) ;
#304 = STYLED_ITEM ( 'NONE', ( #213 ), #114 ) ;
#305 = ORIENTED_EDGE ( 'NONE', *, *, #88, .F. ) ;
#306 = DIRECTION ( 'NONE',  ( -1.224646799147353454E-16, -0.0000000000000000000, -1.000000000000000000 ) ) ;
#307 = STYLED_ITEM ( 'NONE', ( #274 ), #285 ) ;
#308 = CARTESIAN_POINT ( 'NONE',  ( -0.06249999999999996531, 0.0000000000000000000, 0.3091397345835377730 ) ) ;
#309 = DIRECTION ( 'NONE',  ( 1.000000000000000000, 0.0000000000000000000, 0.0000000000000000000 ) ) ;
#310 =( NAMED_UNIT ( * ) PLANE_ANGLE_UNIT ( ) SI_UNIT ( $, .RADIAN. ) );
#311 = VERTEX_POINT ( 'NONE', #246 ) ;
#312 = DIRECTION ( 'NONE',  ( 1.224646799147353207E-16, 1.000000000000000000, -0.0000000000000000000 ) ) ;
#313 = AXIS2_PLACEMENT_3D ( 'NONE', #236, #60, #56 ) ;
#314 = PRODUCT_DEFINITION_FORMATION_WITH_SPECIFIED_SOURCE ( 'ANY', '', #32, .NOT_KNOWN. ) ;
#315 = FACE_OUTER_BOUND ( 'NONE', #71, .T. ) ;
#316 = ORIENTED_EDGE ( 'NONE', *, *, #219, .F. ) ;
#317 = LINE ( 'NONE', #93, #132 ) ;
#318 = DIRECTION ( 'NONE',  ( 1.000000000000000000, 0.0000000000000000000, 0.0000000000000000000 ) ) ;
#319 = FACE_OUTER_BOUND ( 'NONE', #166, .T. ) ;
#320 = AXIS2_PLACEMENT_3D ( 'NONE', #170, #323, #294 ) ;
#321 = ORIENTED_EDGE ( 'NONE', *, *, #141, .T. ) ;
#322 = EDGE_CURVE ( 'NONE', #198, #249, #239, .T. ) ;
#323 = DIRECTION ( 'NONE',  ( -1.224646799147353454E-16, -0.0000000000000000000, -1.000000000000000000 ) ) ;
#324 = VERTEX_POINT ( 'NONE', #225 ) ;
#325 = DIRECTION ( 'NONE',  ( 0.0000000000000000000, 1.000000000000000000, 0.0000000000000000000 ) ) ;
ENDSEC;
END-ISO-10303-21;
