ISO-10303-21;
HEADER;
FILE_DESCRIPTION (( 'STEP AP214' ),
    '1' );
FILE_NAME ('Micro_BMS-035-2.STEP',
    '2021-09-03T15:17:08',
    ( '' ),
    ( '' ),
    'SwSTEP 2.0',
    'SolidWorks 2020',
    '' );
FILE_SCHEMA (( 'AUTOMOTIVE_DESIGN' ));
ENDSEC;

DATA;
#1 = DIRECTION ( 'NONE',  ( -1.000000000000000000, 0.0000000000000000000, 1.220795792964510544E-16 ) ) ;
#2 = ORIENTED_EDGE ( 'NONE', *, *, #111, .F. ) ;
#3 = CYLINDRICAL_SURFACE ( 'NONE', #238, 0.01748250000000000151 ) ;
#4 = CARTESIAN_POINT ( 'NONE',  ( 2.140988766609360927E-18, 0.0000000000000000000, 0.01748250000000000151 ) ) ;
#5 = DIMENSIONAL_EXPONENTS ( 1.000000000000000000, 0.0000000000000000000, 0.0000000000000000000, 0.0000000000000000000, 0.0000000000000000000, 0.0000000000000000000, 0.0000000000000000000 ) ;
#6 = EDGE_CURVE ( 'NONE', #71, #299, #228, .T. ) ;
#7 =( CONVERSION_BASED_UNIT ( 'INCH', #99 ) LENGTH_UNIT ( ) NAMED_UNIT ( #81 ) );
#8 = AXIS2_PLACEMENT_3D ( 'NONE', #144, #295, #166 ) ;
#9 = CARTESIAN_POINT ( 'NONE',  ( -0.06250000000000000000, 0.0000000000000000000, 1.485000000000000764 ) ) ;
#10 = DIRECTION ( 'NONE',  ( -0.0000000000000000000, -0.0000000000000000000, -1.000000000000000000 ) ) ;
#11 = DIRECTION ( 'NONE',  ( 0.0000000000000000000, 0.0000000000000000000, -1.000000000000000000 ) ) ;
#12 = EDGE_LOOP ( 'NONE', ( #321, #66, #286, #178 ) ) ;
#13 = EDGE_LOOP ( 'NONE', ( #153, #171, #57, #87 ) ) ;
#14 = CARTESIAN_POINT ( 'NONE',  ( 2.140988766609360927E-18, 0.0000000000000000000, 0.01748250000000000151 ) ) ;
#15 = CARTESIAN_POINT ( 'NONE',  ( -0.01748249999999999804, 4.897515630640158851E-18, 0.05299999999999999850 ) ) ;
#16 = VERTEX_POINT ( 'NONE', #146 ) ;
#17 = VECTOR ( 'NONE', #176, 39.37007874015748143 ) ;
#18 = EDGE_CURVE ( 'NONE', #195, #142, #30, .T. ) ;
#19 = DIRECTION ( 'NONE',  ( 1.000000000000000000, 0.0000000000000000000, 0.0000000000000000000 ) ) ;
#20 = ADVANCED_FACE ( 'NONE', ( #189 ), #237, .T. ) ;
#21 = DIRECTION ( 'NONE',  ( -1.224646799147353454E-16, -0.0000000000000000000, -1.000000000000000000 ) ) ;
#22 = ORIENTED_EDGE ( 'NONE', *, *, #83, .T. ) ;
#23 = CARTESIAN_POINT ( 'NONE',  ( 6.490628035480973033E-18, 0.0000000000000000000, 0.05299999999999999850 ) ) ;
#24 = AXIS2_PLACEMENT_3D ( 'NONE', #226, #177, #259 ) ;
#25 = FACE_OUTER_BOUND ( 'NONE', #12, .T. ) ;
#26 = AXIS2_PLACEMENT_3D ( 'NONE', #53, #10, #285 ) ;
#27 = EDGE_CURVE ( 'NONE', #16, #139, #308, .T. ) ;
#28 = LINE ( 'NONE', #180, #158 ) ;
#29 = FACE_OUTER_BOUND ( 'NONE', #85, .T. ) ;
#30 = CIRCLE ( 'NONE', #118, 0.01748250000000000151 ) ;
#31 = DIRECTION ( 'NONE',  ( -1.224646799147353454E-16, -0.0000000000000000000, -1.000000000000000000 ) ) ;
#32 = DIRECTION ( 'NONE',  ( -1.224646799147353454E-16, -0.0000000000000000000, -1.000000000000000000 ) ) ;
#33 = CARTESIAN_POINT ( 'NONE',  ( 0.0000000000000000000, 0.0000000000000000000, 0.0000000000000000000 ) ) ;
#34 =( GEOMETRIC_REPRESENTATION_CONTEXT ( 3 ) GLOBAL_UNCERTAINTY_ASSIGNED_CONTEXT ( ( #190 ) ) GLOBAL_UNIT_ASSIGNED_CONTEXT ( ( #77, #263, #52 ) ) REPRESENTATION_CONTEXT ( 'NONE', 'WORKASPACE' ) );
#35 = CARTESIAN_POINT ( 'NONE',  ( 6.490628035480973033E-18, 0.0000000000000000000, 0.05299999999999999850 ) ) ;
#36 = ORIENTED_EDGE ( 'NONE', *, *, #102, .T. ) ;
#37 = CYLINDRICAL_SURFACE ( 'NONE', #26, 0.06250000000000000000 ) ;
#38 = DIRECTION ( 'NONE',  ( -0.0000000000000000000, -0.0000000000000000000, -1.000000000000000000 ) ) ;
#39 = ORIENTED_EDGE ( 'NONE', *, *, #302, .F. ) ;
#40 = EDGE_CURVE ( 'NONE', #16, #249, #315, .T. ) ;
#41 = CARTESIAN_POINT ( 'NONE',  ( 0.01748250000000000151, 2.140988766609360157E-18, 0.01748249999999999804 ) ) ;
#42 = PRODUCT_DEFINITION_FORMATION_WITH_SPECIFIED_SOURCE ( 'ANY', '', #91, .NOT_KNOWN. ) ;
#43 = DIRECTION ( 'NONE',  ( 1.224646799147353454E-16, 0.0000000000000000000, 1.000000000000000000 ) ) ;
#44 = DIRECTION ( 'NONE',  ( 0.0000000000000000000, 0.0000000000000000000, -1.000000000000000000 ) ) ;
#45 = DIRECTION ( 'NONE',  ( -1.000000000000000000, 0.0000000000000000000, 1.224646799147353454E-16 ) ) ;
#46 = ORIENTED_EDGE ( 'NONE', *, *, #92, .T. ) ;
#47 = PRODUCT_DEFINITION ( 'UNKNOWN', '', #42, #165 ) ;
#48 = MANIFOLD_SOLID_BREP ( 'Fillet1', #149 ) ;
#49 = FILL_AREA_STYLE_COLOUR ( '', #268 ) ;
#50 = EDGE_CURVE ( 'NONE', #274, #208, #54, .T. ) ;
#51 = CONICAL_SURFACE ( 'NONE', #138, 0.04750000000000064587, 0.7853981633974457255 ) ;
#52 =( NAMED_UNIT ( * ) SI_UNIT ( $, .STERADIAN. ) SOLID_ANGLE_UNIT ( ) );
#53 = CARTESIAN_POINT ( 'NONE',  ( 0.0000000000000000000, 0.0000000000000000000, 1.500000000000000222 ) ) ;
#54 = CIRCLE ( 'NONE', #187, 0.06250000000000000000 ) ;
#55 = AXIS2_PLACEMENT_3D ( 'NONE', #261, #126, #198 ) ;
#56 = FILL_AREA_STYLE ('',( #186 ) ) ;
#57 = ORIENTED_EDGE ( 'NONE', *, *, #92, .F. ) ;
#58 = CARTESIAN_POINT ( 'NONE',  ( 0.06250000000000000000, 7.654042494670956004E-18, 1.485000000000000764 ) ) ;
#59 = EDGE_CURVE ( 'NONE', #208, #274, #247, .T. ) ;
#60 = DIRECTION ( 'NONE',  ( -1.224646799147353454E-16, -0.0000000000000000000, -1.000000000000000000 ) ) ;
#61 = ORIENTED_EDGE ( 'NONE', *, *, #196, .F. ) ;
#62 = AXIS2_PLACEMENT_3D ( 'NONE', #23, #324, #94 ) ;
#63 = CONICAL_SURFACE ( 'NONE', #188, 0.04750000000000064587, 0.7853981633974457255 ) ;
#64 = FACE_OUTER_BOUND ( 'NONE', #210, .T. ) ;
#65 = ADVANCED_FACE ( 'NONE', ( #112 ), #240, .T. ) ;
#66 = ORIENTED_EDGE ( 'NONE', *, *, #270, .T. ) ;
#67 = LINE ( 'NONE', #230, #260 ) ;
#68 = DIRECTION ( 'NONE',  ( -0.1736481776669312194, 2.126576849575783625E-17, 0.9848077530122080203 ) ) ;
#69 = DIRECTION ( 'NONE',  ( 1.000000000000000000, 0.0000000000000000000, -0.0000000000000000000 ) ) ;
#70 = CARTESIAN_POINT ( 'NONE',  ( -0.04750000000000064587, 0.0000000000000000000, 1.500000000000000222 ) ) ;
#71 = VERTEX_POINT ( 'NONE', #58 ) ;
#72 = CARTESIAN_POINT ( 'NONE',  ( 2.140988766609360927E-18, 0.0000000000000000000, 0.01748250000000000151 ) ) ;
#73 = PRODUCT_CONTEXT ( 'NONE', #220, 'mechanical' ) ;
#74 = CIRCLE ( 'NONE', #303, 0.01748250000000000151 ) ;
#75 = ADVANCED_FACE ( 'NONE', ( #106 ), #170, .T. ) ;
#76 =( NAMED_UNIT ( * ) SI_UNIT ( $, .STERADIAN. ) SOLID_ANGLE_UNIT ( ) );
#77 =( CONVERSION_BASED_UNIT ( 'INCH', #101 ) LENGTH_UNIT ( ) NAMED_UNIT ( #156 ) );
#78 = DIRECTION ( 'NONE',  ( 1.000000000000000000, 0.0000000000000000000, 0.0000000000000000000 ) ) ;
#79 = AXIS2_PLACEMENT_3D ( 'NONE', #35, #31, #191 ) ;
#80 = ORIENTED_EDGE ( 'NONE', *, *, #27, .F. ) ;
#81 = DIMENSIONAL_EXPONENTS ( 1.000000000000000000, 0.0000000000000000000, 0.0000000000000000000, 0.0000000000000000000, 0.0000000000000000000, 0.0000000000000000000, 0.0000000000000000000 ) ;
#82 =( CONVERSION_BASED_UNIT ( 'INCH', #219 ) LENGTH_UNIT ( ) NAMED_UNIT ( #5 ) );
#83 = EDGE_CURVE ( 'NONE', #299, #274, #246, .T. ) ;
#84 = SURFACE_STYLE_FILL_AREA ( #56 ) ;
#85 = EDGE_LOOP ( 'NONE', ( #2, #224, #271 ) ) ;
#86 = DIRECTION ( 'NONE',  ( -1.000000000000000000, 1.224646799147352961E-16, 0.0000000000000000000 ) ) ;
#87 = ORIENTED_EDGE ( 'NONE', *, *, #233, .F. ) ;
#88 = DIRECTION ( 'NONE',  ( 1.000000000000000000, 0.0000000000000000000, 0.0000000000000000000 ) ) ;
#89 = CIRCLE ( 'NONE', #55, 0.04750000000000064587 ) ;
#90 =( NAMED_UNIT ( * ) PLANE_ANGLE_UNIT ( ) SI_UNIT ( $, .RADIAN. ) );
#91 = PRODUCT ( 'Micro_BMS-035-2', 'Micro_BMS-035-2', '', ( #73 ) ) ;
#92 = EDGE_CURVE ( 'NONE', #299, #71, #98, .T. ) ;
#93 = DIRECTION ( 'NONE',  ( 0.0000000000000000000, 0.0000000000000000000, 1.000000000000000000 ) ) ;
#94 = DIRECTION ( 'NONE',  ( -1.000000000000000000, 0.0000000000000000000, 0.0000000000000000000 ) ) ;
#95 = PRESENTATION_LAYER_ASSIGNMENT (  '', '', ( #163 ) ) ;
#96 = CARTESIAN_POINT ( 'NONE',  ( -0.04750000000000064587, 0.0000000000000000000, 1.500000000000000222 ) ) ;
#97 = DIRECTION ( 'NONE',  ( -1.000000000000000000, 0.0000000000000000000, 1.220795792964510544E-16 ) ) ;
#98 = CIRCLE ( 'NONE', #280, 0.06250000000000000000 ) ;
#99 = LENGTH_MEASURE_WITH_UNIT ( LENGTH_MEASURE( 0.02539999999999999897 ), #130 );
#100 = SPHERICAL_SURFACE ( 'NONE', #103, 0.01748250000000000151 ) ;
#101 = LENGTH_MEASURE_WITH_UNIT ( LENGTH_MEASURE( 0.02539999999999999897 ), #288 );
#102 = EDGE_CURVE ( 'NONE', #16, #208, #192, .T. ) ;
#103 = AXIS2_PLACEMENT_3D ( 'NONE', #289, #181, #206 ) ;
#104 = CARTESIAN_POINT ( 'NONE',  ( 2.140988766609360927E-18, 0.0000000000000000000, 0.01748250000000000151 ) ) ;
#105 = ORIENTED_EDGE ( 'NONE', *, *, #233, .T. ) ;
#106 = FACE_OUTER_BOUND ( 'NONE', #216, .T. ) ;
#107 = ADVANCED_FACE ( 'NONE', ( #64 ), #37, .T. ) ;
#108 = CARTESIAN_POINT ( 'NONE',  ( 0.01748250000000000151, 2.140988766609360157E-18, -2.140988766609360927E-18 ) ) ;
#109 = ORIENTED_EDGE ( 'NONE', *, *, #136, .T. ) ;
#110 = ORIENTED_EDGE ( 'NONE', *, *, #185, .T. ) ;
#111 = EDGE_CURVE ( 'NONE', #195, #249, #212, .T. ) ;
#112 = FACE_OUTER_BOUND ( 'NONE', #167, .T. ) ;
#113 = EDGE_LOOP ( 'NONE', ( #241, #141 ) ) ;
#114 = DIRECTION ( 'NONE',  ( -1.000000000000000000, 0.0000000000000000000, 1.224646799147353454E-16 ) ) ;
#115 = ORIENTED_EDGE ( 'NONE', *, *, #6, .T. ) ;
#116 = ORIENTED_EDGE ( 'NONE', *, *, #207, .T. ) ;
#117 = CARTESIAN_POINT ( 'NONE',  ( 0.0000000000000000000, 0.0000000000000000000, 1.485000000000000764 ) ) ;
#118 = AXIS2_PLACEMENT_3D ( 'NONE', #104, #245, #86 ) ;
#119 = AXIS2_PLACEMENT_3D ( 'NONE', #184, #292, #307 ) ;
#120 = CARTESIAN_POINT ( 'NONE',  ( 3.211483149914040620E-18, 0.0000000000000000000, 0.0000000000000000000 ) ) ;
#121 = ORIENTED_EDGE ( 'NONE', *, *, #59, .F. ) ;
#122 = DIRECTION ( 'NONE',  ( 1.224646799147353454E-16, 0.0000000000000000000, 1.000000000000000000 ) ) ;
#123 = PLANE ( 'NONE',  #213 ) ;
#124 = AXIS2_PLACEMENT_3D ( 'NONE', #172, #43, #19 ) ;
#125 = DIRECTION ( 'NONE',  ( -1.000000000000000000, 0.0000000000000000000, 0.0000000000000000000 ) ) ;
#126 = DIRECTION ( 'NONE',  ( 0.0000000000000000000, 0.0000000000000000000, 1.000000000000000000 ) ) ;
#127 = FILL_AREA_STYLE ('',( #49 ) ) ;
#128 = EDGE_LOOP ( 'NONE', ( #214, #115, #22, #121 ) ) ;
#129 = VECTOR ( 'NONE', #293, 39.37007874015748143 ) ;
#130 =( LENGTH_UNIT ( ) NAMED_UNIT ( * ) SI_UNIT ( $, .METRE. ) );
#131 = SURFACE_STYLE_FILL_AREA ( #127 ) ;
#132 = MECHANICAL_DESIGN_GEOMETRIC_PRESENTATION_REPRESENTATION (  '', ( #163 ), #267 ) ;
#133 = MECHANICAL_DESIGN_GEOMETRIC_PRESENTATION_REPRESENTATION (  '', ( #150 ), #34 ) ;
#134 =( LENGTH_UNIT ( ) NAMED_UNIT ( * ) SI_UNIT ( $, .METRE. ) );
#135 = UNCERTAINTY_MEASURE_WITH_UNIT (LENGTH_MEASURE( 1.000000000000000082E-05 ), #7, 'distance_accuracy_value', 'NONE');
#136 = EDGE_CURVE ( 'NONE', #249, #142, #290, .T. ) ;
#137 = CARTESIAN_POINT ( 'NONE',  ( 3.775670941401217639E-17, 0.0000000000000000000, 0.3083069293146387668 ) ) ;
#138 = AXIS2_PLACEMENT_3D ( 'NONE', #257, #148, #125 ) ;
#139 = VERTEX_POINT ( 'NONE', #15 ) ;
#140 = SURFACE_SIDE_STYLE ('',( #84 ) ) ;
#141 = ORIENTED_EDGE ( 'NONE', *, *, #222, .T. ) ;
#142 = VERTEX_POINT ( 'NONE', #231 ) ;
#143 = VERTEX_POINT ( 'NONE', #96 ) ;
#144 = CARTESIAN_POINT ( 'NONE',  ( 6.490628035480973033E-18, 0.0000000000000000000, 0.05299999999999999850 ) ) ;
#145 = ORIENTED_EDGE ( 'NONE', *, *, #207, .F. ) ;
#146 = CARTESIAN_POINT ( 'NONE',  ( 0.01748250000000000845, 0.0000000000000000000, 0.05299999999999999850 ) ) ;
#147 = ORIENTED_EDGE ( 'NONE', *, *, #40, .F. ) ;
#148 = DIRECTION ( 'NONE',  ( 0.0000000000000000000, 0.0000000000000000000, -1.000000000000000000 ) ) ;
#149 = CLOSED_SHELL ( 'NONE', ( #323, #75, #169, #251, #107, #182, #283, #159, #20, #202, #65 ) ) ;
#150 = STYLED_ITEM ( 'NONE', ( #311 ), #255 ) ;
#151 = DIRECTION ( 'NONE',  ( -1.224646799147353454E-16, -0.0000000000000000000, -1.000000000000000000 ) ) ;
#152 = FACE_OUTER_BOUND ( 'NONE', #252, .T. ) ;
#153 = ORIENTED_EDGE ( 'NONE', *, *, #222, .F. ) ;
#154 = CYLINDRICAL_SURFACE ( 'NONE', #24, 0.06250000000000000000 ) ;
#155 = CARTESIAN_POINT ( 'NONE',  ( 0.06250000000000002776, 7.654042494670959086E-18, 0.3083069293146387668 ) ) ;
#156 = DIMENSIONAL_EXPONENTS ( 1.000000000000000000, 0.0000000000000000000, 0.0000000000000000000, 0.0000000000000000000, 0.0000000000000000000, 0.0000000000000000000, 0.0000000000000000000 ) ;
#157 = AXIS2_PLACEMENT_3D ( 'NONE', #72, #122, #1 ) ;
#158 = VECTOR ( 'NONE', #235, 39.37007874015748143 ) ;
#159 = ADVANCED_FACE ( 'NONE', ( #197 ), #51, .T. ) ;
#160 = APPLICATION_PROTOCOL_DEFINITION ( 'draft international standard', 'automotive_design', 1998, #220 ) ;
#161 = EDGE_CURVE ( 'NONE', #71, #208, #200, .T. ) ;
#162 = DIRECTION ( 'NONE',  ( -1.224646799147353454E-16, -0.0000000000000000000, -1.000000000000000000 ) ) ;
#163 = STYLED_ITEM ( 'NONE', ( #211 ), #48 ) ;
#164 =( NAMED_UNIT ( * ) SI_UNIT ( $, .STERADIAN. ) SOLID_ANGLE_UNIT ( ) );
#165 = PRODUCT_DEFINITION_CONTEXT ( 'detailed design', #277, 'design' ) ;
#166 = DIRECTION ( 'NONE',  ( 1.000000000000000000, 0.0000000000000000000, 0.0000000000000000000 ) ) ;
#167 = EDGE_LOOP ( 'NONE', ( #325, #318, #145 ) ) ;
#168 = AXIS2_PLACEMENT_3D ( 'NONE', #4, #284, #44 ) ;
#169 = ADVANCED_FACE ( 'NONE', ( #25 ), #272, .T. ) ;
#170 = CYLINDRICAL_SURFACE ( 'NONE', #234, 0.01748250000000000151 ) ;
#171 = ORIENTED_EDGE ( 'NONE', *, *, #302, .T. ) ;
#172 = CARTESIAN_POINT ( 'NONE',  ( 6.490628035480973033E-18, 0.0000000000000000000, 0.05299999999999999850 ) ) ;
#173 = CARTESIAN_POINT ( 'NONE',  ( -0.06249999999999996531, 0.0000000000000000000, 0.3083069293146387668 ) ) ;
#174 = CARTESIAN_POINT ( 'NONE',  ( 0.06250000000000000000, 7.654042494670956004E-18, 1.500000000000000222 ) ) ;
#175 = PRODUCT_DEFINITION_SHAPE ( 'NONE', 'NONE',  #47 ) ;
#176 = DIRECTION ( 'NONE',  ( -0.7071067811865456854, 0.0000000000000000000, -0.7071067811865493491 ) ) ;
#177 = DIRECTION ( 'NONE',  ( -0.0000000000000000000, -0.0000000000000000000, -1.000000000000000000 ) ) ;
#178 = ORIENTED_EDGE ( 'NONE', *, *, #102, .F. ) ;
#179 = VECTOR ( 'NONE', #313, 39.37007874015748143 ) ;
#180 = CARTESIAN_POINT ( 'NONE',  ( 0.04750000000000064587, 5.817072295950006528E-18, 1.500000000000000222 ) ) ;
#181 = DIRECTION ( 'NONE',  ( 0.0000000000000000000, 1.000000000000000000, 0.0000000000000000000 ) ) ;
#182 = ADVANCED_FACE ( 'NONE', ( #253 ), #154, .T. ) ;
#183 = CIRCLE ( 'NONE', #209, 0.04750000000000064587 ) ;
#184 = CARTESIAN_POINT ( 'NONE',  ( 0.0000000000000000000, 0.0000000000000000000, 0.0000000000000000000 ) ) ;
#185 = EDGE_CURVE ( 'NONE', #139, #16, #312, .T. ) ;
#186 = FILL_AREA_STYLE_COLOUR ( '', #221 ) ;
#187 = AXIS2_PLACEMENT_3D ( 'NONE', #243, #32, #217 ) ;
#188 = AXIS2_PLACEMENT_3D ( 'NONE', #201, #301, #305 ) ;
#189 = FACE_OUTER_BOUND ( 'NONE', #296, .T. ) ;
#190 = UNCERTAINTY_MEASURE_WITH_UNIT (LENGTH_MEASURE( 1.000000000000000082E-05 ), #77, 'distance_accuracy_value', 'NONE');
#191 = DIRECTION ( 'NONE',  ( -1.000000000000000000, 0.0000000000000000000, 0.0000000000000000000 ) ) ;
#192 = LINE ( 'NONE', #276, #129 ) ;
#193 = ORIENTED_EDGE ( 'NONE', *, *, #40, .T. ) ;
#194 = DIRECTION ( 'NONE',  ( 1.224646799147353454E-16, 0.0000000000000000000, 1.000000000000000000 ) ) ;
#195 = VERTEX_POINT ( 'NONE', #120 ) ;
#196 = EDGE_CURVE ( 'NONE', #139, #142, #67, .T. ) ;
#197 = FACE_OUTER_BOUND ( 'NONE', #264, .T. ) ;
#198 = DIRECTION ( 'NONE',  ( 1.000000000000000000, 0.0000000000000000000, 0.0000000000000000000 ) ) ;
#199 = VECTOR ( 'NONE', #38, 39.37007874015748143 ) ;
#200 = LINE ( 'NONE', #174, #199 ) ;
#201 = CARTESIAN_POINT ( 'NONE',  ( 0.0000000000000000000, 0.0000000000000000000, 1.500000000000000222 ) ) ;
#202 = ADVANCED_FACE ( 'NONE', ( #152 ), #3, .T. ) ;
#203 = DIRECTION ( 'NONE',  ( 0.0000000000000000000, 0.0000000000000000000, 1.000000000000000000 ) ) ;
#204 = AXIS2_PLACEMENT_3D ( 'NONE', #137, #273, #320 ) ;
#205 = SURFACE_STYLE_USAGE ( .BOTH. , #266 ) ;
#206 = DIRECTION ( 'NONE',  ( 1.000000000000000000, 0.0000000000000000000, 0.0000000000000000000 ) ) ;
#207 = EDGE_CURVE ( 'NONE', #142, #249, #74, .T. ) ;
#208 = VERTEX_POINT ( 'NONE', #155 ) ;
#209 = AXIS2_PLACEMENT_3D ( 'NONE', #227, #203, #309 ) ;
#210 = EDGE_LOOP ( 'NONE', ( #46, #218, #215, #316 ) ) ;
#211 = PRESENTATION_STYLE_ASSIGNMENT (( #297 ) ) ;
#212 = CIRCLE ( 'NONE', #168, 0.01748250000000000151 ) ;
#213 = AXIS2_PLACEMENT_3D ( 'NONE', #279, #93, #69 ) ;
#214 = ORIENTED_EDGE ( 'NONE', *, *, #161, .F. ) ;
#215 = ORIENTED_EDGE ( 'NONE', *, *, #50, .F. ) ;
#216 = EDGE_LOOP ( 'NONE', ( #110, #193, #109, #61 ) ) ;
#217 = DIRECTION ( 'NONE',  ( 1.000000000000000000, 0.0000000000000000000, 0.0000000000000000000 ) ) ;
#218 = ORIENTED_EDGE ( 'NONE', *, *, #161, .T. ) ;
#219 = LENGTH_MEASURE_WITH_UNIT ( LENGTH_MEASURE( 0.02539999999999999897 ), #134 );
#220 = APPLICATION_CONTEXT ( 'automotive_design' ) ;
#221 = COLOUR_RGB ( '',0.7921568627450980005, 0.8196078431372548767, 0.9333333333333333481 ) ;
#222 = EDGE_CURVE ( 'NONE', #256, #143, #89, .T. ) ;
#223 = LINE ( 'NONE', #300, #229 ) ;
#224 = ORIENTED_EDGE ( 'NONE', *, *, #18, .T. ) ;
#225 = PRODUCT_RELATED_PRODUCT_CATEGORY ( 'part', '', ( #91 ) ) ;
#226 = CARTESIAN_POINT ( 'NONE',  ( 0.0000000000000000000, 0.0000000000000000000, 1.500000000000000222 ) ) ;
#227 = CARTESIAN_POINT ( 'NONE',  ( 0.0000000000000000000, 0.0000000000000000000, 1.500000000000000222 ) ) ;
#228 = CIRCLE ( 'NONE', #287, 0.06250000000000000000 ) ;
#229 = VECTOR ( 'NONE', #68, 39.37007874015747433 ) ;
#230 = CARTESIAN_POINT ( 'NONE',  ( -0.01748250000000000151, 0.0000000000000000000, 2.140988766609360927E-18 ) ) ;
#231 = CARTESIAN_POINT ( 'NONE',  ( -0.01748249999999999804, 0.0000000000000000000, 0.01748250000000000151 ) ) ;
#232 = SHAPE_DEFINITION_REPRESENTATION ( #175, #255 ) ;
#233 = EDGE_CURVE ( 'NONE', #143, #299, #258, .T. ) ;
#234 = AXIS2_PLACEMENT_3D ( 'NONE', #33, #60, #114 ) ;
#235 = DIRECTION ( 'NONE',  ( 0.7071067811865456854, 8.659560562354911904E-17, -0.7071067811865493491 ) ) ;
#236 = DIRECTION ( 'NONE',  ( 0.0000000000000000000, 0.0000000000000000000, -1.000000000000000000 ) ) ;
#237 = CONICAL_SURFACE ( 'NONE', #8, 0.01748250000000000151, 0.1745329251994339192 ) ;
#238 = AXIS2_PLACEMENT_3D ( 'NONE', #282, #21, #45 ) ;
#239 = UNCERTAINTY_MEASURE_WITH_UNIT (LENGTH_MEASURE( 1.000000000000000082E-05 ), #82, 'distance_accuracy_value', 'NONE');
#240 = SPHERICAL_SURFACE ( 'NONE', #254, 0.01748250000000000151 ) ;
#241 = ORIENTED_EDGE ( 'NONE', *, *, #294, .T. ) ;
#242 = ORIENTED_EDGE ( 'NONE', *, *, #196, .T. ) ;
#243 = CARTESIAN_POINT ( 'NONE',  ( 3.775670941401217639E-17, 0.0000000000000000000, 0.3083069293146387668 ) ) ;
#244 = ORIENTED_EDGE ( 'NONE', *, *, #294, .F. ) ;
#245 = DIRECTION ( 'NONE',  ( 1.224646799147353207E-16, 1.000000000000000000, -0.0000000000000000000 ) ) ;
#246 = LINE ( 'NONE', #319, #179 ) ;
#247 = CIRCLE ( 'NONE', #204, 0.06250000000000000000 ) ;
#248 = DIRECTION ( 'NONE',  ( 1.000000000000000000, 0.0000000000000000000, 0.0000000000000000000 ) ) ;
#249 = VERTEX_POINT ( 'NONE', #41 ) ;
#250 = ORIENTED_EDGE ( 'NONE', *, *, #27, .T. ) ;
#251 = ADVANCED_FACE ( 'NONE', ( #298 ), #63, .T. ) ;
#252 = EDGE_LOOP ( 'NONE', ( #147, #250, #242, #116 ) ) ;
#253 = FACE_OUTER_BOUND ( 'NONE', #128, .T. ) ;
#254 = AXIS2_PLACEMENT_3D ( 'NONE', #14, #269, #248 ) ;
#255 = ADVANCED_BREP_SHAPE_REPRESENTATION ( 'Micro_BMS-035-2', ( #48, #119 ), #314 ) ;
#256 = VERTEX_POINT ( 'NONE', #278 ) ;
#257 = CARTESIAN_POINT ( 'NONE',  ( 0.0000000000000000000, 0.0000000000000000000, 1.500000000000000222 ) ) ;
#258 = LINE ( 'NONE', #70, #17 ) ;
#259 = DIRECTION ( 'NONE',  ( -1.000000000000000000, 0.0000000000000000000, 0.0000000000000000000 ) ) ;
#260 = VECTOR ( 'NONE', #151, 39.37007874015748143 ) ;
#261 = CARTESIAN_POINT ( 'NONE',  ( 0.0000000000000000000, 0.0000000000000000000, 1.500000000000000222 ) ) ;
#262 = APPLICATION_PROTOCOL_DEFINITION ( 'draft international standard', 'automotive_design', 1998, #277 ) ;
#263 =( NAMED_UNIT ( * ) PLANE_ANGLE_UNIT ( ) SI_UNIT ( $, .RADIAN. ) );
#264 = EDGE_LOOP ( 'NONE', ( #39, #244, #105, #306 ) ) ;
#265 = CARTESIAN_POINT ( 'NONE',  ( 0.0000000000000000000, 0.0000000000000000000, 1.485000000000000764 ) ) ;
#266 = SURFACE_SIDE_STYLE ('',( #131 ) ) ;
#267 =( GEOMETRIC_REPRESENTATION_CONTEXT ( 3 ) GLOBAL_UNCERTAINTY_ASSIGNED_CONTEXT ( ( #239 ) ) GLOBAL_UNIT_ASSIGNED_CONTEXT ( ( #82, #90, #164 ) ) REPRESENTATION_CONTEXT ( 'NONE', 'WORKASPACE' ) );
#268 = COLOUR_RGB ( '',0.7921568627450980005, 0.8196078431372548767, 0.9333333333333333481 ) ;
#269 = DIRECTION ( 'NONE',  ( 0.0000000000000000000, 1.000000000000000000, 0.0000000000000000000 ) ) ;
#270 = EDGE_CURVE ( 'NONE', #139, #274, #223, .T. ) ;
#271 = ORIENTED_EDGE ( 'NONE', *, *, #136, .F. ) ;
#272 = CONICAL_SURFACE ( 'NONE', #124, 0.01748250000000000151, 0.1745329251994339192 ) ;
#273 = DIRECTION ( 'NONE',  ( -1.224646799147353454E-16, -0.0000000000000000000, -1.000000000000000000 ) ) ;
#274 = VERTEX_POINT ( 'NONE', #173 ) ;
#275 = VECTOR ( 'NONE', #162, 39.37007874015748143 ) ;
#276 = CARTESIAN_POINT ( 'NONE',  ( 0.01748250000000000845, 0.0000000000000000000, 0.05299999999999999850 ) ) ;
#277 = APPLICATION_CONTEXT ( 'automotive_design' ) ;
#278 = CARTESIAN_POINT ( 'NONE',  ( 0.04750000000000064587, 6.735557395310482421E-18, 1.500000000000000222 ) ) ;
#279 = CARTESIAN_POINT ( 'NONE',  ( 0.0000000000000000000, 0.0000000000000000000, 1.500000000000000222 ) ) ;
#280 = AXIS2_PLACEMENT_3D ( 'NONE', #117, #11, #88 ) ;
#281 = PRESENTATION_LAYER_ASSIGNMENT (  '', '', ( #150 ) ) ;
#282 = CARTESIAN_POINT ( 'NONE',  ( 0.0000000000000000000, 0.0000000000000000000, 0.0000000000000000000 ) ) ;
#283 = ADVANCED_FACE ( 'NONE', ( #322 ), #123, .T. ) ;
#284 = DIRECTION ( 'NONE',  ( 0.0000000000000000000, -1.000000000000000000, 0.0000000000000000000 ) ) ;
#285 = DIRECTION ( 'NONE',  ( -1.000000000000000000, 0.0000000000000000000, 0.0000000000000000000 ) ) ;
#286 = ORIENTED_EDGE ( 'NONE', *, *, #50, .T. ) ;
#287 = AXIS2_PLACEMENT_3D ( 'NONE', #265, #236, #78 ) ;
#288 =( LENGTH_UNIT ( ) NAMED_UNIT ( * ) SI_UNIT ( $, .METRE. ) );
#289 = CARTESIAN_POINT ( 'NONE',  ( 2.140988766609360927E-18, 0.0000000000000000000, 0.01748250000000000151 ) ) ;
#290 = CIRCLE ( 'NONE', #157, 0.01748250000000000151 ) ;
#291 =( NAMED_UNIT ( * ) PLANE_ANGLE_UNIT ( ) SI_UNIT ( $, .RADIAN. ) );
#292 = DIRECTION ( 'NONE',  ( 0.0000000000000000000, 0.0000000000000000000, 1.000000000000000000 ) ) ;
#293 = DIRECTION ( 'NONE',  ( 0.1736481776669314137, 0.0000000000000000000, 0.9848077530122077983 ) ) ;
#294 = EDGE_CURVE ( 'NONE', #143, #256, #183, .T. ) ;
#295 = DIRECTION ( 'NONE',  ( 1.224646799147353454E-16, 0.0000000000000000000, 1.000000000000000000 ) ) ;
#296 = EDGE_LOOP ( 'NONE', ( #317, #80, #36, #310 ) ) ;
#297 = SURFACE_STYLE_USAGE ( .BOTH. , #140 ) ;
#298 = FACE_OUTER_BOUND ( 'NONE', #13, .T. ) ;
#299 = VERTEX_POINT ( 'NONE', #9 ) ;
#300 = CARTESIAN_POINT ( 'NONE',  ( -0.01748249999999999804, 2.140988766609360927E-18, 0.05299999999999999850 ) ) ;
#301 = DIRECTION ( 'NONE',  ( 0.0000000000000000000, 0.0000000000000000000, -1.000000000000000000 ) ) ;
#302 = EDGE_CURVE ( 'NONE', #256, #71, #28, .T. ) ;
#303 = AXIS2_PLACEMENT_3D ( 'NONE', #304, #194, #97 ) ;
#304 = CARTESIAN_POINT ( 'NONE',  ( 2.140988766609360927E-18, 0.0000000000000000000, 0.01748250000000000151 ) ) ;
#305 = DIRECTION ( 'NONE',  ( -1.000000000000000000, 0.0000000000000000000, 0.0000000000000000000 ) ) ;
#306 = ORIENTED_EDGE ( 'NONE', *, *, #6, .F. ) ;
#307 = DIRECTION ( 'NONE',  ( 1.000000000000000000, 0.0000000000000000000, 0.0000000000000000000 ) ) ;
#308 = CIRCLE ( 'NONE', #79, 0.01748250000000000151 ) ;
#309 = DIRECTION ( 'NONE',  ( 1.000000000000000000, 0.0000000000000000000, 0.0000000000000000000 ) ) ;
#310 = ORIENTED_EDGE ( 'NONE', *, *, #59, .T. ) ;
#311 = PRESENTATION_STYLE_ASSIGNMENT (( #205 ) ) ;
#312 = CIRCLE ( 'NONE', #62, 0.01748250000000000151 ) ;
#313 = DIRECTION ( 'NONE',  ( -0.0000000000000000000, -0.0000000000000000000, -1.000000000000000000 ) ) ;
#314 =( GEOMETRIC_REPRESENTATION_CONTEXT ( 3 ) GLOBAL_UNCERTAINTY_ASSIGNED_CONTEXT ( ( #135 ) ) GLOBAL_UNIT_ASSIGNED_CONTEXT ( ( #7, #291, #76 ) ) REPRESENTATION_CONTEXT ( 'NONE', 'WORKASPACE' ) );
#315 = LINE ( 'NONE', #108, #275 ) ;
#316 = ORIENTED_EDGE ( 'NONE', *, *, #83, .F. ) ;
#317 = ORIENTED_EDGE ( 'NONE', *, *, #270, .F. ) ;
#318 = ORIENTED_EDGE ( 'NONE', *, *, #111, .T. ) ;
#319 = CARTESIAN_POINT ( 'NONE',  ( -0.06250000000000000000, 0.0000000000000000000, 1.500000000000000222 ) ) ;
#320 = DIRECTION ( 'NONE',  ( 1.000000000000000000, 0.0000000000000000000, 0.0000000000000000000 ) ) ;
#321 = ORIENTED_EDGE ( 'NONE', *, *, #185, .F. ) ;
#322 = FACE_OUTER_BOUND ( 'NONE', #113, .T. ) ;
#323 = ADVANCED_FACE ( 'NONE', ( #29 ), #100, .T. ) ;
#324 = DIRECTION ( 'NONE',  ( -1.224646799147353454E-16, -0.0000000000000000000, -1.000000000000000000 ) ) ;
#325 = ORIENTED_EDGE ( 'NONE', *, *, #18, .F. ) ;
ENDSEC;
END-ISO-10303-21;
