ISO-10303-21;
HEADER;
FILE_DESCRIPTION (( 'STEP AP214' ),
    '1' );
FILE_NAME ('Micro_SHR-250-4X.STEP',
    '2021-09-02T08:43:20',
    ( '' ),
    ( '' ),
    'SwSTEP 2.0',
    'SolidWorks 2020',
    '' );
FILE_SCHEMA (( 'AUTOMOTIVE_DESIGN' ));
ENDSEC;

DATA;
#1 = APPLICATION_PROTOCOL_DEFINITION ( 'draft international standard', 'automotive_design', 1998, #62 ) ;
#2 = DIRECTION ( 'NONE',  ( -0.0000000000000000000, -0.0000000000000000000, -1.000000000000000000 ) ) ;
#3 = COLOUR_RGB ( '',0.7921568627450980005, 0.8196078431372548767, 0.9333333333333333481 ) ;
#4 = CIRCLE ( 'NONE', #172, 0.1250000000000000555 ) ;
#5 = DIRECTION ( 'NONE',  ( -0.1736481776669313304, 2.126576849575784857E-17, 0.9848077530122077983 ) ) ;
#6 = EDGE_LOOP ( 'NONE', ( #37, #183 ) ) ;
#7 = EDGE_CURVE ( 'NONE', #191, #161, #22, .T. ) ;
#8 = CARTESIAN_POINT ( 'NONE',  ( -0.1100000000000002087, 0.0000000000000000000, 2.500000000000000000 ) ) ;
#9 = EDGE_LOOP ( 'NONE', ( #162, #188, #142, #206 ) ) ;
#10 = EDGE_LOOP ( 'NONE', ( #259, #208, #83, #255 ) ) ;
#11 = UNCERTAINTY_MEASURE_WITH_UNIT (LENGTH_MEASURE( 1.000000000000000082E-05 ), #92, 'distance_accuracy_value', 'NONE');
#12 = CARTESIAN_POINT ( 'NONE',  ( -0.1248749999999999860, 0.0000000000000000000, 3.058555380870514334E-17 ) ) ;
#13 = DIRECTION ( 'NONE',  ( 1.000000000000000000, 0.0000000000000000000, 0.0000000000000000000 ) ) ;
#14 = CARTESIAN_POINT ( 'NONE',  ( -0.1248749999999998889, 1.530043094684724646E-17, 0.7500000000000001110 ) ) ;
#15 = CIRCLE ( 'NONE', #175, 0.1250000000000000555 ) ;
#16 = ADVANCED_FACE ( 'NONE', ( #232 ), #257, .F. ) ;
#17 = DIRECTION ( 'NONE',  ( 1.224646799147353207E-16, 0.0000000000000000000, 1.000000000000000000 ) ) ;
#18 = CARTESIAN_POINT ( 'NONE',  ( 0.1248750000000000554, 0.0000000000000000000, 0.7500000000000001110 ) ) ;
#19 = DIRECTION ( 'NONE',  ( -1.000000000000000000, 0.0000000000000000000, 0.0000000000000000000 ) ) ;
#20 = VECTOR ( 'NONE', #236, 39.37007874015748143 ) ;
#21 = EDGE_CURVE ( 'NONE', #161, #191, #145, .T. ) ;
#22 = CIRCLE ( 'NONE', #101, 0.1250000000000000555 ) ;
#23 =( CONVERSION_BASED_UNIT ( 'INCH', #87 ) LENGTH_UNIT ( ) NAMED_UNIT ( #247 ) );
#24 = EDGE_CURVE ( 'NONE', #52, #61, #126, .T. ) ;
#25 = DIRECTION ( 'NONE',  ( -1.000000000000000000, 0.0000000000000000000, 1.224646799147353207E-16 ) ) ;
#26 = SURFACE_SIDE_STYLE ('',( #235 ) ) ;
#27 = AXIS2_PLACEMENT_3D ( 'NONE', #91, #51, #205 ) ;
#28 = FACE_OUTER_BOUND ( 'NONE', #286, .T. ) ;
#29 = ORIENTED_EDGE ( 'NONE', *, *, #67, .T. ) ;
#30 = UNCERTAINTY_MEASURE_WITH_UNIT (LENGTH_MEASURE( 1.000000000000000082E-05 ), #23, 'distance_accuracy_value', 'NONE');
#31 = DIRECTION ( 'NONE',  ( 0.0000000000000000000, 0.0000000000000000000, 1.000000000000000000 ) ) ;
#32 = EDGE_CURVE ( 'NONE', #287, #191, #124, .T. ) ;
#33 = ORIENTED_EDGE ( 'NONE', *, *, #248, .T. ) ;
#34 = VERTEX_POINT ( 'NONE', #12 ) ;
#35 = CONICAL_SURFACE ( 'NONE', #128, 0.1100000000000002087, 0.7853981633974528309 ) ;
#36 = DIRECTION ( 'NONE',  ( 1.000000000000000000, 0.0000000000000000000, -0.0000000000000000000 ) ) ;
#37 = ORIENTED_EDGE ( 'NONE', *, *, #254, .T. ) ;
#38 = EDGE_CURVE ( 'NONE', #52, #34, #99, .T. ) ;
#39 = DIRECTION ( 'NONE',  ( -1.224646799147353207E-16, -0.0000000000000000000, -1.000000000000000000 ) ) ;
#40 = AXIS2_PLACEMENT_3D ( 'NONE', #212, #39, #104 ) ;
#41 = DIRECTION ( 'NONE',  ( -1.224646799147353207E-16, -0.0000000000000000000, -1.000000000000000000 ) ) ;
#42 = CIRCLE ( 'NONE', #200, 0.1248749999999999860 ) ;
#43 = FACE_OUTER_BOUND ( 'NONE', #55, .T. ) ;
#44 = DIRECTION ( 'NONE',  ( -1.224646799147353207E-16, -0.0000000000000000000, -1.000000000000000000 ) ) ;
#45 = SURFACE_SIDE_STYLE ('',( #267 ) ) ;
#46 = CIRCLE ( 'NONE', #199, 0.1100000000000002087 ) ;
#47 = FILL_AREA_STYLE ('',( #201 ) ) ;
#48 = PRESENTATION_STYLE_ASSIGNMENT (( #88 ) ) ;
#49 = PRESENTATION_STYLE_ASSIGNMENT (( #85 ) ) ;
#50 = EDGE_CURVE ( 'NONE', #234, #285, #46, .T. ) ;
#51 = DIRECTION ( 'NONE',  ( -1.224646799147353207E-16, -0.0000000000000000000, -1.000000000000000000 ) ) ;
#52 = VERTEX_POINT ( 'NONE', #14 ) ;
#53 = PRESENTATION_LAYER_ASSIGNMENT (  '', '', ( #211 ) ) ;
#54 = CYLINDRICAL_SURFACE ( 'NONE', #166, 0.1250000000000000555 ) ;
#55 = EDGE_LOOP ( 'NONE', ( #228, #76, #284, #192 ) ) ;
#56 = CARTESIAN_POINT ( 'NONE',  ( 0.1248749999999999860, 1.529277690435257167E-17, 0.0000000000000000000 ) ) ;
#57 = DIRECTION ( 'NONE',  ( 0.0000000000000000000, 0.0000000000000000000, -1.000000000000000000 ) ) ;
#58 = EDGE_LOOP ( 'NONE', ( #163, #29, #97, #283 ) ) ;
#59 = VECTOR ( 'NONE', #243, 39.37007874015748143 ) ;
#60 = EDGE_LOOP ( 'NONE', ( #282, #213, #165, #94 ) ) ;
#61 = VERTEX_POINT ( 'NONE', #65 ) ;
#62 = APPLICATION_CONTEXT ( 'automotive_design' ) ;
#63 = ORIENTED_EDGE ( 'NONE', *, *, #296, .T. ) ;
#64 = DIRECTION ( 'NONE',  ( 0.0000000000000000000, 0.0000000000000000000, 1.000000000000000000 ) ) ;
#65 = CARTESIAN_POINT ( 'NONE',  ( 0.1248750000000000554, 0.0000000000000000000, 0.7500000000000001110 ) ) ;
#66 = AXIS2_PLACEMENT_3D ( 'NONE', #215, #17, #156 ) ;
#67 = EDGE_CURVE ( 'NONE', #61, #263, #148, .T. ) ;
#68 = DIRECTION ( 'NONE',  ( -1.000000000000000000, 0.0000000000000000000, 0.0000000000000000000 ) ) ;
#69 = FACE_OUTER_BOUND ( 'NONE', #60, .T. ) ;
#70 =( GEOMETRIC_REPRESENTATION_CONTEXT ( 3 ) GLOBAL_UNCERTAINTY_ASSIGNED_CONTEXT ( ( #186 ) ) GLOBAL_UNIT_ASSIGNED_CONTEXT ( ( #178, #202, #136 ) ) REPRESENTATION_CONTEXT ( 'NONE', 'WORKASPACE' ) );
#71 = CARTESIAN_POINT ( 'NONE',  ( 1.872825028598994469E-33, 0.0000000000000000000, 1.529277690435257167E-17 ) ) ;
#72 = LENGTH_MEASURE_WITH_UNIT ( LENGTH_MEASURE( 0.02539999999999999897 ), #242 );
#73 = COLOUR_RGB ( '',0.7921568627450980005, 0.8196078431372548767, 0.9333333333333333481 ) ;
#74 = DIRECTION ( 'NONE',  ( 1.000000000000000000, 0.0000000000000000000, 0.0000000000000000000 ) ) ;
#75 = CARTESIAN_POINT ( 'NONE',  ( 0.0000000000000000000, 0.0000000000000000000, 2.485000000000000320 ) ) ;
#76 = ORIENTED_EDGE ( 'NONE', *, *, #98, .T. ) ;
#77 = CIRCLE ( 'NONE', #239, 0.1100000000000002087 ) ;
#78 = EDGE_LOOP ( 'NONE', ( #63, #103 ) ) ;
#79 = CARTESIAN_POINT ( 'NONE',  ( 9.193532640014478298E-17, 0.0000000000000000000, 0.7507089102274526748 ) ) ;
#80 = ORIENTED_EDGE ( 'NONE', *, *, #21, .F. ) ;
#81 =( GEOMETRIC_REPRESENTATION_CONTEXT ( 3 ) GLOBAL_UNCERTAINTY_ASSIGNED_CONTEXT ( ( #11 ) ) GLOBAL_UNIT_ASSIGNED_CONTEXT ( ( #92, #177, #272 ) ) REPRESENTATION_CONTEXT ( 'NONE', 'WORKASPACE' ) );
#82 = CARTESIAN_POINT ( 'NONE',  ( 0.0000000000000000000, 0.0000000000000000000, 0.0000000000000000000 ) ) ;
#83 = ORIENTED_EDGE ( 'NONE', *, *, #115, .T. ) ;
#84 = CARTESIAN_POINT ( 'NONE',  ( 9.193532640014478298E-17, 0.0000000000000000000, 0.7507089102274526748 ) ) ;
#85 = SURFACE_STYLE_USAGE ( .BOTH. , #45 ) ;
#86 = ADVANCED_FACE ( 'NONE', ( #129 ), #244, .T. ) ;
#87 = LENGTH_MEASURE_WITH_UNIT ( LENGTH_MEASURE( 0.02539999999999999897 ), #217 );
#88 = SURFACE_STYLE_USAGE ( .BOTH. , #26 ) ;
#89 = MANIFOLD_SOLID_BREP ( 'Cut-Revolve1', #105 ) ;
#90 = DIRECTION ( 'NONE',  ( 0.0000000000000000000, 0.0000000000000000000, -1.000000000000000000 ) ) ;
#91 = CARTESIAN_POINT ( 'NONE',  ( 0.0000000000000000000, 0.0000000000000000000, 0.0000000000000000000 ) ) ;
#92 =( CONVERSION_BASED_UNIT ( 'INCH', #224 ) LENGTH_UNIT ( ) NAMED_UNIT ( #110 ) );
#93 = CARTESIAN_POINT ( 'NONE',  ( 0.0000000000000000000, 0.0000000000000000000, 2.500000000000000000 ) ) ;
#94 = ORIENTED_EDGE ( 'NONE', *, *, #159, .F. ) ;
#95 = CARTESIAN_POINT ( 'NONE',  ( 0.1100000000000002087, 1.438959988998141454E-17, 2.500000000000000000 ) ) ;
#96 = CARTESIAN_POINT ( 'NONE',  ( 1.872825028598994469E-33, 0.0000000000000000000, 1.529277690435257167E-17 ) ) ;
#97 = ORIENTED_EDGE ( 'NONE', *, *, #296, .F. ) ;
#98 = EDGE_CURVE ( 'NONE', #287, #120, #15, .T. ) ;
#99 = LINE ( 'NONE', #187, #20 ) ;
#100 = DIRECTION ( 'NONE',  ( -1.224646799147353207E-16, -0.0000000000000000000, -1.000000000000000000 ) ) ;
#101 = AXIS2_PLACEMENT_3D ( 'NONE', #79, #185, #13 ) ;
#102 = CIRCLE ( 'NONE', #223, 0.1248749999999999860 ) ;
#103 = ORIENTED_EDGE ( 'NONE', *, *, #159, .T. ) ;
#104 = DIRECTION ( 'NONE',  ( -1.000000000000000000, 0.0000000000000000000, 0.0000000000000000000 ) ) ;
#105 = CLOSED_SHELL ( 'NONE', ( #264, #86, #151, #271, #203, #130, #119, #196, #125, #16 ) ) ;
#106 = CARTESIAN_POINT ( 'NONE',  ( 0.0000000000000000000, 0.0000000000000000000, 2.485000000000000320 ) ) ;
#107 = LINE ( 'NONE', #173, #281 ) ;
#108 = MECHANICAL_DESIGN_GEOMETRIC_PRESENTATION_REPRESENTATION (  '', ( #211 ), #70 ) ;
#109 =( NAMED_UNIT ( * ) PLANE_ANGLE_UNIT ( ) SI_UNIT ( $, .RADIAN. ) );
#110 = DIMENSIONAL_EXPONENTS ( 1.000000000000000000, 0.0000000000000000000, 0.0000000000000000000, 0.0000000000000000000, 0.0000000000000000000, 0.0000000000000000000, 0.0000000000000000000 ) ;
#111 = FACE_OUTER_BOUND ( 'NONE', #10, .T. ) ;
#112 = VECTOR ( 'NONE', #5, 39.37007874015748143 ) ;
#113 =( LENGTH_UNIT ( ) NAMED_UNIT ( * ) SI_UNIT ( $, .METRE. ) );
#114 = DIRECTION ( 'NONE',  ( -1.224646799147353207E-16, -0.0000000000000000000, -1.000000000000000000 ) ) ;
#115 = EDGE_CURVE ( 'NONE', #61, #191, #197, .T. ) ;
#116 = DIRECTION ( 'NONE',  ( -0.0000000000000000000, -0.0000000000000000000, -1.000000000000000000 ) ) ;
#117 = PRODUCT_DEFINITION ( 'UNKNOWN', '', #289, #144 ) ;
#118 = ORIENTED_EDGE ( 'NONE', *, *, #168, .F. ) ;
#119 = ADVANCED_FACE ( 'NONE', ( #241 ), #127, .T. ) ;
#120 = VERTEX_POINT ( 'NONE', #268 ) ;
#121 = AXIS2_PLACEMENT_3D ( 'NONE', #249, #114, #278 ) ;
#122 = DIRECTION ( 'NONE',  ( 1.000000000000000000, 0.0000000000000000000, 0.0000000000000000000 ) ) ;
#123 = ORIENTED_EDGE ( 'NONE', *, *, #254, .F. ) ;
#124 = LINE ( 'NONE', #167, #134 ) ;
#125 = ADVANCED_FACE ( 'NONE', ( #69 ), #154, .T. ) ;
#126 = CIRCLE ( 'NONE', #40, 0.1248749999999999721 ) ;
#127 = CONICAL_SURFACE ( 'NONE', #293, 0.1100000000000002087, 0.7853981633974528309 ) ;
#128 = AXIS2_PLACEMENT_3D ( 'NONE', #170, #90, #19 ) ;
#129 = FACE_OUTER_BOUND ( 'NONE', #9, .T. ) ;
#130 = ADVANCED_FACE ( 'NONE', ( #219 ), #292, .T. ) ;
#131 = ADVANCED_BREP_SHAPE_REPRESENTATION ( 'Micro_SHR-250-4X', ( #89, #276 ), #81 ) ;
#132 = CYLINDRICAL_SURFACE ( 'NONE', #194, 0.1250000000000000555 ) ;
#133 = CARTESIAN_POINT ( 'NONE',  ( 0.0000000000000000000, 0.0000000000000000000, 2.500000000000000000 ) ) ;
#134 = VECTOR ( 'NONE', #169, 39.37007874015748143 ) ;
#135 = DIRECTION ( 'NONE',  ( 0.0000000000000000000, 0.0000000000000000000, 1.000000000000000000 ) ) ;
#136 =( NAMED_UNIT ( * ) SI_UNIT ( $, .STERADIAN. ) SOLID_ANGLE_UNIT ( ) );
#137 = FACE_OUTER_BOUND ( 'NONE', #231, .T. ) ;
#138 = LINE ( 'NONE', #230, #181 ) ;
#139 = DIRECTION ( 'NONE',  ( -1.000000000000000000, 0.0000000000000000000, 0.0000000000000000000 ) ) ;
#140 = DIRECTION ( 'NONE',  ( 0.7071067811865507924, 8.659560562354973534E-17, -0.7071067811865443531 ) ) ;
#141 =( GEOMETRIC_REPRESENTATION_CONTEXT ( 3 ) GLOBAL_UNCERTAINTY_ASSIGNED_CONTEXT ( ( #30 ) ) GLOBAL_UNIT_ASSIGNED_CONTEXT ( ( #23, #109, #195 ) ) REPRESENTATION_CONTEXT ( 'NONE', 'WORKASPACE' ) );
#142 = ORIENTED_EDGE ( 'NONE', *, *, #21, .T. ) ;
#143 = ORIENTED_EDGE ( 'NONE', *, *, #98, .F. ) ;
#144 = PRODUCT_DEFINITION_CONTEXT ( 'detailed design', #62, 'design' ) ;
#145 = CIRCLE ( 'NONE', #280, 0.1250000000000000555 ) ;
#146 = EDGE_LOOP ( 'NONE', ( #279, #123, #253, #143 ) ) ;
#147 = DIRECTION ( 'NONE',  ( 0.0000000000000000000, 0.0000000000000000000, 1.000000000000000000 ) ) ;
#148 = LINE ( 'NONE', #237, #238 ) ;
#149 = AXIS2_PLACEMENT_3D ( 'NONE', #133, #135, #245 ) ;
#150 = DIRECTION ( 'NONE',  ( 1.224646799147353207E-16, 0.0000000000000000000, 1.000000000000000000 ) ) ;
#151 = ADVANCED_FACE ( 'NONE', ( #137 ), #35, .T. ) ;
#152 = DIRECTION ( 'NONE',  ( 0.0000000000000000000, 0.0000000000000000000, -1.000000000000000000 ) ) ;
#153 = DIRECTION ( 'NONE',  ( -0.7071067811865507924, 0.0000000000000000000, -0.7071067811865443531 ) ) ;
#154 = CYLINDRICAL_SURFACE ( 'NONE', #256, 0.1248749999999999860 ) ;
#155 = CARTESIAN_POINT ( 'NONE',  ( 0.0000000000000000000, 0.0000000000000000000, 0.0000000000000000000 ) ) ;
#156 = DIRECTION ( 'NONE',  ( 1.000000000000000000, 0.0000000000000000000, 0.0000000000000000000 ) ) ;
#157 = CYLINDRICAL_SURFACE ( 'NONE', #27, 0.1248749999999999860 ) ;
#158 = DIRECTION ( 'NONE',  ( -1.000000000000000000, 0.0000000000000000000, 1.224646799147353207E-16 ) ) ;
#159 = EDGE_CURVE ( 'NONE', #263, #34, #42, .T. ) ;
#160 = DIRECTION ( 'NONE',  ( 1.000000000000000000, 0.0000000000000000000, 0.0000000000000000000 ) ) ;
#161 = VERTEX_POINT ( 'NONE', #288 ) ;
#162 = ORIENTED_EDGE ( 'NONE', *, *, #24, .F. ) ;
#163 = ORIENTED_EDGE ( 'NONE', *, *, #24, .T. ) ;
#164 = PRODUCT_DEFINITION_SHAPE ( 'NONE', 'NONE',  #117 ) ;
#165 = ORIENTED_EDGE ( 'NONE', *, *, #38, .T. ) ;
#166 = AXIS2_PLACEMENT_3D ( 'NONE', #274, #116, #139 ) ;
#167 = CARTESIAN_POINT ( 'NONE',  ( 0.1250000000000000555, 1.530808498934192125E-17, 2.500000000000000000 ) ) ;
#168 = EDGE_CURVE ( 'NONE', #285, #120, #107, .T. ) ;
#169 = DIRECTION ( 'NONE',  ( -0.0000000000000000000, -0.0000000000000000000, -1.000000000000000000 ) ) ;
#170 = CARTESIAN_POINT ( 'NONE',  ( 0.0000000000000000000, 0.0000000000000000000, 2.500000000000000000 ) ) ;
#171 = FILL_AREA_STYLE_COLOUR ( '', #73 ) ;
#172 = AXIS2_PLACEMENT_3D ( 'NONE', #75, #57, #160 ) ;
#173 = CARTESIAN_POINT ( 'NONE',  ( -0.1100000000000002087, 0.0000000000000000000, 2.500000000000000000 ) ) ;
#174 = CARTESIAN_POINT ( 'NONE',  ( 0.0000000000000000000, 0.0000000000000000000, 2.500000000000000000 ) ) ;
#175 = AXIS2_PLACEMENT_3D ( 'NONE', #106, #152, #176 ) ;
#176 = DIRECTION ( 'NONE',  ( 1.000000000000000000, 0.0000000000000000000, 0.0000000000000000000 ) ) ;
#177 =( NAMED_UNIT ( * ) PLANE_ANGLE_UNIT ( ) SI_UNIT ( $, .RADIAN. ) );
#178 =( CONVERSION_BASED_UNIT ( 'INCH', #72 ) LENGTH_UNIT ( ) NAMED_UNIT ( #225 ) );
#179 = DIRECTION ( 'NONE',  ( 1.000000000000000000, 0.0000000000000000000, 0.0000000000000000000 ) ) ;
#180 = ORIENTED_EDGE ( 'NONE', *, *, #50, .F. ) ;
#181 = VECTOR ( 'NONE', #140, 39.37007874015748143 ) ;
#182 = CARTESIAN_POINT ( 'NONE',  ( -0.1248749999999998889, 1.529277690435256859E-17, 0.7500000000000001110 ) ) ;
#183 = ORIENTED_EDGE ( 'NONE', *, *, #50, .T. ) ;
#184 = MECHANICAL_DESIGN_GEOMETRIC_PRESENTATION_REPRESENTATION (  '', ( #210 ), #141 ) ;
#185 = DIRECTION ( 'NONE',  ( -1.224646799147353207E-16, -0.0000000000000000000, -1.000000000000000000 ) ) ;
#186 = UNCERTAINTY_MEASURE_WITH_UNIT (LENGTH_MEASURE( 1.000000000000000082E-05 ), #178, 'distance_accuracy_value', 'NONE');
#187 = CARTESIAN_POINT ( 'NONE',  ( -0.1248749999999999860, 0.0000000000000000000, 1.529277690435257167E-17 ) ) ;
#188 = ORIENTED_EDGE ( 'NONE', *, *, #221, .T. ) ;
#189 = PRESENTATION_LAYER_ASSIGNMENT (  '', '', ( #210 ) ) ;
#190 = AXIS2_PLACEMENT_3D ( 'NONE', #297, #150, #240 ) ;
#191 = VERTEX_POINT ( 'NONE', #290 ) ;
#192 = ORIENTED_EDGE ( 'NONE', *, *, #7, .F. ) ;
#193 = DIRECTION ( 'NONE',  ( -0.0000000000000000000, -0.0000000000000000000, -1.000000000000000000 ) ) ;
#194 = AXIS2_PLACEMENT_3D ( 'NONE', #216, #193, #229 ) ;
#195 =( NAMED_UNIT ( * ) SI_UNIT ( $, .STERADIAN. ) SOLID_ANGLE_UNIT ( ) );
#196 = ADVANCED_FACE ( 'NONE', ( #111 ), #295, .T. ) ;
#197 = LINE ( 'NONE', #18, #59 ) ;
#198 = PRODUCT_RELATED_PRODUCT_CATEGORY ( 'part', '', ( #260 ) ) ;
#199 = AXIS2_PLACEMENT_3D ( 'NONE', #262, #64, #214 ) ;
#200 = AXIS2_PLACEMENT_3D ( 'NONE', #71, #222, #25 ) ;
#201 = FILL_AREA_STYLE_COLOUR ( '', #3 ) ;
#202 =( NAMED_UNIT ( * ) PLANE_ANGLE_UNIT ( ) SI_UNIT ( $, .RADIAN. ) );
#203 = ADVANCED_FACE ( 'NONE', ( #43 ), #132, .T. ) ;
#204 = ORIENTED_EDGE ( 'NONE', *, *, #248, .F. ) ;
#205 = DIRECTION ( 'NONE',  ( -1.000000000000000000, 0.0000000000000000000, 1.224646799147353207E-16 ) ) ;
#206 = ORIENTED_EDGE ( 'NONE', *, *, #115, .F. ) ;
#207 = LINE ( 'NONE', #251, #266 ) ;
#208 = ORIENTED_EDGE ( 'NONE', *, *, #233, .F. ) ;
#209 = ORIENTED_EDGE ( 'NONE', *, *, #277, .F. ) ;
#210 = STYLED_ITEM ( 'NONE', ( #49 ), #89 ) ;
#211 = STYLED_ITEM ( 'NONE', ( #48 ), #131 ) ;
#212 = CARTESIAN_POINT ( 'NONE',  ( 9.184850993605150903E-17, 0.0000000000000000000, 0.7500000000000001110 ) ) ;
#213 = ORIENTED_EDGE ( 'NONE', *, *, #233, .T. ) ;
#214 = DIRECTION ( 'NONE',  ( 1.000000000000000000, 0.0000000000000000000, 0.0000000000000000000 ) ) ;
#215 = CARTESIAN_POINT ( 'NONE',  ( 9.184850993605150903E-17, 0.0000000000000000000, 0.7500000000000001110 ) ) ;
#216 = CARTESIAN_POINT ( 'NONE',  ( 0.0000000000000000000, 0.0000000000000000000, 2.500000000000000000 ) ) ;
#217 =( LENGTH_UNIT ( ) NAMED_UNIT ( * ) SI_UNIT ( $, .METRE. ) );
#218 = APPLICATION_CONTEXT ( 'automotive_design' ) ;
#219 = FACE_OUTER_BOUND ( 'NONE', #6, .T. ) ;
#220 = APPLICATION_PROTOCOL_DEFINITION ( 'draft international standard', 'automotive_design', 1998, #218 ) ;
#221 = EDGE_CURVE ( 'NONE', #52, #161, #250, .T. ) ;
#222 = DIRECTION ( 'NONE',  ( -1.224646799147353207E-16, -0.0000000000000000000, -1.000000000000000000 ) ) ;
#223 = AXIS2_PLACEMENT_3D ( 'NONE', #96, #227, #158 ) ;
#224 = LENGTH_MEASURE_WITH_UNIT ( LENGTH_MEASURE( 0.02539999999999999897 ), #113 );
#225 = DIMENSIONAL_EXPONENTS ( 1.000000000000000000, 0.0000000000000000000, 0.0000000000000000000, 0.0000000000000000000, 0.0000000000000000000, 0.0000000000000000000, 0.0000000000000000000 ) ;
#226 = ORIENTED_EDGE ( 'NONE', *, *, #261, .T. ) ;
#227 = DIRECTION ( 'NONE',  ( -1.224646799147353207E-16, -0.0000000000000000000, -1.000000000000000000 ) ) ;
#228 = ORIENTED_EDGE ( 'NONE', *, *, #32, .F. ) ;
#229 = DIRECTION ( 'NONE',  ( -1.000000000000000000, 0.0000000000000000000, 0.0000000000000000000 ) ) ;
#230 = CARTESIAN_POINT ( 'NONE',  ( 0.1100000000000002087, 1.347111479062090938E-17, 2.500000000000000000 ) ) ;
#231 = EDGE_LOOP ( 'NONE', ( #180, #226, #204, #118 ) ) ;
#232 = FACE_OUTER_BOUND ( 'NONE', #78, .T. ) ;
#233 = EDGE_CURVE ( 'NONE', #61, #52, #294, .T. ) ;
#234 = VERTEX_POINT ( 'NONE', #95 ) ;
#235 = SURFACE_STYLE_FILL_AREA ( #269 ) ;
#236 = DIRECTION ( 'NONE',  ( -1.224646799147353207E-16, -0.0000000000000000000, -1.000000000000000000 ) ) ;
#237 = CARTESIAN_POINT ( 'NONE',  ( 0.1248749999999999860, 1.529277690435257167E-17, -1.529277690435257167E-17 ) ) ;
#238 = VECTOR ( 'NONE', #41, 39.37007874015748143 ) ;
#239 = AXIS2_PLACEMENT_3D ( 'NONE', #93, #31, #74 ) ;
#240 = DIRECTION ( 'NONE',  ( 1.000000000000000000, 0.0000000000000000000, 0.0000000000000000000 ) ) ;
#241 = FACE_OUTER_BOUND ( 'NONE', #146, .T. ) ;
#242 =( LENGTH_UNIT ( ) NAMED_UNIT ( * ) SI_UNIT ( $, .METRE. ) );
#243 = DIRECTION ( 'NONE',  ( 0.1736481776669315524, 0.0000000000000000000, 0.9848077530122077983 ) ) ;
#244 = CONICAL_SURFACE ( 'NONE', #66, 0.1248749999999999721, 0.1745329251994340580 ) ;
#245 = DIRECTION ( 'NONE',  ( 1.000000000000000000, 0.0000000000000000000, -0.0000000000000000000 ) ) ;
#246 = DIRECTION ( 'NONE',  ( 0.0000000000000000000, 0.0000000000000000000, 1.000000000000000000 ) ) ;
#247 = DIMENSIONAL_EXPONENTS ( 1.000000000000000000, 0.0000000000000000000, 0.0000000000000000000, 0.0000000000000000000, 0.0000000000000000000, 0.0000000000000000000, 0.0000000000000000000 ) ;
#248 = EDGE_CURVE ( 'NONE', #120, #287, #4, .T. ) ;
#249 = CARTESIAN_POINT ( 'NONE',  ( 9.184850993605150903E-17, 0.0000000000000000000, 0.7500000000000001110 ) ) ;
#250 = LINE ( 'NONE', #182, #112 ) ;
#251 = CARTESIAN_POINT ( 'NONE',  ( -0.1250000000000000555, 0.0000000000000000000, 2.500000000000000000 ) ) ;
#252 = FACE_OUTER_BOUND ( 'NONE', #58, .T. ) ;
#253 = ORIENTED_EDGE ( 'NONE', *, *, #168, .T. ) ;
#254 = EDGE_CURVE ( 'NONE', #285, #234, #77, .T. ) ;
#255 = ORIENTED_EDGE ( 'NONE', *, *, #7, .T. ) ;
#256 = AXIS2_PLACEMENT_3D ( 'NONE', #291, #44, #270 ) ;
#257 = PLANE ( 'NONE',  #275 ) ;
#258 = ORIENTED_EDGE ( 'NONE', *, *, #32, .T. ) ;
#259 = ORIENTED_EDGE ( 'NONE', *, *, #221, .F. ) ;
#260 = PRODUCT ( 'Micro_SHR-250-4X', 'Micro_SHR-250-4X', '', ( #298 ) ) ;
#261 = EDGE_CURVE ( 'NONE', #234, #287, #138, .T. ) ;
#262 = CARTESIAN_POINT ( 'NONE',  ( 0.0000000000000000000, 0.0000000000000000000, 2.500000000000000000 ) ) ;
#263 = VERTEX_POINT ( 'NONE', #56 ) ;
#264 = ADVANCED_FACE ( 'NONE', ( #252 ), #157, .T. ) ;
#265 = DIRECTION ( 'NONE',  ( 0.0000000000000000000, 0.0000000000000000000, -1.000000000000000000 ) ) ;
#266 = VECTOR ( 'NONE', #2, 39.37007874015748143 ) ;
#267 = SURFACE_STYLE_FILL_AREA ( #47 ) ;
#268 = CARTESIAN_POINT ( 'NONE',  ( -0.1250000000000000555, 0.0000000000000000000, 2.485000000000000320 ) ) ;
#269 = FILL_AREA_STYLE ('',( #171 ) ) ;
#270 = DIRECTION ( 'NONE',  ( -1.000000000000000000, 0.0000000000000000000, 1.224646799147353207E-16 ) ) ;
#271 = ADVANCED_FACE ( 'NONE', ( #28 ), #54, .T. ) ;
#272 =( NAMED_UNIT ( * ) SI_UNIT ( $, .STERADIAN. ) SOLID_ANGLE_UNIT ( ) );
#273 = SHAPE_DEFINITION_REPRESENTATION ( #164, #131 ) ;
#274 = CARTESIAN_POINT ( 'NONE',  ( 0.0000000000000000000, 0.0000000000000000000, 2.500000000000000000 ) ) ;
#275 = AXIS2_PLACEMENT_3D ( 'NONE', #82, #147, #36 ) ;
#276 = AXIS2_PLACEMENT_3D ( 'NONE', #155, #246, #179 ) ;
#277 = EDGE_CURVE ( 'NONE', #120, #161, #207, .T. ) ;
#278 = DIRECTION ( 'NONE',  ( -1.000000000000000000, 0.0000000000000000000, 0.0000000000000000000 ) ) ;
#279 = ORIENTED_EDGE ( 'NONE', *, *, #261, .F. ) ;
#280 = AXIS2_PLACEMENT_3D ( 'NONE', #84, #100, #122 ) ;
#281 = VECTOR ( 'NONE', #153, 39.37007874015748143 ) ;
#282 = ORIENTED_EDGE ( 'NONE', *, *, #67, .F. ) ;
#283 = ORIENTED_EDGE ( 'NONE', *, *, #38, .F. ) ;
#284 = ORIENTED_EDGE ( 'NONE', *, *, #277, .T. ) ;
#285 = VERTEX_POINT ( 'NONE', #8 ) ;
#286 = EDGE_LOOP ( 'NONE', ( #33, #258, #80, #209 ) ) ;
#287 = VERTEX_POINT ( 'NONE', #299 ) ;
#288 = CARTESIAN_POINT ( 'NONE',  ( -0.1249999999999999584, 0.0000000000000000000, 0.7507089102274526748 ) ) ;
#289 = PRODUCT_DEFINITION_FORMATION_WITH_SPECIFIED_SOURCE ( 'ANY', '', #260, .NOT_KNOWN. ) ;
#290 = CARTESIAN_POINT ( 'NONE',  ( 0.1250000000000001388, 1.530808498934193050E-17, 0.7507089102274526748 ) ) ;
#291 = CARTESIAN_POINT ( 'NONE',  ( 0.0000000000000000000, 0.0000000000000000000, 0.0000000000000000000 ) ) ;
#292 = PLANE ( 'NONE',  #149 ) ;
#293 = AXIS2_PLACEMENT_3D ( 'NONE', #174, #265, #68 ) ;
#294 = CIRCLE ( 'NONE', #121, 0.1248749999999999721 ) ;
#295 = CONICAL_SURFACE ( 'NONE', #190, 0.1248749999999999721, 0.1745329251994340580 ) ;
#296 = EDGE_CURVE ( 'NONE', #34, #263, #102, .T. ) ;
#297 = CARTESIAN_POINT ( 'NONE',  ( 9.184850993605150903E-17, 0.0000000000000000000, 0.7500000000000001110 ) ) ;
#298 = PRODUCT_CONTEXT ( 'NONE', #218, 'mechanical' ) ;
#299 = CARTESIAN_POINT ( 'NONE',  ( 0.1250000000000000555, 1.530808498934192125E-17, 2.485000000000000320 ) ) ;
ENDSEC;
END-ISO-10303-21;
