ISO-10303-21;
HEADER;
FILE_DESCRIPTION (( 'STEP AP214' ),
    '1' );
FILE_NAME ('56422.STEP',
    '2023-06-30T22:08:47',
    ( '' ),
    ( '' ),
    'SwSTEP 2.0',
    'SolidWorks 2023',
    '' );
FILE_SCHEMA (( 'AUTOMOTIVE_DESIGN' ));
ENDSEC;

DATA;
#1 = CARTESIAN_POINT ( 'NONE',  ( 2.678914873134834139E-17, 0.8750000000000000000, 0.2187499999999998890 ) ) ;
#2 = VERTEX_POINT ( 'NONE', #44 ) ;
#3 = LENGTH_MEASURE_WITH_UNIT ( LENGTH_MEASURE( 0.02539999999999999897 ), #34 );
#4 = ADVANCED_FACE ( 'NONE', ( #216 ), #357, .T. ) ;
#5 = LENGTH_MEASURE_WITH_UNIT ( LENGTH_MEASURE( 0.02539999999999999897 ), #344 );
#6 = AXIS2_PLACEMENT_3D ( 'NONE', #220, #307, #282 ) ;
#7 = ORIENTED_EDGE ( 'NONE', *, *, #320, .F. ) ;
#8 = DIRECTION ( 'NONE',  ( 0.000000000000000000, 0.000000000000000000, -1.000000000000000000 ) ) ;
#9 = CARTESIAN_POINT ( 'NONE',  ( 0.2187499999999998612, 0.8749999999999997780, 2.678914873134832907E-17 ) ) ;
#10 = SURFACE_STYLE_FILL_AREA ( #33 ) ;
#11 = PRESENTATION_STYLE_ASSIGNMENT (( #99 ) ) ;
#12 = CARTESIAN_POINT ( 'NONE',  ( 0.000000000000000000, 0.2187500000000000278, 0.000000000000000000 ) ) ;
#13 = DIRECTION ( 'NONE',  ( -1.000000000000000000, 0.000000000000000000, 0.000000000000000000 ) ) ;
#14 = EDGE_LOOP ( 'NONE', ( #86, #317, #200, #42, #119 ) ) ;
#15 = CARTESIAN_POINT ( 'NONE',  ( 0.000000000000000000, 0.000000000000000000, 0.000000000000000000 ) ) ;
#16 = ORIENTED_EDGE ( 'NONE', *, *, #324, .F. ) ;
#17 = DIMENSIONAL_EXPONENTS ( 1.000000000000000000, 0.000000000000000000, 0.000000000000000000, 0.000000000000000000, 0.000000000000000000, 0.000000000000000000, 0.000000000000000000 ) ;
#18 = UNCERTAINTY_MEASURE_WITH_UNIT (LENGTH_MEASURE( 1.000000000000000082E-05 ), #331, 'distance_accuracy_value', 'NONE');
#19 = EDGE_CURVE ( 'NONE', #2, #225, #137, .T. ) ;
#20 = CARTESIAN_POINT ( 'NONE',  ( -1.339457436567417532E-17, 0.000000000000000000, 0.000000000000000000 ) ) ;
#21 = CARTESIAN_POINT ( 'NONE',  ( -2.678914873134835064E-17, 0.2187500000000000000, 0.000000000000000000 ) ) ;
#22 =( GEOMETRIC_REPRESENTATION_CONTEXT ( 3 ) GLOBAL_UNCERTAINTY_ASSIGNED_CONTEXT ( ( #286 ) ) GLOBAL_UNIT_ASSIGNED_CONTEXT ( ( #217, #368, #92 ) ) REPRESENTATION_CONTEXT ( 'NONE', 'WORKASPACE' ) );
#23 = DIRECTION ( 'NONE',  ( -0.000000000000000000, -1.000000000000000000, -0.000000000000000000 ) ) ;
#24 = CARTESIAN_POINT ( 'NONE',  ( 3.061616997868392262E-17, 2.750000000000000000, 0.000000000000000000 ) ) ;
#25 =( NAMED_UNIT ( * ) SI_UNIT ( $, .STERADIAN. ) SOLID_ANGLE_UNIT ( ) );
#26 =( CONVERSION_BASED_UNIT ( 'INCH', #323 ) LENGTH_UNIT ( ) NAMED_UNIT ( #65 ) );
#27 = DIRECTION ( 'NONE',  ( 0.000000000000000000, 0.000000000000000000, -1.000000000000000000 ) ) ;
#28 =( GEOMETRIC_REPRESENTATION_CONTEXT ( 3 ) GLOBAL_UNCERTAINTY_ASSIGNED_CONTEXT ( ( #325 ) ) GLOBAL_UNIT_ASSIGNED_CONTEXT ( ( #122, #66, #47 ) ) REPRESENTATION_CONTEXT ( 'NONE', 'WORKASPACE' ) );
#29 = CIRCLE ( 'NONE', #169, 0.2187499999999999445 ) ;
#30 = SURFACE_STYLE_FILL_AREA ( #158 ) ;
#31 = PLANE ( 'NONE',  #145 ) ;
#32 = DIRECTION ( 'NONE',  ( 1.000000000000000000, 1.061360559261038986E-16, 0.000000000000000000 ) ) ;
#33 = FILL_AREA_STYLE ('',( #321 ) ) ;
#34 =( LENGTH_UNIT ( ) NAMED_UNIT ( * ) SI_UNIT ( $, .METRE. ) );
#35 = LENGTH_MEASURE_WITH_UNIT ( LENGTH_MEASURE( 0.02539999999999999897 ), #193 );
#36 = ORIENTED_EDGE ( 'NONE', *, *, #19, .T. ) ;
#37 = COLOUR_RGB ( '',1.000000000000000000, 0.000000000000000000, 0.000000000000000000 ) ;
#38 = CARTESIAN_POINT ( 'NONE',  ( 0.000000000000000000, 0.2187500000000000278, 0.000000000000000000 ) ) ;
#39 = ORIENTED_EDGE ( 'NONE', *, *, #264, .T. ) ;
#40 = DIRECTION ( 'NONE',  ( -0.000000000000000000, -1.000000000000000000, -0.000000000000000000 ) ) ;
#41 = DIMENSIONAL_EXPONENTS ( 1.000000000000000000, 0.000000000000000000, 0.000000000000000000, 0.000000000000000000, 0.000000000000000000, 0.000000000000000000, 0.000000000000000000 ) ;
#42 = ORIENTED_EDGE ( 'NONE', *, *, #60, .F. ) ;
#43 = PRESENTATION_STYLE_ASSIGNMENT (( #336 ) ) ;
#44 = CARTESIAN_POINT ( 'NONE',  ( -0.2187499999999998612, 2.750000000000000000, 0.000000000000000000 ) ) ;
#45 = AXIS2_PLACEMENT_3D ( 'NONE', #212, #170, #32 ) ;
#46 = ADVANCED_FACE ( 'NONE', ( #191 ), #338, .F. ) ;
#47 =( NAMED_UNIT ( * ) SI_UNIT ( $, .STERADIAN. ) SOLID_ANGLE_UNIT ( ) );
#48 = DIRECTION ( 'NONE',  ( -0.000000000000000000, -1.000000000000000000, -0.000000000000000000 ) ) ;
#49 = PRESENTATION_STYLE_ASSIGNMENT (( #71 ) ) ;
#50 = UNCERTAINTY_MEASURE_WITH_UNIT (LENGTH_MEASURE( 1.000000000000000082E-05 ), #26, 'distance_accuracy_value', 'NONE');
#51 = DIRECTION ( 'NONE',  ( -1.061360559261038986E-16, 1.000000000000000000, -0.000000000000000000 ) ) ;
#52 = FACE_OUTER_BOUND ( 'NONE', #14, .T. ) ;
#53 = CIRCLE ( 'NONE', #287, 0.2187499999999999445 ) ;
#54 = FACE_OUTER_BOUND ( 'NONE', #271, .T. ) ;
#55 = CARTESIAN_POINT ( 'NONE',  ( -0.2187499999999994171, 0.8749999999999997780, 0.000000000000000000 ) ) ;
#56 = ADVANCED_FACE ( 'NONE', ( #279 ), #172, .T. ) ;
#57 = SURFACE_SIDE_STYLE ('',( #233 ) ) ;
#58 = APPLICATION_CONTEXT ( 'automotive_design' ) ;
#59 = AXIS2_PLACEMENT_3D ( 'NONE', #186, #106, #8 ) ;
#60 = EDGE_CURVE ( 'NONE', #243, #312, #53, .T. ) ;
#61 = DIRECTION ( 'NONE',  ( -1.061360559261038986E-16, 1.000000000000000000, -0.000000000000000000 ) ) ;
#62 =( GEOMETRIC_REPRESENTATION_CONTEXT ( 3 ) GLOBAL_UNCERTAINTY_ASSIGNED_CONTEXT ( ( #152 ) ) GLOBAL_UNIT_ASSIGNED_CONTEXT ( ( #76, #184, #25 ) ) REPRESENTATION_CONTEXT ( 'NONE', 'WORKASPACE' ) );
#63 = ORIENTED_EDGE ( 'NONE', *, *, #361, .F. ) ;
#64 = FACE_OUTER_BOUND ( 'NONE', #146, .T. ) ;
#65 = DIMENSIONAL_EXPONENTS ( 1.000000000000000000, 0.000000000000000000, 0.000000000000000000, 0.000000000000000000, 0.000000000000000000, 0.000000000000000000, 0.000000000000000000 ) ;
#66 =( NAMED_UNIT ( * ) PLANE_ANGLE_UNIT ( ) SI_UNIT ( $, .RADIAN. ) );
#67 = DIRECTION ( 'NONE',  ( 0.000000000000000000, 0.000000000000000000, -1.000000000000000000 ) ) ;
#68 = AXIS2_PLACEMENT_3D ( 'NONE', #274, #61, #222 ) ;
#69 =( GEOMETRIC_REPRESENTATION_CONTEXT ( 3 ) GLOBAL_UNCERTAINTY_ASSIGNED_CONTEXT ( ( #18 ) ) GLOBAL_UNIT_ASSIGNED_CONTEXT ( ( #331, #181, #130 ) ) REPRESENTATION_CONTEXT ( 'NONE', 'WORKASPACE' ) );
#70 =( NAMED_UNIT ( * ) PLANE_ANGLE_UNIT ( ) SI_UNIT ( $, .RADIAN. ) );
#71 = SURFACE_STYLE_USAGE ( .BOTH. , #255 ) ;
#72 = ADVANCED_BREP_SHAPE_REPRESENTATION ( '56422', ( #160, #174, #154 ), #102 ) ;
#73 = LINE ( 'NONE', #259, #262 ) ;
#74 = CLOSED_SHELL ( 'NONE', ( #142, #4, #93, #237, #202 ) ) ;
#75 = VECTOR ( 'NONE', #239, 39.37007874015748143 ) ;
#76 =( CONVERSION_BASED_UNIT ( 'INCH', #261 ) LENGTH_UNIT ( ) NAMED_UNIT ( #311 ) );
#77 = EDGE_CURVE ( 'NONE', #243, #165, #198, .T. ) ;
#78 = COLOUR_RGB ( '',0.7921568627450980005, 0.8196078431372548767, 0.9333333333333333481 ) ;
#79 = DIRECTION ( 'NONE',  ( 0.000000000000000000, -0.000000000000000000, 1.000000000000000000 ) ) ;
#80 = CYLINDRICAL_SURFACE ( 'NONE', #84, 0.2187499999999999167 ) ;
#81 = SURFACE_STYLE_USAGE ( .BOTH. , #138 ) ;
#82 = APPLICATION_PROTOCOL_DEFINITION ( 'draft international standard', 'automotive_design', 1998, #58 ) ;
#83 = CIRCLE ( 'NONE', #268, 0.2187499999999996392 ) ;
#84 = AXIS2_PLACEMENT_3D ( 'NONE', #230, #204, #260 ) ;
#85 = VERTEX_POINT ( 'NONE', #248 ) ;
#86 = ORIENTED_EDGE ( 'NONE', *, *, #190, .F. ) ;
#87 =( CONVERSION_BASED_UNIT ( 'INCH', #35 ) LENGTH_UNIT ( ) NAMED_UNIT ( #356 ) );
#88 = ORIENTED_EDGE ( 'NONE', *, *, #125, .F. ) ;
#89 = STYLED_ITEM ( 'NONE', ( #43 ), #93 ) ;
#90 = AXIS2_PLACEMENT_3D ( 'NONE', #347, #221, #342 ) ;
#91 = VERTEX_POINT ( 'NONE', #348 ) ;
#92 =( NAMED_UNIT ( * ) SI_UNIT ( $, .STERADIAN. ) SOLID_ANGLE_UNIT ( ) );
#93 = ADVANCED_FACE ( 'NONE', ( #64 ), #183, .T. ) ;
#94 = ORIENTED_EDGE ( 'NONE', *, *, #77, .F. ) ;
#95 = DIMENSIONAL_EXPONENTS ( 1.000000000000000000, 0.000000000000000000, 0.000000000000000000, 0.000000000000000000, 0.000000000000000000, 0.000000000000000000, 0.000000000000000000 ) ;
#96 = CIRCLE ( 'NONE', #288, 0.2187500000000000000 ) ;
#97 =( LENGTH_UNIT ( ) NAMED_UNIT ( * ) SI_UNIT ( $, .METRE. ) );
#98 = UNCERTAINTY_MEASURE_WITH_UNIT (LENGTH_MEASURE( 1.000000000000000082E-05 ), #351, 'distance_accuracy_value', 'NONE');
#99 = SURFACE_STYLE_USAGE ( .BOTH. , #360 ) ;
#100 = SURFACE_SIDE_STYLE ('',( #134 ) ) ;
#101 = CIRCLE ( 'NONE', #59, 0.2187499999999999445 ) ;
#102 =( GEOMETRIC_REPRESENTATION_CONTEXT ( 3 ) GLOBAL_UNCERTAINTY_ASSIGNED_CONTEXT ( ( #258 ) ) GLOBAL_UNIT_ASSIGNED_CONTEXT ( ( #87, #70, #236 ) ) REPRESENTATION_CONTEXT ( 'NONE', 'WORKASPACE' ) );
#103 = DIRECTION ( 'NONE',  ( 1.000000000000000000, 0.000000000000000000, 0.000000000000000000 ) ) ;
#104 = CIRCLE ( 'NONE', #251, 0.2187499999999998890 ) ;
#105 = EDGE_CURVE ( 'NONE', #85, #243, #101, .T. ) ;
#106 = DIRECTION ( 'NONE',  ( -0.000000000000000000, -1.000000000000000000, -0.000000000000000000 ) ) ;
#107 = APPLICATION_PROTOCOL_DEFINITION ( 'draft international standard', 'automotive_design', 1998, #234 ) ;
#108 = FILL_AREA_STYLE_COLOUR ( '', #131 ) ;
#109 = CARTESIAN_POINT ( 'NONE',  ( 0.000000000000000000, 0.2187500000000000278, 0.000000000000000000 ) ) ;
#110 = ORIENTED_EDGE ( 'NONE', *, *, #264, .F. ) ;
#111 = FACE_OUTER_BOUND ( 'NONE', #280, .T. ) ;
#112 = PRESENTATION_LAYER_ASSIGNMENT (  '', '', ( #328 ) ) ;
#113 = CARTESIAN_POINT ( 'NONE',  ( 3.061616997868392262E-17, 2.750000000000000000, 0.000000000000000000 ) ) ;
#114 = COLOUR_RGB ( '',1.000000000000000000, 0.000000000000000000, 0.000000000000000000 ) ;
#115 = EDGE_LOOP ( 'NONE', ( #283, #196, #275, #88 ) ) ;
#116 = CARTESIAN_POINT ( 'NONE',  ( 0.2187499999999998890, 2.750000000000000000, 2.678914873134832907E-17 ) ) ;
#117 = DIRECTION ( 'NONE',  ( -0.000000000000000000, -1.000000000000000000, -0.000000000000000000 ) ) ;
#118 = EDGE_CURVE ( 'NONE', #91, #312, #210, .T. ) ;
#119 = ORIENTED_EDGE ( 'NONE', *, *, #105, .F. ) ;
#120 = DIRECTION ( 'NONE',  ( -1.061360559261038986E-16, 1.000000000000000000, -0.000000000000000000 ) ) ;
#121 = ORIENTED_EDGE ( 'NONE', *, *, #320, .T. ) ;
#122 =( CONVERSION_BASED_UNIT ( 'INCH', #326 ) LENGTH_UNIT ( ) NAMED_UNIT ( #319 ) );
#123 = COLOUR_RGB ( '',0.7921568627450980005, 0.8196078431372548767, 0.9333333333333333481 ) ;
#124 = ORIENTED_EDGE ( 'NONE', *, *, #179, .F. ) ;
#125 = EDGE_CURVE ( 'NONE', #225, #2, #104, .T. ) ;
#126 = PRODUCT_DEFINITION_CONTEXT ( 'detailed design', #234, 'design' ) ;
#127 = FILL_AREA_STYLE ('',( #223 ) ) ;
#128 = PRESENTATION_LAYER_ASSIGNMENT (  '', '', ( #178 ) ) ;
#129 = SURFACE_STYLE_FILL_AREA ( #229 ) ;
#130 =( NAMED_UNIT ( * ) SI_UNIT ( $, .STERADIAN. ) SOLID_ANGLE_UNIT ( ) );
#131 = COLOUR_RGB ( '',1.000000000000000000, 0.000000000000000000, 0.000000000000000000 ) ;
#132 = EDGE_CURVE ( 'NONE', #151, #308, #83, .T. ) ;
#133 = PRODUCT_DEFINITION_FORMATION_WITH_SPECIFIED_SOURCE ( 'ANY', '', #247, .NOT_KNOWN. ) ;
#134 = SURFACE_STYLE_FILL_AREA ( #333 ) ;
#135 = DIRECTION ( 'NONE',  ( -1.061360559261038986E-16, 1.000000000000000000, -0.000000000000000000 ) ) ;
#136 =( NAMED_UNIT ( * ) PLANE_ANGLE_UNIT ( ) SI_UNIT ( $, .RADIAN. ) );
#137 = CIRCLE ( 'NONE', #241, 0.2187499999999998890 ) ;
#138 = SURFACE_SIDE_STYLE ('',( #30 ) ) ;
#139 = DIRECTION ( 'NONE',  ( -1.000000000000000000, -1.061360559261038986E-16, 0.000000000000000000 ) ) ;
#140 = EDGE_LOOP ( 'NONE', ( #36, #246 ) ) ;
#141 = ORIENTED_EDGE ( 'NONE', *, *, #361, .T. ) ;
#142 = ADVANCED_FACE ( 'NONE', ( #269 ), #257, .T. ) ;
#143 = DIRECTION ( 'NONE',  ( -1.061360559261038986E-16, 1.000000000000000000, 0.000000000000000000 ) ) ;
#144 = PRESENTATION_LAYER_ASSIGNMENT (  '', '', ( #187 ) ) ;
#145 = AXIS2_PLACEMENT_3D ( 'NONE', #306, #143, #139 ) ;
#146 = EDGE_LOOP ( 'NONE', ( #110, #240 ) ) ;
#147 =( NAMED_UNIT ( * ) SI_UNIT ( $, .STERADIAN. ) SOLID_ANGLE_UNIT ( ) );
#148 = FILL_AREA_STYLE ('',( #270 ) ) ;
#149 = ORIENTED_EDGE ( 'NONE', *, *, #77, .T. ) ;
#150 = PRESENTATION_STYLE_ASSIGNMENT (( #346 ) ) ;
#151 = VERTEX_POINT ( 'NONE', #55 ) ;
#152 = UNCERTAINTY_MEASURE_WITH_UNIT (LENGTH_MEASURE( 1.000000000000000082E-05 ), #76, 'distance_accuracy_value', 'NONE');
#153 = STYLED_ITEM ( 'NONE', ( #49 ), #4 ) ;
#154 = AXIS2_PLACEMENT_3D ( 'NONE', #199, #372, #278 ) ;
#155 = FACE_OUTER_BOUND ( 'NONE', #304, .T. ) ;
#156 = SURFACE_STYLE_USAGE ( .BOTH. , #100 ) ;
#157 = CARTESIAN_POINT ( 'NONE',  ( 0.000000000000000000, 0.8750000000000000000, 0.000000000000000000 ) ) ;
#158 = FILL_AREA_STYLE ('',( #108 ) ) ;
#159 = LENGTH_MEASURE_WITH_UNIT ( LENGTH_MEASURE( 0.02539999999999999897 ), #362 );
#160 = MANIFOLD_SOLID_BREP ( 'Revolve - Cutting Edge', #74 ) ;
#161 = MECHANICAL_DESIGN_GEOMETRIC_PRESENTATION_REPRESENTATION (  '', ( #89 ), #296 ) ;
#162 = DIRECTION ( 'NONE',  ( 0.000000000000000000, 0.000000000000000000, -1.000000000000000000 ) ) ;
#163 = VERTEX_POINT ( 'NONE', #195 ) ;
#164 = ORIENTED_EDGE ( 'NONE', *, *, #132, .T. ) ;
#165 = VERTEX_POINT ( 'NONE', #20 ) ;
#166 = DIRECTION ( 'NONE',  ( 0.000000000000000000, 0.000000000000000000, 1.000000000000000000 ) ) ;
#167 =( GEOMETRIC_REPRESENTATION_CONTEXT ( 3 ) GLOBAL_UNCERTAINTY_ASSIGNED_CONTEXT ( ( #98 ) ) GLOBAL_UNIT_ASSIGNED_CONTEXT ( ( #351, #299, #215 ) ) REPRESENTATION_CONTEXT ( 'NONE', 'WORKASPACE' ) );
#168 = DIRECTION ( 'NONE',  ( -0.000000000000000000, -1.000000000000000000, -0.000000000000000000 ) ) ;
#169 = AXIS2_PLACEMENT_3D ( 'NONE', #12, #117, #27 ) ;
#170 = DIRECTION ( 'NONE',  ( 1.061360559261038986E-16, -1.000000000000000000, 0.000000000000000000 ) ) ;
#171 = EDGE_LOOP ( 'NONE', ( #173, #149, #192, #121 ) ) ;
#172 = CYLINDRICAL_SURFACE ( 'NONE', #68, 0.2187499999999997502 ) ;
#173 = ORIENTED_EDGE ( 'NONE', *, *, #105, .T. ) ;
#174 = MANIFOLD_SOLID_BREP ( 'Revolve - Tool Body (Straight Shanked)', #295 ) ;
#175 = AXIS2_PLACEMENT_3D ( 'NONE', #273, #242, #245 ) ;
#176 = LINE ( 'NONE', #290, #332 ) ;
#177 = FILL_AREA_STYLE_COLOUR ( '', #123 ) ;
#178 = STYLED_ITEM ( 'NONE', ( #11 ), #174 ) ;
#179 = EDGE_CURVE ( 'NONE', #151, #2, #73, .T. ) ;
#180 = PRESENTATION_STYLE_ASSIGNMENT (( #292 ) ) ;
#181 =( NAMED_UNIT ( * ) PLANE_ANGLE_UNIT ( ) SI_UNIT ( $, .RADIAN. ) );
#182 = AXIS2_PLACEMENT_3D ( 'NONE', #157, #23, #294 ) ;
#183 = PLANE ( 'NONE',  #300 ) ;
#184 =( NAMED_UNIT ( * ) PLANE_ANGLE_UNIT ( ) SI_UNIT ( $, .RADIAN. ) );
#185 = DIRECTION ( 'NONE',  ( -1.000000000000000000, 0.000000000000000000, 0.000000000000000000 ) ) ;
#186 = CARTESIAN_POINT ( 'NONE',  ( 0.000000000000000000, 0.2187500000000000278, 0.000000000000000000 ) ) ;
#187 = STYLED_ITEM ( 'NONE', ( #150 ), #160 ) ;
#188 = CIRCLE ( 'NONE', #182, 0.2187499999999998890 ) ;
#189 = CARTESIAN_POINT ( 'NONE',  ( -2.678914873134835064E-17, 0.2187500000000000000, 0.000000000000000000 ) ) ;
#190 = EDGE_CURVE ( 'NONE', #349, #85, #176, .T. ) ;
#191 = FACE_OUTER_BOUND ( 'NONE', #140, .T. ) ;
#192 = ORIENTED_EDGE ( 'NONE', *, *, #343, .F. ) ;
#193 =( LENGTH_UNIT ( ) NAMED_UNIT ( * ) SI_UNIT ( $, .METRE. ) );
#194 = ORIENTED_EDGE ( 'NONE', *, *, #132, .F. ) ;
#195 = CARTESIAN_POINT ( 'NONE',  ( 0.2187499999999999445, 0.2187500000000000278, 0.000000000000000000 ) ) ;
#196 = ORIENTED_EDGE ( 'NONE', *, *, #324, .T. ) ;
#197 =( CONVERSION_BASED_UNIT ( 'INCH', #289 ) LENGTH_UNIT ( ) NAMED_UNIT ( #254 ) );
#198 = CIRCLE ( 'NONE', #6, 0.2187500000000000000 ) ;
#199 = CARTESIAN_POINT ( 'NONE',  ( 0.000000000000000000, 0.000000000000000000, 0.000000000000000000 ) ) ;
#200 = ORIENTED_EDGE ( 'NONE', *, *, #118, .T. ) ;
#201 = ORIENTED_EDGE ( 'NONE', *, *, #190, .T. ) ;
#202 = ADVANCED_FACE ( 'NONE', ( #155 ), #370, .T. ) ;
#203 =( LENGTH_UNIT ( ) NAMED_UNIT ( * ) SI_UNIT ( $, .METRE. ) );
#204 = DIRECTION ( 'NONE',  ( -0.000000000000000000, -1.000000000000000000, -0.000000000000000000 ) ) ;
#205 = MECHANICAL_DESIGN_GEOMETRIC_PRESENTATION_REPRESENTATION (  '', ( #153 ), #167 ) ;
#206 = CARTESIAN_POINT ( 'NONE',  ( 0.2187499999999997780, 2.750000000000000000, 2.678914873134831982E-17 ) ) ;
#207 = CARTESIAN_POINT ( 'NONE',  ( 0.000000000000000000, 0.000000000000000000, -0.2187499999999999167 ) ) ;
#208 = AXIS2_PLACEMENT_3D ( 'NONE', #15, #310, #67 ) ;
#209 = CARTESIAN_POINT ( 'NONE',  ( 2.296212748401287479E-16, 0.8749999999999997780, 0.000000000000000000 ) ) ;
#210 = LINE ( 'NONE', #207, #75 ) ;
#211 = DIRECTION ( 'NONE',  ( -1.000000000000000000, 0.000000000000000000, 0.000000000000000000 ) ) ;
#212 = CARTESIAN_POINT ( 'NONE',  ( 0.2187499999999999167, 2.750000000000000000, 0.000000000000000000 ) ) ;
#213 =( NAMED_UNIT ( * ) SI_UNIT ( $, .STERADIAN. ) SOLID_ANGLE_UNIT ( ) );
#214 = DIRECTION ( 'NONE',  ( 0.000000000000000000, 0.000000000000000000, -1.000000000000000000 ) ) ;
#215 =( NAMED_UNIT ( * ) SI_UNIT ( $, .STERADIAN. ) SOLID_ANGLE_UNIT ( ) );
#216 = FACE_OUTER_BOUND ( 'NONE', #227, .T. ) ;
#217 =( CONVERSION_BASED_UNIT ( 'INCH', #3 ) LENGTH_UNIT ( ) NAMED_UNIT ( #41 ) );
#218 = AXIS2_PLACEMENT_3D ( 'NONE', #244, #166, #276 ) ;
#219 = DIRECTION ( 'NONE',  ( -1.000000000000000000, 0.000000000000000000, 0.000000000000000000 ) ) ;
#220 = CARTESIAN_POINT ( 'NONE',  ( -2.678914873134835064E-17, 0.2187500000000000000, 0.000000000000000000 ) ) ;
#221 = DIRECTION ( 'NONE',  ( -1.061360559261038986E-16, 1.000000000000000000, -0.000000000000000000 ) ) ;
#222 = DIRECTION ( 'NONE',  ( -1.000000000000000000, 0.000000000000000000, 0.000000000000000000 ) ) ;
#223 = FILL_AREA_STYLE_COLOUR ( '', #78 ) ;
#224 = SURFACE_STYLE_FILL_AREA ( #148 ) ;
#225 = VERTEX_POINT ( 'NONE', #116 ) ;
#226 = VECTOR ( 'NONE', #293, 39.37007874015748143 ) ;
#227 = EDGE_LOOP ( 'NONE', ( #39, #201, #7, #63, #345 ) ) ;
#228 = MECHANICAL_DESIGN_GEOMETRIC_PRESENTATION_REPRESENTATION (  '', ( #187 ), #277 ) ;
#229 = FILL_AREA_STYLE ('',( #177 ) ) ;
#230 = CARTESIAN_POINT ( 'NONE',  ( 0.000000000000000000, 0.000000000000000000, 0.000000000000000000 ) ) ;
#231 = FILL_AREA_STYLE_COLOUR ( '', #114 ) ;
#232 = CIRCLE ( 'NONE', #359, 0.2187499999999999445 ) ;
#233 = SURFACE_STYLE_FILL_AREA ( #365 ) ;
#234 = APPLICATION_CONTEXT ( 'automotive_design' ) ;
#235 = DIRECTION ( 'NONE',  ( -1.061360559261038986E-16, 1.000000000000000000, -0.000000000000000000 ) ) ;
#236 =( NAMED_UNIT ( * ) SI_UNIT ( $, .STERADIAN. ) SOLID_ANGLE_UNIT ( ) );
#237 = ADVANCED_FACE ( 'NONE', ( #52 ), #80, .T. ) ;
#238 = DIRECTION ( 'NONE',  ( 0.000000000000000000, 0.000000000000000000, -1.000000000000000000 ) ) ;
#239 = DIRECTION ( 'NONE',  ( -0.000000000000000000, -1.000000000000000000, -0.000000000000000000 ) ) ;
#240 = ORIENTED_EDGE ( 'NONE', *, *, #281, .F. ) ;
#241 = AXIS2_PLACEMENT_3D ( 'NONE', #113, #120, #13 ) ;
#242 = DIRECTION ( 'NONE',  ( -0.000000000000000000, -1.000000000000000000, -0.000000000000000000 ) ) ;
#243 = VERTEX_POINT ( 'NONE', #329 ) ;
#244 = CARTESIAN_POINT ( 'NONE',  ( -2.678914873134835064E-17, 0.2187500000000000000, 0.000000000000000000 ) ) ;
#245 = DIRECTION ( 'NONE',  ( 0.000000000000000000, 0.000000000000000000, -1.000000000000000000 ) ) ;
#246 = ORIENTED_EDGE ( 'NONE', *, *, #125, .T. ) ;
#247 = PRODUCT ( '56422', '56422', '', ( #315 ) ) ;
#248 = CARTESIAN_POINT ( 'NONE',  ( 2.678914873134834756E-17, 0.2187500000000000278, 0.2187499999999999445 ) ) ;
#249 = ORIENTED_EDGE ( 'NONE', *, *, #19, .F. ) ;
#250 = UNCERTAINTY_MEASURE_WITH_UNIT (LENGTH_MEASURE( 1.000000000000000082E-05 ), #197, 'distance_accuracy_value', 'NONE');
#251 = AXIS2_PLACEMENT_3D ( 'NONE', #298, #235, #334 ) ;
#252 = AXIS2_PLACEMENT_3D ( 'NONE', #21, #366, #103 ) ;
#253 = EDGE_CURVE ( 'NONE', #308, #225, #330, .T. ) ;
#254 = DIMENSIONAL_EXPONENTS ( 1.000000000000000000, 0.000000000000000000, 0.000000000000000000, 0.000000000000000000, 0.000000000000000000, 0.000000000000000000, 0.000000000000000000 ) ;
#255 = SURFACE_SIDE_STYLE ('',( #10 ) ) ;
#256 = PRESENTATION_LAYER_ASSIGNMENT (  '', '', ( #89 ) ) ;
#257 = SPHERICAL_SURFACE ( 'NONE', #218, 0.2187500000000000000 ) ;
#258 = UNCERTAINTY_MEASURE_WITH_UNIT (LENGTH_MEASURE( 1.000000000000000082E-05 ), #87, 'distance_accuracy_value', 'NONE');
#259 = CARTESIAN_POINT ( 'NONE',  ( -0.2187499999999997224, 2.750000000000000000, 0.000000000000000000 ) ) ;
#260 = DIRECTION ( 'NONE',  ( 0.000000000000000000, 0.000000000000000000, -1.000000000000000000 ) ) ;
#261 = LENGTH_MEASURE_WITH_UNIT ( LENGTH_MEASURE( 0.02539999999999999897 ), #367 );
#262 = VECTOR ( 'NONE', #51, 39.37007874015748143 ) ;
#263 = MECHANICAL_DESIGN_GEOMETRIC_PRESENTATION_REPRESENTATION (  '', ( #355 ), #62 ) ;
#264 = EDGE_CURVE ( 'NONE', #91, #349, #188, .T. ) ;
#265 = CYLINDRICAL_SURFACE ( 'NONE', #341, 0.2187499999999997502 ) ;
#266 = PRESENTATION_STYLE_ASSIGNMENT (( #156 ) ) ;
#267 = ADVANCED_FACE ( 'NONE', ( #54 ), #265, .T. ) ;
#268 = AXIS2_PLACEMENT_3D ( 'NONE', #209, #305, #185 ) ;
#269 = FACE_OUTER_BOUND ( 'NONE', #171, .T. ) ;
#270 = FILL_AREA_STYLE_COLOUR ( '', #354 ) ;
#271 = EDGE_LOOP ( 'NONE', ( #164, #352, #249, #124 ) ) ;
#272 = ORIENTED_EDGE ( 'NONE', *, *, #343, .T. ) ;
#273 = CARTESIAN_POINT ( 'NONE',  ( 0.000000000000000000, 0.8750000000000000000, 0.000000000000000000 ) ) ;
#274 = CARTESIAN_POINT ( 'NONE',  ( 3.061616997868392262E-17, 2.750000000000000000, 0.000000000000000000 ) ) ;
#275 = ORIENTED_EDGE ( 'NONE', *, *, #179, .T. ) ;
#276 = DIRECTION ( 'NONE',  ( 1.000000000000000000, 0.000000000000000000, 0.000000000000000000 ) ) ;
#277 =( GEOMETRIC_REPRESENTATION_CONTEXT ( 3 ) GLOBAL_UNCERTAINTY_ASSIGNED_CONTEXT ( ( #250 ) ) GLOBAL_UNIT_ASSIGNED_CONTEXT ( ( #197, #353, #147 ) ) REPRESENTATION_CONTEXT ( 'NONE', 'WORKASPACE' ) );
#278 = DIRECTION ( 'NONE',  ( 1.000000000000000000, 0.000000000000000000, 0.000000000000000000 ) ) ;
#279 = FACE_OUTER_BOUND ( 'NONE', #115, .T. ) ;
#280 = EDGE_LOOP ( 'NONE', ( #194, #16 ) ) ;
#281 = EDGE_CURVE ( 'NONE', #349, #91, #301, .T. ) ;
#282 = DIRECTION ( 'NONE',  ( 1.000000000000000000, 0.000000000000000000, -1.224646799147353207E-16 ) ) ;
#283 = ORIENTED_EDGE ( 'NONE', *, *, #253, .F. ) ;
#284 = PRODUCT_DEFINITION_SHAPE ( 'NONE', 'NONE',  #363 ) ;
#285 = PRODUCT_RELATED_PRODUCT_CATEGORY ( 'part', '', ( #247 ) ) ;
#286 = UNCERTAINTY_MEASURE_WITH_UNIT (LENGTH_MEASURE( 1.000000000000000082E-05 ), #217, 'distance_accuracy_value', 'NONE');
#287 = AXIS2_PLACEMENT_3D ( 'NONE', #38, #40, #162 ) ;
#288 = AXIS2_PLACEMENT_3D ( 'NONE', #189, #238, #219 ) ;
#289 = LENGTH_MEASURE_WITH_UNIT ( LENGTH_MEASURE( 0.02539999999999999897 ), #203 );
#290 = CARTESIAN_POINT ( 'NONE',  ( 2.678914873134834139E-17, 0.000000000000000000, 0.2187499999999999167 ) ) ;
#291 = PRESENTATION_LAYER_ASSIGNMENT (  '', '', ( #339 ) ) ;
#292 = SURFACE_STYLE_USAGE ( .BOTH. , #57 ) ;
#293 = DIRECTION ( 'NONE',  ( -1.061360559261038986E-16, 1.000000000000000000, -0.000000000000000000 ) ) ;
#294 = DIRECTION ( 'NONE',  ( 0.000000000000000000, 0.000000000000000000, -1.000000000000000000 ) ) ;
#295 = CLOSED_SHELL ( 'NONE', ( #267, #327, #56, #46 ) ) ;
#296 =( GEOMETRIC_REPRESENTATION_CONTEXT ( 3 ) GLOBAL_UNCERTAINTY_ASSIGNED_CONTEXT ( ( #50 ) ) GLOBAL_UNIT_ASSIGNED_CONTEXT ( ( #26, #136, #213 ) ) REPRESENTATION_CONTEXT ( 'NONE', 'WORKASPACE' ) );
#297 = PRESENTATION_LAYER_ASSIGNMENT (  '', '', ( #355 ) ) ;
#298 = CARTESIAN_POINT ( 'NONE',  ( 3.061616997868392262E-17, 2.750000000000000000, 0.000000000000000000 ) ) ;
#299 =( NAMED_UNIT ( * ) PLANE_ANGLE_UNIT ( ) SI_UNIT ( $, .RADIAN. ) );
#300 = AXIS2_PLACEMENT_3D ( 'NONE', #371, #373, #79 ) ;
#301 = CIRCLE ( 'NONE', #175, 0.2187499999999998890 ) ;
#302 = PRESENTATION_STYLE_ASSIGNMENT (( #81 ) ) ;
#303 =( LENGTH_UNIT ( ) NAMED_UNIT ( * ) SI_UNIT ( $, .METRE. ) );
#304 = EDGE_LOOP ( 'NONE', ( #94, #340, #141, #272 ) ) ;
#305 = DIRECTION ( 'NONE',  ( -1.061360559261038986E-16, 1.000000000000000000, -0.000000000000000000 ) ) ;
#306 = CARTESIAN_POINT ( 'NONE',  ( 2.296212748401287479E-16, 0.8750000000000000000, 0.000000000000000000 ) ) ;
#307 = DIRECTION ( 'NONE',  ( 1.224646799147353207E-16, -0.000000000000000000, 1.000000000000000000 ) ) ;
#308 = VERTEX_POINT ( 'NONE', #9 ) ;
#309 = FILL_AREA_STYLE_COLOUR ( '', #313 ) ;
#310 = DIRECTION ( 'NONE',  ( -0.000000000000000000, -1.000000000000000000, -0.000000000000000000 ) ) ;
#311 = DIMENSIONAL_EXPONENTS ( 1.000000000000000000, 0.000000000000000000, 0.000000000000000000, 0.000000000000000000, 0.000000000000000000, 0.000000000000000000, 0.000000000000000000 ) ;
#312 = VERTEX_POINT ( 'NONE', #335 ) ;
#313 = COLOUR_RGB ( '',1.000000000000000000, 0.000000000000000000, 0.000000000000000000 ) ;
#314 = CIRCLE ( 'NONE', #90, 0.2187499999999996392 ) ;
#315 = PRODUCT_CONTEXT ( 'NONE', #58, 'mechanical' ) ;
#316 = SURFACE_SIDE_STYLE ('',( #224 ) ) ;
#317 = ORIENTED_EDGE ( 'NONE', *, *, #281, .T. ) ;
#318 = SURFACE_STYLE_FILL_AREA ( #127 ) ;
#319 = DIMENSIONAL_EXPONENTS ( 1.000000000000000000, 0.000000000000000000, 0.000000000000000000, 0.000000000000000000, 0.000000000000000000, 0.000000000000000000, 0.000000000000000000 ) ;
#320 = EDGE_CURVE ( 'NONE', #163, #85, #29, .T. ) ;
#321 = FILL_AREA_STYLE_COLOUR ( '', #37 ) ;
#322 = MECHANICAL_DESIGN_GEOMETRIC_PRESENTATION_REPRESENTATION (  '', ( #328 ), #69 ) ;
#323 = LENGTH_MEASURE_WITH_UNIT ( LENGTH_MEASURE( 0.02539999999999999897 ), #303 );
#324 = EDGE_CURVE ( 'NONE', #308, #151, #314, .T. ) ;
#325 = UNCERTAINTY_MEASURE_WITH_UNIT (LENGTH_MEASURE( 1.000000000000000082E-05 ), #122, 'distance_accuracy_value', 'NONE');
#326 = LENGTH_MEASURE_WITH_UNIT ( LENGTH_MEASURE( 0.02539999999999999897 ), #97 );
#327 = ADVANCED_FACE ( 'NONE', ( #111 ), #31, .F. ) ;
#328 = STYLED_ITEM ( 'NONE', ( #180 ), #202 ) ;
#329 = CARTESIAN_POINT ( 'NONE',  ( -0.2187500000000000000, 0.2187500000000000278, 2.678914873134834756E-17 ) ) ;
#330 = LINE ( 'NONE', #206, #226 ) ;
#331 =( CONVERSION_BASED_UNIT ( 'INCH', #159 ) LENGTH_UNIT ( ) NAMED_UNIT ( #17 ) );
#332 = VECTOR ( 'NONE', #48, 39.37007874015748143 ) ;
#333 = FILL_AREA_STYLE ('',( #231 ) ) ;
#334 = DIRECTION ( 'NONE',  ( -1.000000000000000000, 0.000000000000000000, 0.000000000000000000 ) ) ;
#335 = CARTESIAN_POINT ( 'NONE',  ( 0.000000000000000000, 0.2187500000000000278, -0.2187499999999999445 ) ) ;
#336 = SURFACE_STYLE_USAGE ( .BOTH. , #316 ) ;
#337 = SHAPE_DEFINITION_REPRESENTATION ( #284, #72 ) ;
#338 = PLANE ( 'NONE',  #45 ) ;
#339 = STYLED_ITEM ( 'NONE', ( #302 ), #142 ) ;
#340 = ORIENTED_EDGE ( 'NONE', *, *, #60, .T. ) ;
#341 = AXIS2_PLACEMENT_3D ( 'NONE', #24, #135, #211 ) ;
#342 = DIRECTION ( 'NONE',  ( -1.000000000000000000, 0.000000000000000000, 0.000000000000000000 ) ) ;
#343 = EDGE_CURVE ( 'NONE', #163, #165, #96, .T. ) ;
#344 =( LENGTH_UNIT ( ) NAMED_UNIT ( * ) SI_UNIT ( $, .METRE. ) );
#345 = ORIENTED_EDGE ( 'NONE', *, *, #118, .F. ) ;
#346 = SURFACE_STYLE_USAGE ( .BOTH. , #350 ) ;
#347 = CARTESIAN_POINT ( 'NONE',  ( 2.296212748401287479E-16, 0.8749999999999997780, 0.000000000000000000 ) ) ;
#348 = CARTESIAN_POINT ( 'NONE',  ( 0.000000000000000000, 0.8750000000000000000, -0.2187499999999998890 ) ) ;
#349 = VERTEX_POINT ( 'NONE', #1 ) ;
#350 = SURFACE_SIDE_STYLE ('',( #318 ) ) ;
#351 =( CONVERSION_BASED_UNIT ( 'INCH', #5 ) LENGTH_UNIT ( ) NAMED_UNIT ( #95 ) );
#352 = ORIENTED_EDGE ( 'NONE', *, *, #253, .T. ) ;
#353 =( NAMED_UNIT ( * ) PLANE_ANGLE_UNIT ( ) SI_UNIT ( $, .RADIAN. ) );
#354 = COLOUR_RGB ( '',1.000000000000000000, 0.000000000000000000, 0.000000000000000000 ) ;
#355 = STYLED_ITEM ( 'NONE', ( #266 ), #237 ) ;
#356 = DIMENSIONAL_EXPONENTS ( 1.000000000000000000, 0.000000000000000000, 0.000000000000000000, 0.000000000000000000, 0.000000000000000000, 0.000000000000000000, 0.000000000000000000 ) ;
#357 = CYLINDRICAL_SURFACE ( 'NONE', #208, 0.2187499999999999167 ) ;
#358 = MECHANICAL_DESIGN_GEOMETRIC_PRESENTATION_REPRESENTATION (  '', ( #178 ), #28 ) ;
#359 = AXIS2_PLACEMENT_3D ( 'NONE', #109, #168, #214 ) ;
#360 = SURFACE_SIDE_STYLE ('',( #129 ) ) ;
#361 = EDGE_CURVE ( 'NONE', #312, #163, #232, .T. ) ;
#362 =( LENGTH_UNIT ( ) NAMED_UNIT ( * ) SI_UNIT ( $, .METRE. ) );
#363 = PRODUCT_DEFINITION ( 'UNKNOWN', '', #133, #126 ) ;
#364 = MECHANICAL_DESIGN_GEOMETRIC_PRESENTATION_REPRESENTATION (  '', ( #339 ), #22 ) ;
#365 = FILL_AREA_STYLE ('',( #309 ) ) ;
#366 = DIRECTION ( 'NONE',  ( 0.000000000000000000, 0.000000000000000000, 1.000000000000000000 ) ) ;
#367 =( LENGTH_UNIT ( ) NAMED_UNIT ( * ) SI_UNIT ( $, .METRE. ) );
#368 =( NAMED_UNIT ( * ) PLANE_ANGLE_UNIT ( ) SI_UNIT ( $, .RADIAN. ) );
#369 = PRESENTATION_LAYER_ASSIGNMENT (  '', '', ( #153 ) ) ;
#370 = SPHERICAL_SURFACE ( 'NONE', #252, 0.2187500000000000000 ) ;
#371 = CARTESIAN_POINT ( 'NONE',  ( 0.000000000000000000, 0.8750000000000000000, 0.000000000000000000 ) ) ;
#372 = DIRECTION ( 'NONE',  ( 0.000000000000000000, 0.000000000000000000, 1.000000000000000000 ) ) ;
#373 = DIRECTION ( 'NONE',  ( 0.000000000000000000, 1.000000000000000000, 0.000000000000000000 ) ) ;
ENDSEC;
END-ISO-10303-21;
