ISO-10303-21;
HEADER;
FILE_DESCRIPTION (( 'STEP AP214' ),
    '1' );
FILE_NAME ('Micro_SHL-375-4X.STEP',
    '2021-09-02T08:00:42',
    ( '' ),
    ( '' ),
    'SwSTEP 2.0',
    'SolidWorks 2020',
    '' );
FILE_SCHEMA (( 'AUTOMOTIVE_DESIGN' ));
ENDSEC;

DATA;
#1 = ORIENTED_EDGE ( 'NONE', *, *, #136, .F. ) ;
#2 = CIRCLE ( 'NONE', #134, 0.1875000000000000278 ) ;
#3 = AXIS2_PLACEMENT_3D ( 'NONE', #200, #52, #268 ) ;
#4 = PRODUCT_CONTEXT ( 'NONE', #69, 'mechanical' ) ;
#5 = CARTESIAN_POINT ( 'NONE',  ( 0.1725000000000009304, 2.112515728529195628E-17, 3.000000000000000444 ) ) ;
#6 = CARTESIAN_POINT ( 'NONE',  ( 0.1875000000000000278, 2.296212748401286801E-17, 2.985000000000001208 ) ) ;
#7 = DIRECTION ( 'NONE',  ( 0.1736481776669313581, 0.0000000000000000000, 0.9848077530122077983 ) ) ;
#8 = DIRECTION ( 'NONE',  ( 0.0000000000000000000, 0.0000000000000000000, -1.000000000000000000 ) ) ;
#9 = EDGE_CURVE ( 'NONE', #137, #21, #60, .T. ) ;
#10 = CARTESIAN_POINT ( 'NONE',  ( 0.0000000000000000000, 0.0000000000000000000, 3.000000000000000444 ) ) ;
#11 = COLOUR_RGB ( '',0.7921568627450980005, 0.8196078431372548767, 0.9333333333333333481 ) ;
#12 = DIRECTION ( 'NONE',  ( -1.224646799147353454E-16, -0.0000000000000000000, -1.000000000000000000 ) ) ;
#13 = ORIENTED_EDGE ( 'NONE', *, *, #9, .F. ) ;
#14 = CARTESIAN_POINT ( 'NONE',  ( 0.1875000000000001388, 2.296212748401288342E-17, 1.251063365341178457 ) ) ;
#15 = FACE_OUTER_BOUND ( 'NONE', #236, .T. ) ;
#16 = AXIS2_PLACEMENT_3D ( 'NONE', #214, #263, #176 ) ;
#17 =( LENGTH_UNIT ( ) NAMED_UNIT ( * ) SI_UNIT ( $, .METRE. ) );
#18 = VECTOR ( 'NONE', #7, 39.37007874015748143 ) ;
#19 = ADVANCED_FACE ( 'NONE', ( #283 ), #42, .T. ) ;
#20 = ORIENTED_EDGE ( 'NONE', *, *, #45, .F. ) ;
#21 = VERTEX_POINT ( 'NONE', #215 ) ;
#22 = ORIENTED_EDGE ( 'NONE', *, *, #232, .T. ) ;
#23 = EDGE_CURVE ( 'NONE', #21, #137, #2, .T. ) ;
#24 = ORIENTED_EDGE ( 'NONE', *, *, #23, .T. ) ;
#25 = ORIENTED_EDGE ( 'NONE', *, *, #296, .T. ) ;
#26 = DIRECTION ( 'NONE',  ( -1.000000000000000000, 0.0000000000000000000, 1.224646799147353454E-16 ) ) ;
#27 = ORIENTED_EDGE ( 'NONE', *, *, #78, .T. ) ;
#28 = LINE ( 'NONE', #100, #77 ) ;
#29 = CARTESIAN_POINT ( 'NONE',  ( 1.532110745895590310E-16, 0.0000000000000000000, 1.251063365341178457 ) ) ;
#30 = CARTESIAN_POINT ( 'NONE',  ( 2.809237542898493243E-33, 0.0000000000000000000, 2.293916535652886521E-17 ) ) ;
#31 = CARTESIAN_POINT ( 'NONE',  ( 0.0000000000000000000, 0.0000000000000000000, 2.985000000000001208 ) ) ;
#32 = SURFACE_STYLE_USAGE ( .BOTH. , #213 ) ;
#33 = DIRECTION ( 'NONE',  ( -1.000000000000000000, 0.0000000000000000000, 1.224646799147353454E-16 ) ) ;
#34 = ORIENTED_EDGE ( 'NONE', *, *, #67, .F. ) ;
#35 = ADVANCED_FACE ( 'NONE', ( #80 ), #238, .T. ) ;
#36 = CONICAL_SURFACE ( 'NONE', #178, 0.1725000000000009304, 0.7853981633974460586 ) ;
#37 =( NAMED_UNIT ( * ) SI_UNIT ( $, .STERADIAN. ) SOLID_ANGLE_UNIT ( ) );
#38 = LENGTH_MEASURE_WITH_UNIT ( LENGTH_MEASURE( 0.02539999999999999897 ), #17 );
#39 = CARTESIAN_POINT ( 'NONE',  ( -0.1725000000000009304, 0.0000000000000000000, 3.000000000000000444 ) ) ;
#40 = AXIS2_PLACEMENT_3D ( 'NONE', #277, #273, #177 ) ;
#41 = PRODUCT_RELATED_PRODUCT_CATEGORY ( 'part', '', ( #207 ) ) ;
#42 = CONICAL_SURFACE ( 'NONE', #95, 0.1725000000000009304, 0.7853981633974460586 ) ;
#43 = DIMENSIONAL_EXPONENTS ( 1.000000000000000000, 0.0000000000000000000, 0.0000000000000000000, 0.0000000000000000000, 0.0000000000000000000, 0.0000000000000000000, 0.0000000000000000000 ) ;
#44 = AXIS2_PLACEMENT_3D ( 'NONE', #29, #122, #126 ) ;
#45 = EDGE_CURVE ( 'NONE', #53, #256, #135, .T. ) ;
#46 = STYLED_ITEM ( 'NONE', ( #204 ), #114 ) ;
#47 = ORIENTED_EDGE ( 'NONE', *, *, #67, .T. ) ;
#48 = ORIENTED_EDGE ( 'NONE', *, *, #51, .F. ) ;
#49 = DIRECTION ( 'NONE',  ( 1.000000000000000000, 0.0000000000000000000, 0.0000000000000000000 ) ) ;
#50 = DIRECTION ( 'NONE',  ( 1.000000000000000000, 0.0000000000000000000, 0.0000000000000000000 ) ) ;
#51 = EDGE_CURVE ( 'NONE', #256, #21, #119, .T. ) ;
#52 = DIRECTION ( 'NONE',  ( 1.224646799147353454E-16, 0.0000000000000000000, 1.000000000000000000 ) ) ;
#53 = VERTEX_POINT ( 'NONE', #6 ) ;
#54 = CIRCLE ( 'NONE', #40, 0.1873124999999999929 ) ;
#55 = SURFACE_STYLE_FILL_AREA ( #282 ) ;
#56 = CYLINDRICAL_SURFACE ( 'NONE', #16, 0.1873124999999999929 ) ;
#57 = ORIENTED_EDGE ( 'NONE', *, *, #232, .F. ) ;
#58 =( NAMED_UNIT ( * ) PLANE_ANGLE_UNIT ( ) SI_UNIT ( $, .RADIAN. ) );
#59 = VERTEX_POINT ( 'NONE', #124 ) ;
#60 = CIRCLE ( 'NONE', #44, 0.1875000000000000278 ) ;
#61 = CARTESIAN_POINT ( 'NONE',  ( 0.0000000000000000000, 0.0000000000000000000, 0.0000000000000000000 ) ) ;
#62 = FILL_AREA_STYLE_COLOUR ( '', #11 ) ;
#63 = FACE_OUTER_BOUND ( 'NONE', #112, .T. ) ;
#64 = DIRECTION ( 'NONE',  ( 1.224646799147353454E-16, 0.0000000000000000000, 1.000000000000000000 ) ) ;
#65 = AXIS2_PLACEMENT_3D ( 'NONE', #266, #182, #201 ) ;
#66 = ORIENTED_EDGE ( 'NONE', *, *, #189, .F. ) ;
#67 = EDGE_CURVE ( 'NONE', #59, #167, #99, .T. ) ;
#68 = ORIENTED_EDGE ( 'NONE', *, *, #189, .T. ) ;
#69 = APPLICATION_CONTEXT ( 'automotive_design' ) ;
#70 = VECTOR ( 'NONE', #146, 39.37007874015748143 ) ;
#71 = EDGE_LOOP ( 'NONE', ( #291, #25, #217, #66 ) ) ;
#72 = DIRECTION ( 'NONE',  ( -1.000000000000000000, 0.0000000000000000000, 0.0000000000000000000 ) ) ;
#73 = CARTESIAN_POINT ( 'NONE',  ( 0.0000000000000000000, 0.0000000000000000000, 0.0000000000000000000 ) ) ;
#74 = LINE ( 'NONE', #242, #115 ) ;
#75 =( CONVERSION_BASED_UNIT ( 'INCH', #216 ) LENGTH_UNIT ( ) NAMED_UNIT ( #253 ) );
#76 = CARTESIAN_POINT ( 'NONE',  ( -0.1875000000000000278, 0.0000000000000000000, 3.000000000000000444 ) ) ;
#77 = VECTOR ( 'NONE', #246, 39.37007874015748143 ) ;
#78 = EDGE_CURVE ( 'NONE', #116, #21, #74, .T. ) ;
#79 = DIRECTION ( 'NONE',  ( -1.000000000000000000, 0.0000000000000000000, 0.0000000000000000000 ) ) ;
#80 = FACE_OUTER_BOUND ( 'NONE', #133, .T. ) ;
#81 = FACE_OUTER_BOUND ( 'NONE', #71, .T. ) ;
#82 = ORIENTED_EDGE ( 'NONE', *, *, #78, .F. ) ;
#83 = CARTESIAN_POINT ( 'NONE',  ( 0.0000000000000000000, 0.0000000000000000000, 3.000000000000000444 ) ) ;
#84 =( NAMED_UNIT ( * ) SI_UNIT ( $, .STERADIAN. ) SOLID_ANGLE_UNIT ( ) );
#85 = PRESENTATION_LAYER_ASSIGNMENT (  '', '', ( #158 ) ) ;
#86 = DIRECTION ( 'NONE',  ( -1.224646799147353454E-16, -0.0000000000000000000, -1.000000000000000000 ) ) ;
#87 = SURFACE_STYLE_FILL_AREA ( #108 ) ;
#88 = DIRECTION ( 'NONE',  ( -0.0000000000000000000, -0.0000000000000000000, -1.000000000000000000 ) ) ;
#89 = CLOSED_SHELL ( 'NONE', ( #205, #157, #293, #94, #162, #35, #19, #218, #226, #111 ) ) ;
#90 = AXIS2_PLACEMENT_3D ( 'NONE', #288, #147, #107 ) ;
#91 = CONICAL_SURFACE ( 'NONE', #220, 0.1873124999999999929, 0.1745329251994338637 ) ;
#92 = EDGE_CURVE ( 'NONE', #239, #148, #155, .T. ) ;
#93 = ORIENTED_EDGE ( 'NONE', *, *, #132, .F. ) ;
#94 = ADVANCED_FACE ( 'NONE', ( #224 ), #248, .T. ) ;
#95 = AXIS2_PLACEMENT_3D ( 'NONE', #10, #103, #72 ) ;
#96 =( GEOMETRIC_REPRESENTATION_CONTEXT ( 3 ) GLOBAL_UNCERTAINTY_ASSIGNED_CONTEXT ( ( #113 ) ) GLOBAL_UNIT_ASSIGNED_CONTEXT ( ( #75, #58, #37 ) ) REPRESENTATION_CONTEXT ( 'NONE', 'WORKASPACE' ) );
#97 = ORIENTED_EDGE ( 'NONE', *, *, #45, .T. ) ;
#98 = DIRECTION ( 'NONE',  ( 0.7071067811865459074, 8.659560562354913137E-17, -0.7071067811865491270 ) ) ;
#99 = LINE ( 'NONE', #188, #70 ) ;
#100 = CARTESIAN_POINT ( 'NONE',  ( 0.1875000000000000278, 2.296212748401286801E-17, 3.000000000000000444 ) ) ;
#101 = EDGE_LOOP ( 'NONE', ( #285, #208, #235, #48 ) ) ;
#102 = DIRECTION ( 'NONE',  ( -1.224646799147353454E-16, -0.0000000000000000000, -1.000000000000000000 ) ) ;
#103 = DIRECTION ( 'NONE',  ( 0.0000000000000000000, 0.0000000000000000000, -1.000000000000000000 ) ) ;
#104 = AXIS2_PLACEMENT_3D ( 'NONE', #243, #141, #33 ) ;
#105 = DIRECTION ( 'NONE',  ( -1.224646799147353454E-16, -0.0000000000000000000, -1.000000000000000000 ) ) ;
#106 = CARTESIAN_POINT ( 'NONE',  ( 1.532110745895590310E-16, 0.0000000000000000000, 1.251063365341178457 ) ) ;
#107 = DIRECTION ( 'NONE',  ( 1.000000000000000000, 0.0000000000000000000, 0.0000000000000000000 ) ) ;
#108 = FILL_AREA_STYLE ('',( #62 ) ) ;
#109 = SURFACE_STYLE_USAGE ( .BOTH. , #229 ) ;
#110 = CARTESIAN_POINT ( 'NONE',  ( 0.0000000000000000000, 0.0000000000000000000, 3.000000000000000444 ) ) ;
#111 = ADVANCED_FACE ( 'NONE', ( #227 ), #225, .F. ) ;
#112 = EDGE_LOOP ( 'NONE', ( #193, #97, #286, #13 ) ) ;
#113 = UNCERTAINTY_MEASURE_WITH_UNIT (LENGTH_MEASURE( 1.000000000000000082E-05 ), #75, 'distance_accuracy_value', 'NONE');
#114 = MANIFOLD_SOLID_BREP ( 'Cut-Revolve1', #89 ) ;
#115 = VECTOR ( 'NONE', #173, 39.37007874015747433 ) ;
#116 = VERTEX_POINT ( 'NONE', #294 ) ;
#117 = EDGE_LOOP ( 'NONE', ( #160, #93, #68, #20 ) ) ;
#118 = CARTESIAN_POINT ( 'NONE',  ( -0.1873124999999999929, 0.0000000000000000000, 4.587833071305773041E-17 ) ) ;
#119 = LINE ( 'NONE', #76, #250 ) ;
#120 =( LENGTH_UNIT ( ) NAMED_UNIT ( * ) SI_UNIT ( $, .METRE. ) );
#121 = DIRECTION ( 'NONE',  ( -0.7071067811865459074, 0.0000000000000000000, -0.7071067811865491270 ) ) ;
#122 = DIRECTION ( 'NONE',  ( -1.224646799147353454E-16, -0.0000000000000000000, -1.000000000000000000 ) ) ;
#123 = FACE_OUTER_BOUND ( 'NONE', #289, .T. ) ;
#124 = CARTESIAN_POINT ( 'NONE',  ( 0.1873125000000001317, 0.0000000000000000000, 1.250000000000000000 ) ) ;
#125 = CYLINDRICAL_SURFACE ( 'NONE', #247, 0.1873124999999999929 ) ;
#126 = DIRECTION ( 'NONE',  ( 1.000000000000000000, 0.0000000000000000000, 0.0000000000000000000 ) ) ;
#127 = AXIS2_PLACEMENT_3D ( 'NONE', #223, #12, #269 ) ;
#128 = DIRECTION ( 'NONE',  ( 1.000000000000000000, 0.0000000000000000000, 0.0000000000000000000 ) ) ;
#129 = DIRECTION ( 'NONE',  ( -0.0000000000000000000, -0.0000000000000000000, -1.000000000000000000 ) ) ;
#130 = CYLINDRICAL_SURFACE ( 'NONE', #164, 0.1875000000000000278 ) ;
#131 = CIRCLE ( 'NONE', #90, 0.1875000000000000278 ) ;
#132 = EDGE_CURVE ( 'NONE', #148, #239, #287, .T. ) ;
#133 = EDGE_LOOP ( 'NONE', ( #279, #183 ) ) ;
#134 = AXIS2_PLACEMENT_3D ( 'NONE', #106, #195, #260 ) ;
#135 = CIRCLE ( 'NONE', #276, 0.1875000000000000278 ) ;
#136 = EDGE_CURVE ( 'NONE', #116, #59, #54, .T. ) ;
#137 = VERTEX_POINT ( 'NONE', #14 ) ;
#138 = APPLICATION_PROTOCOL_DEFINITION ( 'draft international standard', 'automotive_design', 1998, #69 ) ;
#139 = FACE_OUTER_BOUND ( 'NONE', #221, .T. ) ;
#140 = ORIENTED_EDGE ( 'NONE', *, *, #275, .T. ) ;
#141 = DIRECTION ( 'NONE',  ( -1.224646799147353454E-16, -0.0000000000000000000, -1.000000000000000000 ) ) ;
#142 = CONICAL_SURFACE ( 'NONE', #3, 0.1873124999999999929, 0.1745329251994338637 ) ;
#143 = ORIENTED_EDGE ( 'NONE', *, *, #272, .T. ) ;
#144 =( GEOMETRIC_REPRESENTATION_CONTEXT ( 3 ) GLOBAL_UNCERTAINTY_ASSIGNED_CONTEXT ( ( #252 ) ) GLOBAL_UNIT_ASSIGNED_CONTEXT ( ( #245, #165, #185 ) ) REPRESENTATION_CONTEXT ( 'NONE', 'WORKASPACE' ) );
#145 = CARTESIAN_POINT ( 'NONE',  ( -0.1875000000000000278, 0.0000000000000000000, 2.985000000000001208 ) ) ;
#146 = DIRECTION ( 'NONE',  ( -1.224646799147353454E-16, -0.0000000000000000000, -1.000000000000000000 ) ) ;
#147 = DIRECTION ( 'NONE',  ( 0.0000000000000000000, 0.0000000000000000000, -1.000000000000000000 ) ) ;
#148 = VERTEX_POINT ( 'NONE', #39 ) ;
#149 =( NAMED_UNIT ( * ) PLANE_ANGLE_UNIT ( ) SI_UNIT ( $, .RADIAN. ) );
#150 = AXIS2_PLACEMENT_3D ( 'NONE', #166, #199, #258 ) ;
#151 = EDGE_CURVE ( 'NONE', #116, #281, #295, .T. ) ;
#152 = DIRECTION ( 'NONE',  ( 1.000000000000000000, 0.0000000000000000000, 0.0000000000000000000 ) ) ;
#153 = DIRECTION ( 'NONE',  ( 0.0000000000000000000, 0.0000000000000000000, 1.000000000000000000 ) ) ;
#154 = DIRECTION ( 'NONE',  ( 1.000000000000000000, 0.0000000000000000000, -0.0000000000000000000 ) ) ;
#155 = CIRCLE ( 'NONE', #65, 0.1725000000000009304 ) ;
#156 = ORIENTED_EDGE ( 'NONE', *, *, #151, .T. ) ;
#157 = ADVANCED_FACE ( 'NONE', ( #15 ), #91, .T. ) ;
#158 = STYLED_ITEM ( 'NONE', ( #197 ), #267 ) ;
#159 = APPLICATION_CONTEXT ( 'automotive_design' ) ;
#160 = ORIENTED_EDGE ( 'NONE', *, *, #296, .F. ) ;
#161 = EDGE_LOOP ( 'NONE', ( #140, #233 ) ) ;
#162 = ADVANCED_FACE ( 'NONE', ( #63 ), #130, .T. ) ;
#163 = PRODUCT_DEFINITION_SHAPE ( 'NONE', 'NONE',  #211 ) ;
#164 = AXIS2_PLACEMENT_3D ( 'NONE', #181, #129, #79 ) ;
#165 =( NAMED_UNIT ( * ) PLANE_ANGLE_UNIT ( ) SI_UNIT ( $, .RADIAN. ) );
#166 = CARTESIAN_POINT ( 'NONE',  ( 0.0000000000000000000, 0.0000000000000000000, 3.000000000000000444 ) ) ;
#167 = VERTEX_POINT ( 'NONE', #170 ) ;
#168 = EDGE_CURVE ( 'NONE', #256, #53, #131, .T. ) ;
#169 = DIRECTION ( 'NONE',  ( 0.0000000000000000000, 0.0000000000000000000, 1.000000000000000000 ) ) ;
#170 = CARTESIAN_POINT ( 'NONE',  ( 0.1873124999999999929, 2.293916535652885596E-17, 0.0000000000000000000 ) ) ;
#171 = VECTOR ( 'NONE', #86, 39.37007874015748143 ) ;
#172 = ORIENTED_EDGE ( 'NONE', *, *, #272, .F. ) ;
#173 = DIRECTION ( 'NONE',  ( -0.1736481776669311639, 2.126576849575783008E-17, 0.9848077530122080203 ) ) ;
#174 = DIRECTION ( 'NONE',  ( 0.0000000000000000000, 0.0000000000000000000, -1.000000000000000000 ) ) ;
#175 = CARTESIAN_POINT ( 'NONE',  ( 0.0000000000000000000, 0.0000000000000000000, 3.000000000000000444 ) ) ;
#176 = DIRECTION ( 'NONE',  ( -1.000000000000000000, 0.0000000000000000000, 1.224646799147353454E-16 ) ) ;
#177 = DIRECTION ( 'NONE',  ( -1.000000000000000000, 0.0000000000000000000, 0.0000000000000000000 ) ) ;
#178 = AXIS2_PLACEMENT_3D ( 'NONE', #83, #174, #210 ) ;
#179 = AXIS2_PLACEMENT_3D ( 'NONE', #191, #169, #49 ) ;
#180 = CARTESIAN_POINT ( 'NONE',  ( 1.530808498934191817E-16, 0.0000000000000000000, 1.250000000000000000 ) ) ;
#181 = CARTESIAN_POINT ( 'NONE',  ( 0.0000000000000000000, 0.0000000000000000000, 3.000000000000000444 ) ) ;
#182 = DIRECTION ( 'NONE',  ( 0.0000000000000000000, 0.0000000000000000000, 1.000000000000000000 ) ) ;
#183 = ORIENTED_EDGE ( 'NONE', *, *, #92, .T. ) ;
#184 = PRESENTATION_LAYER_ASSIGNMENT (  '', '', ( #46 ) ) ;
#185 =( NAMED_UNIT ( * ) SI_UNIT ( $, .STERADIAN. ) SOLID_ANGLE_UNIT ( ) );
#186 = PRODUCT_DEFINITION_FORMATION_WITH_SPECIFIED_SOURCE ( 'ANY', '', #207, .NOT_KNOWN. ) ;
#187 = ORIENTED_EDGE ( 'NONE', *, *, #151, .F. ) ;
#188 = CARTESIAN_POINT ( 'NONE',  ( 0.1873124999999999929, 2.293916535652885596E-17, -2.293916535652886521E-17 ) ) ;
#189 = EDGE_CURVE ( 'NONE', #148, #256, #237, .T. ) ;
#190 = PRODUCT_DEFINITION_CONTEXT ( 'detailed design', #159, 'design' ) ;
#191 = CARTESIAN_POINT ( 'NONE',  ( 0.0000000000000000000, 0.0000000000000000000, 0.0000000000000000000 ) ) ;
#192 = LINE ( 'NONE', #5, #278 ) ;
#193 = ORIENTED_EDGE ( 'NONE', *, *, #280, .F. ) ;
#194 = CIRCLE ( 'NONE', #104, 0.1873124999999999929 ) ;
#195 = DIRECTION ( 'NONE',  ( -1.224646799147353454E-16, -0.0000000000000000000, -1.000000000000000000 ) ) ;
#196 = EDGE_CURVE ( 'NONE', #167, #281, #194, .T. ) ;
#197 = PRESENTATION_STYLE_ASSIGNMENT (( #32 ) ) ;
#198 = CARTESIAN_POINT ( 'NONE',  ( 0.1725000000000009304, 2.204364238465241369E-17, 3.000000000000000444 ) ) ;
#199 = DIRECTION ( 'NONE',  ( 0.0000000000000000000, 0.0000000000000000000, 1.000000000000000000 ) ) ;
#200 = CARTESIAN_POINT ( 'NONE',  ( 1.530808498934191817E-16, 0.0000000000000000000, 1.250000000000000000 ) ) ;
#201 = DIRECTION ( 'NONE',  ( 1.000000000000000000, 0.0000000000000000000, 0.0000000000000000000 ) ) ;
#202 =( CONVERSION_BASED_UNIT ( 'INCH', #38 ) LENGTH_UNIT ( ) NAMED_UNIT ( #231 ) );
#203 = MECHANICAL_DESIGN_GEOMETRIC_PRESENTATION_REPRESENTATION (  '', ( #46 ), #262 ) ;
#204 = PRESENTATION_STYLE_ASSIGNMENT (( #109 ) ) ;
#205 = ADVANCED_FACE ( 'NONE', ( #123 ), #125, .T. ) ;
#206 = AXIS2_PLACEMENT_3D ( 'NONE', #30, #105, #290 ) ;
#207 = PRODUCT ( 'Micro_SHL-375-4X', 'Micro_SHL-375-4X', '', ( #4 ) ) ;
#208 = ORIENTED_EDGE ( 'NONE', *, *, #280, .T. ) ;
#209 = COLOUR_RGB ( '',0.7921568627450980005, 0.8196078431372548767, 0.9333333333333333481 ) ;
#210 = DIRECTION ( 'NONE',  ( -1.000000000000000000, 0.0000000000000000000, 0.0000000000000000000 ) ) ;
#211 = PRODUCT_DEFINITION ( 'UNKNOWN', '', #186, #190 ) ;
#212 = DIRECTION ( 'NONE',  ( -0.0000000000000000000, -0.0000000000000000000, -1.000000000000000000 ) ) ;
#213 = SURFACE_SIDE_STYLE ('',( #55 ) ) ;
#214 = CARTESIAN_POINT ( 'NONE',  ( 0.0000000000000000000, 0.0000000000000000000, 0.0000000000000000000 ) ) ;
#215 = CARTESIAN_POINT ( 'NONE',  ( -0.1874999999999998890, 0.0000000000000000000, 1.251063365341178457 ) ) ;
#216 = LENGTH_MEASURE_WITH_UNIT ( LENGTH_MEASURE( 0.02539999999999999897 ), #259 );
#217 = ORIENTED_EDGE ( 'NONE', *, *, #168, .F. ) ;
#218 = ADVANCED_FACE ( 'NONE', ( #139 ), #142, .T. ) ;
#219 = FACE_OUTER_BOUND ( 'NONE', #244, .T. ) ;
#220 = AXIS2_PLACEMENT_3D ( 'NONE', #180, #64, #152 ) ;
#221 = EDGE_LOOP ( 'NONE', ( #82, #57, #143, #264 ) ) ;
#222 = APPLICATION_PROTOCOL_DEFINITION ( 'draft international standard', 'automotive_design', 1998, #159 ) ;
#223 = CARTESIAN_POINT ( 'NONE',  ( 1.530808498934191817E-16, 0.0000000000000000000, 1.250000000000000000 ) ) ;
#224 = FACE_OUTER_BOUND ( 'NONE', #101, .T. ) ;
#225 = PLANE ( 'NONE',  #270 ) ;
#226 = ADVANCED_FACE ( 'NONE', ( #219 ), #56, .T. ) ;
#227 = FACE_OUTER_BOUND ( 'NONE', #161, .T. ) ;
#228 = AXIS2_PLACEMENT_3D ( 'NONE', #175, #88, #274 ) ;
#229 = SURFACE_SIDE_STYLE ('',( #87 ) ) ;
#230 = CIRCLE ( 'NONE', #127, 0.1873124999999999929 ) ;
#231 = DIMENSIONAL_EXPONENTS ( 1.000000000000000000, 0.0000000000000000000, 0.0000000000000000000, 0.0000000000000000000, 0.0000000000000000000, 0.0000000000000000000, 0.0000000000000000000 ) ;
#232 = EDGE_CURVE ( 'NONE', #59, #116, #230, .T. ) ;
#233 = ORIENTED_EDGE ( 'NONE', *, *, #196, .T. ) ;
#234 = AXIS2_PLACEMENT_3D ( 'NONE', #110, #153, #128 ) ;
#235 = ORIENTED_EDGE ( 'NONE', *, *, #23, .F. ) ;
#236 = EDGE_LOOP ( 'NONE', ( #1, #27, #24, #172 ) ) ;
#237 = LINE ( 'NONE', #292, #297 ) ;
#238 = PLANE ( 'NONE',  #150 ) ;
#239 = VERTEX_POINT ( 'NONE', #198 ) ;
#240 = SHAPE_DEFINITION_REPRESENTATION ( #163, #267 ) ;
#241 = LINE ( 'NONE', #284, #18 ) ;
#242 = CARTESIAN_POINT ( 'NONE',  ( -0.1873124999999998541, 2.293916535652885596E-17, 1.250000000000000000 ) ) ;
#243 = CARTESIAN_POINT ( 'NONE',  ( 2.809237542898493243E-33, 0.0000000000000000000, 2.293916535652886521E-17 ) ) ;
#244 = EDGE_LOOP ( 'NONE', ( #34, #22, #156, #255 ) ) ;
#245 =( CONVERSION_BASED_UNIT ( 'INCH', #265 ) LENGTH_UNIT ( ) NAMED_UNIT ( #43 ) );
#246 = DIRECTION ( 'NONE',  ( -0.0000000000000000000, -0.0000000000000000000, -1.000000000000000000 ) ) ;
#247 = AXIS2_PLACEMENT_3D ( 'NONE', #73, #102, #26 ) ;
#248 = CYLINDRICAL_SURFACE ( 'NONE', #228, 0.1875000000000000278 ) ;
#249 = CARTESIAN_POINT ( 'NONE',  ( -0.1873124999999999929, 0.0000000000000000000, 2.293916535652886521E-17 ) ) ;
#250 = VECTOR ( 'NONE', #212, 39.37007874015748143 ) ;
#251 = UNCERTAINTY_MEASURE_WITH_UNIT (LENGTH_MEASURE( 1.000000000000000082E-05 ), #202, 'distance_accuracy_value', 'NONE');
#252 = UNCERTAINTY_MEASURE_WITH_UNIT (LENGTH_MEASURE( 1.000000000000000082E-05 ), #245, 'distance_accuracy_value', 'NONE');
#253 = DIMENSIONAL_EXPONENTS ( 1.000000000000000000, 0.0000000000000000000, 0.0000000000000000000, 0.0000000000000000000, 0.0000000000000000000, 0.0000000000000000000, 0.0000000000000000000 ) ;
#254 = MECHANICAL_DESIGN_GEOMETRIC_PRESENTATION_REPRESENTATION (  '', ( #158 ), #144 ) ;
#255 = ORIENTED_EDGE ( 'NONE', *, *, #196, .F. ) ;
#256 = VERTEX_POINT ( 'NONE', #145 ) ;
#257 = ORIENTED_EDGE ( 'NONE', *, *, #136, .T. ) ;
#258 = DIRECTION ( 'NONE',  ( 1.000000000000000000, 0.0000000000000000000, -0.0000000000000000000 ) ) ;
#259 =( LENGTH_UNIT ( ) NAMED_UNIT ( * ) SI_UNIT ( $, .METRE. ) );
#260 = DIRECTION ( 'NONE',  ( 1.000000000000000000, 0.0000000000000000000, 0.0000000000000000000 ) ) ;
#261 = FILL_AREA_STYLE_COLOUR ( '', #209 ) ;
#262 =( GEOMETRIC_REPRESENTATION_CONTEXT ( 3 ) GLOBAL_UNCERTAINTY_ASSIGNED_CONTEXT ( ( #251 ) ) GLOBAL_UNIT_ASSIGNED_CONTEXT ( ( #202, #149, #84 ) ) REPRESENTATION_CONTEXT ( 'NONE', 'WORKASPACE' ) );
#263 = DIRECTION ( 'NONE',  ( -1.224646799147353454E-16, -0.0000000000000000000, -1.000000000000000000 ) ) ;
#264 = ORIENTED_EDGE ( 'NONE', *, *, #9, .T. ) ;
#265 = LENGTH_MEASURE_WITH_UNIT ( LENGTH_MEASURE( 0.02539999999999999897 ), #120 );
#266 = CARTESIAN_POINT ( 'NONE',  ( 0.0000000000000000000, 0.0000000000000000000, 3.000000000000000444 ) ) ;
#267 = ADVANCED_BREP_SHAPE_REPRESENTATION ( 'Micro_SHL-375-4X', ( #114, #179 ), #96 ) ;
#268 = DIRECTION ( 'NONE',  ( 1.000000000000000000, 0.0000000000000000000, 0.0000000000000000000 ) ) ;
#269 = DIRECTION ( 'NONE',  ( -1.000000000000000000, 0.0000000000000000000, 0.0000000000000000000 ) ) ;
#270 = AXIS2_PLACEMENT_3D ( 'NONE', #61, #271, #154 ) ;
#271 = DIRECTION ( 'NONE',  ( 0.0000000000000000000, 0.0000000000000000000, 1.000000000000000000 ) ) ;
#272 = EDGE_CURVE ( 'NONE', #59, #137, #241, .T. ) ;
#273 = DIRECTION ( 'NONE',  ( -1.224646799147353454E-16, -0.0000000000000000000, -1.000000000000000000 ) ) ;
#274 = DIRECTION ( 'NONE',  ( -1.000000000000000000, 0.0000000000000000000, 0.0000000000000000000 ) ) ;
#275 = EDGE_CURVE ( 'NONE', #281, #167, #299, .T. ) ;
#276 = AXIS2_PLACEMENT_3D ( 'NONE', #31, #8, #50 ) ;
#277 = CARTESIAN_POINT ( 'NONE',  ( 1.530808498934191817E-16, 0.0000000000000000000, 1.250000000000000000 ) ) ;
#278 = VECTOR ( 'NONE', #98, 39.37007874015748143 ) ;
#279 = ORIENTED_EDGE ( 'NONE', *, *, #132, .T. ) ;
#280 = EDGE_CURVE ( 'NONE', #53, #137, #28, .T. ) ;
#281 = VERTEX_POINT ( 'NONE', #118 ) ;
#282 = FILL_AREA_STYLE ('',( #261 ) ) ;
#283 = FACE_OUTER_BOUND ( 'NONE', #117, .T. ) ;
#284 = CARTESIAN_POINT ( 'NONE',  ( 0.1873125000000001317, 0.0000000000000000000, 1.250000000000000000 ) ) ;
#285 = ORIENTED_EDGE ( 'NONE', *, *, #168, .T. ) ;
#286 = ORIENTED_EDGE ( 'NONE', *, *, #51, .T. ) ;
#287 = CIRCLE ( 'NONE', #234, 0.1725000000000009304 ) ;
#288 = CARTESIAN_POINT ( 'NONE',  ( 0.0000000000000000000, 0.0000000000000000000, 2.985000000000001208 ) ) ;
#289 = EDGE_LOOP ( 'NONE', ( #257, #47, #298, #187 ) ) ;
#290 = DIRECTION ( 'NONE',  ( -1.000000000000000000, 0.0000000000000000000, 1.224646799147353454E-16 ) ) ;
#291 = ORIENTED_EDGE ( 'NONE', *, *, #92, .F. ) ;
#292 = CARTESIAN_POINT ( 'NONE',  ( -0.1725000000000009304, 0.0000000000000000000, 3.000000000000000444 ) ) ;
#293 = ADVANCED_FACE ( 'NONE', ( #81 ), #36, .T. ) ;
#294 = CARTESIAN_POINT ( 'NONE',  ( -0.1873124999999998541, 2.295064642027086507E-17, 1.250000000000000000 ) ) ;
#295 = LINE ( 'NONE', #249, #171 ) ;
#296 = EDGE_CURVE ( 'NONE', #239, #53, #192, .T. ) ;
#297 = VECTOR ( 'NONE', #121, 39.37007874015748143 ) ;
#298 = ORIENTED_EDGE ( 'NONE', *, *, #275, .F. ) ;
#299 = CIRCLE ( 'NONE', #206, 0.1873124999999999929 ) ;
ENDSEC;
END-ISO-10303-21;
