ISO-10303-21;
HEADER;
FILE_DESCRIPTION (( 'STEP AP214' ),
    '1' );
FILE_NAME ('59785.STEP',
    '2023-07-24T15:57:53',
    ( '' ),
    ( '' ),
    'SwSTEP 2.0',
    'SolidWorks 2023',
    '' );
FILE_SCHEMA (( 'AUTOMOTIVE_DESIGN' ));
ENDSEC;

DATA;
#1 = SURFACE_SIDE_STYLE ('',( #283 ) ) ;
#2 = DIRECTION ( 'NONE',  ( 1.000000000000000000, 5.878304635907293472E-17, 0.000000000000000000 ) ) ;
#3 =( NAMED_UNIT ( * ) SI_UNIT ( $, .STERADIAN. ) SOLID_ANGLE_UNIT ( ) );
#4 =( NAMED_UNIT ( * ) PLANE_ANGLE_UNIT ( ) SI_UNIT ( $, .RADIAN. ) );
#5 = DIRECTION ( 'NONE',  ( -0.000000000000000000, -1.000000000000000000, -0.000000000000000000 ) ) ;
#6 = AXIS2_PLACEMENT_3D ( 'NONE', #114, #70, #195 ) ;
#7 = CARTESIAN_POINT ( 'NONE',  ( 0.000000000000000000, 50.00000000000000000, 0.000000000000000000 ) ) ;
#8 =( LENGTH_UNIT ( ) NAMED_UNIT ( * ) SI_UNIT ( .MILLI., .METRE. ) );
#9 = CIRCLE ( 'NONE', #284, 10.00000000000000000 ) ;
#10 =( GEOMETRIC_REPRESENTATION_CONTEXT ( 3 ) GLOBAL_UNCERTAINTY_ASSIGNED_CONTEXT ( ( #231 ) ) GLOBAL_UNIT_ASSIGNED_CONTEXT ( ( #275, #4, #204 ) ) REPRESENTATION_CONTEXT ( 'NONE', 'WORKASPACE' ) );
#11 = ORIENTED_EDGE ( 'NONE', *, *, #161, .F. ) ;
#12 = CARTESIAN_POINT ( 'NONE',  ( 1.727723269626458946E-32, 50.00000000000000000, 0.000000000000000000 ) ) ;
#13 = ORIENTED_EDGE ( 'NONE', *, *, #227, .T. ) ;
#14 = CIRCLE ( 'NONE', #206, 10.00000000000000000 ) ;
#15 = VERTEX_POINT ( 'NONE', #89 ) ;
#16 = DIRECTION ( 'NONE',  ( 0.000000000000000000, 0.000000000000000000, -1.000000000000000000 ) ) ;
#17 = EDGE_LOOP ( 'NONE', ( #268, #263 ) ) ;
#18 = DIRECTION ( 'NONE',  ( 0.000000000000000000, 0.000000000000000000, -1.000000000000000000 ) ) ;
#19 = MECHANICAL_DESIGN_GEOMETRIC_PRESENTATION_REPRESENTATION (  '', ( #241 ), #67 ) ;
#20 = ADVANCED_BREP_SHAPE_REPRESENTATION ( '59785', ( #246, #69, #178 ), #10 ) ;
#21 = SURFACE_STYLE_FILL_AREA ( #133 ) ;
#22 = FILL_AREA_STYLE_COLOUR ( '', #154 ) ;
#23 = SURFACE_SIDE_STYLE ('',( #73 ) ) ;
#24 = DIRECTION ( 'NONE',  ( -5.878304635907293472E-17, 1.000000000000000000, -0.000000000000000000 ) ) ;
#25 =( LENGTH_UNIT ( ) NAMED_UNIT ( * ) SI_UNIT ( .MILLI., .METRE. ) );
#26 = PRESENTATION_LAYER_ASSIGNMENT (  '', '', ( #32 ) ) ;
#27 = DIRECTION ( 'NONE',  ( 0.000000000000000000, 1.000000000000000000, 0.000000000000000000 ) ) ;
#28 = CIRCLE ( 'NONE', #228, 10.00000000000000000 ) ;
#29 =( GEOMETRIC_REPRESENTATION_CONTEXT ( 3 ) GLOBAL_UNCERTAINTY_ASSIGNED_CONTEXT ( ( #59 ) ) GLOBAL_UNIT_ASSIGNED_CONTEXT ( ( #25, #120, #3 ) ) REPRESENTATION_CONTEXT ( 'NONE', 'WORKASPACE' ) );
#30 = EDGE_CURVE ( 'NONE', #193, #148, #171, .T. ) ;
#31 = DIRECTION ( 'NONE',  ( -0.000000000000000000, -1.000000000000000000, -0.000000000000000000 ) ) ;
#32 = STYLED_ITEM ( 'NONE', ( #198 ), #246 ) ;
#33 = DIRECTION ( 'NONE',  ( -0.000000000000000000, -1.000000000000000000, -0.000000000000000000 ) ) ;
#34 = APPLICATION_PROTOCOL_DEFINITION ( 'draft international standard', 'automotive_design', 1998, #287 ) ;
#35 = ORIENTED_EDGE ( 'NONE', *, *, #61, .F. ) ;
#36 = DIRECTION ( 'NONE',  ( 0.000000000000000000, 0.000000000000000000, -1.000000000000000000 ) ) ;
#37 = CARTESIAN_POINT ( 'NONE',  ( -4.408728476930469278E-15, 124.9999999999999858, 0.000000000000000000 ) ) ;
#38 = COLOUR_RGB ( '',1.000000000000000000, 0.000000000000000000, 0.000000000000000000 ) ;
#39 = ORIENTED_EDGE ( 'NONE', *, *, #98, .T. ) ;
#40 = ORIENTED_EDGE ( 'NONE', *, *, #125, .F. ) ;
#41 =( LENGTH_UNIT ( ) NAMED_UNIT ( * ) SI_UNIT ( .MILLI., .METRE. ) );
#42 = ADVANCED_FACE ( 'NONE', ( #240 ), #149, .T. ) ;
#43 = FILL_AREA_STYLE_COLOUR ( '', #91 ) ;
#44 = AXIS2_PLACEMENT_3D ( 'NONE', #225, #269, #18 ) ;
#45 = FACE_OUTER_BOUND ( 'NONE', #72, .T. ) ;
#46 = DIRECTION ( 'NONE',  ( -0.000000000000000000, -1.000000000000000000, -0.000000000000000000 ) ) ;
#47 = AXIS2_PLACEMENT_3D ( 'NONE', #119, #224, #184 ) ;
#48 = AXIS2_PLACEMENT_3D ( 'NONE', #105, #31, #36 ) ;
#49 = PRESENTATION_STYLE_ASSIGNMENT (( #139 ) ) ;
#50 = SURFACE_STYLE_FILL_AREA ( #234 ) ;
#51 = DIRECTION ( 'NONE',  ( -1.000000000000000000, 0.000000000000000000, 0.000000000000000000 ) ) ;
#52 = SURFACE_STYLE_FILL_AREA ( #253 ) ;
#53 = ADVANCED_FACE ( 'NONE', ( #132 ), #219, .F. ) ;
#54 = DIRECTION ( 'NONE',  ( -5.878304635907293472E-17, 1.000000000000000000, -0.000000000000000000 ) ) ;
#55 = VECTOR ( 'NONE', #200, 1000.000000000000000 ) ;
#56 = PRODUCT_DEFINITION_FORMATION_WITH_SPECIFIED_SOURCE ( 'ANY', '', #80, .NOT_KNOWN. ) ;
#57 =( NAMED_UNIT ( * ) PLANE_ANGLE_UNIT ( ) SI_UNIT ( $, .RADIAN. ) );
#58 = DIRECTION ( 'NONE',  ( -5.878304635907293472E-17, 1.000000000000000000, -0.000000000000000000 ) ) ;
#59 = UNCERTAINTY_MEASURE_WITH_UNIT (LENGTH_MEASURE( 1.000000000000000082E-05 ), #25, 'distance_accuracy_value', 'NONE');
#60 = LINE ( 'NONE', #236, #158 ) ;
#61 = EDGE_CURVE ( 'NONE', #216, #15, #9, .T. ) ;
#62 = UNCERTAINTY_MEASURE_WITH_UNIT (LENGTH_MEASURE( 1.000000000000000082E-05 ), #187, 'distance_accuracy_value', 'NONE');
#63 = MECHANICAL_DESIGN_GEOMETRIC_PRESENTATION_REPRESENTATION (  '', ( #92 ), #146 ) ;
#64 = DIRECTION ( 'NONE',  ( -1.000000000000000000, 0.000000000000000000, 0.000000000000000000 ) ) ;
#65 = ADVANCED_FACE ( 'NONE', ( #104 ), #121, .T. ) ;
#66 = MECHANICAL_DESIGN_GEOMETRIC_PRESENTATION_REPRESENTATION (  '', ( #260 ), #248 ) ;
#67 =( GEOMETRIC_REPRESENTATION_CONTEXT ( 3 ) GLOBAL_UNCERTAINTY_ASSIGNED_CONTEXT ( ( #94 ) ) GLOBAL_UNIT_ASSIGNED_CONTEXT ( ( #251, #136, #247 ) ) REPRESENTATION_CONTEXT ( 'NONE', 'WORKASPACE' ) );
#68 = ORIENTED_EDGE ( 'NONE', *, *, #117, .F. ) ;
#69 = MANIFOLD_SOLID_BREP ( 'Revolve - Tool Body (Straight Shanked)', #218 ) ;
#70 = DIRECTION ( 'NONE',  ( 0.000000000000000000, -1.000000000000000000, -0.000000000000000000 ) ) ;
#71 = PRODUCT_DEFINITION ( 'UNKNOWN', '', #56, #237 ) ;
#72 = EDGE_LOOP ( 'NONE', ( #13, #169, #211, #285 ) ) ;
#73 = SURFACE_STYLE_FILL_AREA ( #223 ) ;
#74 = PRESENTATION_LAYER_ASSIGNMENT (  '', '', ( #188 ) ) ;
#75 = PRESENTATION_STYLE_ASSIGNMENT (( #99 ) ) ;
#76 = CYLINDRICAL_SURFACE ( 'NONE', #48, 10.00000000000000000 ) ;
#77 = CYLINDRICAL_SURFACE ( 'NONE', #44, 10.00000000000000000 ) ;
#78 = FACE_OUTER_BOUND ( 'NONE', #173, .T. ) ;
#79 = PRODUCT_DEFINITION_SHAPE ( 'NONE', 'NONE',  #71 ) ;
#80 = PRODUCT ( '59785', '59785', '', ( #238 ) ) ;
#81 = CARTESIAN_POINT ( 'NONE',  ( 0.000000000000000000, 0.000000000000000000, 0.000000000000000000 ) ) ;
#82 = CARTESIAN_POINT ( 'NONE',  ( 9.999999999999996447, 124.9999999999999858, 1.224646799147353454E-15 ) ) ;
#83 = EDGE_CURVE ( 'NONE', #112, #113, #157, .T. ) ;
#84 =( NAMED_UNIT ( * ) SI_UNIT ( $, .STERADIAN. ) SOLID_ANGLE_UNIT ( ) );
#85 = UNCERTAINTY_MEASURE_WITH_UNIT (LENGTH_MEASURE( 1.000000000000000082E-05 ), #41, 'distance_accuracy_value', 'NONE');
#86 = AXIS2_PLACEMENT_3D ( 'NONE', #163, #259, #256 ) ;
#87 = ORIENTED_EDGE ( 'NONE', *, *, #88, .F. ) ;
#88 = EDGE_CURVE ( 'NONE', #112, #192, #202, .T. ) ;
#89 = CARTESIAN_POINT ( 'NONE',  ( -10.00000000000000000, 50.00000000000000000, 0.000000000000000000 ) ) ;
#90 = ORIENTED_EDGE ( 'NONE', *, *, #252, .F. ) ;
#91 = COLOUR_RGB ( '',1.000000000000000000, 0.000000000000000000, 0.000000000000000000 ) ;
#92 = STYLED_ITEM ( 'NONE', ( #217 ), #215 ) ;
#93 = ORIENTED_EDGE ( 'NONE', *, *, #159, .T. ) ;
#94 = UNCERTAINTY_MEASURE_WITH_UNIT (LENGTH_MEASURE( 1.000000000000000082E-05 ), #251, 'distance_accuracy_value', 'NONE');
#95 =( NAMED_UNIT ( * ) SI_UNIT ( $, .STERADIAN. ) SOLID_ANGLE_UNIT ( ) );
#96 = CLOSED_SHELL ( 'NONE', ( #215, #267, #101, #42 ) ) ;
#97 = FILL_AREA_STYLE ('',( #138 ) ) ;
#98 = EDGE_CURVE ( 'NONE', #282, #192, #28, .T. ) ;
#99 = SURFACE_STYLE_USAGE ( .BOTH. , #230 ) ;
#100 = FACE_OUTER_BOUND ( 'NONE', #170, .T. ) ;
#101 = ADVANCED_FACE ( 'NONE', ( #102 ), #76, .T. ) ;
#102 = FACE_OUTER_BOUND ( 'NONE', #116, .T. ) ;
#103 = DIRECTION ( 'NONE',  ( -1.000000000000000000, 0.000000000000000000, 0.000000000000000000 ) ) ;
#104 = FACE_OUTER_BOUND ( 'NONE', #213, .T. ) ;
#105 = CARTESIAN_POINT ( 'NONE',  ( 0.000000000000000000, 0.000000000000000000, 0.000000000000000000 ) ) ;
#106 = COLOUR_RGB ( '',1.000000000000000000, 0.000000000000000000, 0.000000000000000000 ) ;
#107 = CIRCLE ( 'NONE', #186, 10.00000000000000000 ) ;
#108 = LINE ( 'NONE', #82, #278 ) ;
#109 = ORIENTED_EDGE ( 'NONE', *, *, #83, .F. ) ;
#110 = MECHANICAL_DESIGN_GEOMETRIC_PRESENTATION_REPRESENTATION (  '', ( #188 ), #261 ) ;
#111 = PRESENTATION_LAYER_ASSIGNMENT (  '', '', ( #115 ) ) ;
#112 = VERTEX_POINT ( 'NONE', #126 ) ;
#113 = VERTEX_POINT ( 'NONE', #142 ) ;
#114 = CARTESIAN_POINT ( 'NONE',  ( 0.000000000000000000, 0.000000000000000000, 0.000000000000000000 ) ) ;
#115 = STYLED_ITEM ( 'NONE', ( #255 ), #267 ) ;
#116 = EDGE_LOOP ( 'NONE', ( #87, #150, #93, #40 ) ) ;
#117 = EDGE_CURVE ( 'NONE', #15, #148, #262, .T. ) ;
#118 = SURFACE_STYLE_USAGE ( .BOTH. , #23 ) ;
#119 = CARTESIAN_POINT ( 'NONE',  ( -4.408728476930469278E-15, 124.9999999999999858, 0.000000000000000000 ) ) ;
#120 =( NAMED_UNIT ( * ) PLANE_ANGLE_UNIT ( ) SI_UNIT ( $, .RADIAN. ) );
#121 = CYLINDRICAL_SURFACE ( 'NONE', #47, 10.00000000000000178 ) ;
#122 = CARTESIAN_POINT ( 'NONE',  ( 0.000000000000000000, 50.00000000000000000, 0.000000000000000000 ) ) ;
#123 = AXIS2_PLACEMENT_3D ( 'NONE', #122, #46, #160 ) ;
#124 = SURFACE_SIDE_STYLE ('',( #50 ) ) ;
#125 = EDGE_CURVE ( 'NONE', #192, #282, #141, .T. ) ;
#126 = CARTESIAN_POINT ( 'NONE',  ( 1.224646799147353256E-15, 50.00000000000000000, 10.00000000000000000 ) ) ;
#127 = ORIENTED_EDGE ( 'NONE', *, *, #161, .T. ) ;
#128 = PRODUCT_RELATED_PRODUCT_CATEGORY ( 'part', '', ( #80 ) ) ;
#129 = CARTESIAN_POINT ( 'NONE',  ( -10.00000000000000711, 124.9999999999999858, 0.000000000000000000 ) ) ;
#130 = ORIENTED_EDGE ( 'NONE', *, *, #30, .F. ) ;
#131 = CARTESIAN_POINT ( 'NONE',  ( 1.224646799147353256E-15, 0.000000000000000000, 10.00000000000000000 ) ) ;
#132 = FACE_OUTER_BOUND ( 'NONE', #17, .T. ) ;
#133 = FILL_AREA_STYLE ('',( #43 ) ) ;
#134 = DIRECTION ( 'NONE',  ( -0.000000000000000000, -1.000000000000000000, -0.000000000000000000 ) ) ;
#135 = FILL_AREA_STYLE ('',( #286 ) ) ;
#136 =( NAMED_UNIT ( * ) PLANE_ANGLE_UNIT ( ) SI_UNIT ( $, .RADIAN. ) );
#137 = AXIS2_PLACEMENT_3D ( 'NONE', #181, #27, #165 ) ;
#138 = FILL_AREA_STYLE_COLOUR ( '', #145 ) ;
#139 = SURFACE_STYLE_USAGE ( .BOTH. , #155 ) ;
#140 = DIRECTION ( 'NONE',  ( 0.000000000000000000, 0.000000000000000000, -1.000000000000000000 ) ) ;
#141 = CIRCLE ( 'NONE', #86, 10.00000000000000000 ) ;
#142 = CARTESIAN_POINT ( 'NONE',  ( 0.000000000000000000, 50.00000000000000000, -10.00000000000000000 ) ) ;
#143 = DIRECTION ( 'NONE',  ( -5.878304635907293472E-17, 1.000000000000000000, -0.000000000000000000 ) ) ;
#144 = CARTESIAN_POINT ( 'NONE',  ( -10.00000000000001066, 124.9999999999999858, 0.000000000000000000 ) ) ;
#145 = COLOUR_RGB ( '',0.7921568627450980005, 0.8196078431372548767, 0.9333333333333333481 ) ;
#146 =( GEOMETRIC_REPRESENTATION_CONTEXT ( 3 ) GLOBAL_UNCERTAINTY_ASSIGNED_CONTEXT ( ( #209 ) ) GLOBAL_UNIT_ASSIGNED_CONTEXT ( ( #153, #271, #95 ) ) REPRESENTATION_CONTEXT ( 'NONE', 'WORKASPACE' ) );
#147 = FACE_OUTER_BOUND ( 'NONE', #264, .T. ) ;
#148 = VERTEX_POINT ( 'NONE', #144 ) ;
#149 = PLANE ( 'NONE',  #6 ) ;
#150 = ORIENTED_EDGE ( 'NONE', *, *, #83, .T. ) ;
#151 = CARTESIAN_POINT ( 'NONE',  ( 10.00000000000000000, 124.9999999999999858, 1.224646799147353651E-15 ) ) ;
#152 = SURFACE_STYLE_USAGE ( .BOTH. , #221 ) ;
#153 =( LENGTH_UNIT ( ) NAMED_UNIT ( * ) SI_UNIT ( .MILLI., .METRE. ) );
#154 = COLOUR_RGB ( '',0.7921568627450980005, 0.8196078431372548767, 0.9333333333333333481 ) ;
#155 = SURFACE_SIDE_STYLE ('',( #274 ) ) ;
#156 = DIRECTION ( 'NONE',  ( -1.000000000000000000, -5.878304635907293472E-17, 0.000000000000000000 ) ) ;
#157 = CIRCLE ( 'NONE', #123, 10.00000000000000000 ) ;
#158 = VECTOR ( 'NONE', #33, 1000.000000000000000 ) ;
#159 = EDGE_CURVE ( 'NONE', #113, #282, #60, .T. ) ;
#160 = DIRECTION ( 'NONE',  ( 0.000000000000000000, 0.000000000000000000, -1.000000000000000000 ) ) ;
#161 = EDGE_CURVE ( 'NONE', #216, #193, #108, .T. ) ;
#162 = AXIS2_PLACEMENT_3D ( 'NONE', #12, #197, #156 ) ;
#163 = CARTESIAN_POINT ( 'NONE',  ( 0.000000000000000000, 0.000000000000000000, 0.000000000000000000 ) ) ;
#164 = UNCERTAINTY_MEASURE_WITH_UNIT (LENGTH_MEASURE( 1.000000000000000082E-05 ), #8, 'distance_accuracy_value', 'NONE');
#165 = DIRECTION ( 'NONE',  ( 0.000000000000000000, -0.000000000000000000, 1.000000000000000000 ) ) ;
#166 = CARTESIAN_POINT ( 'NONE',  ( 0.000000000000000000, 50.00000000000000000, 0.000000000000000000 ) ) ;
#167 = AXIS2_PLACEMENT_3D ( 'NONE', #175, #272, #2 ) ;
#168 = ORIENTED_EDGE ( 'NONE', *, *, #176, .F. ) ;
#169 = ORIENTED_EDGE ( 'NONE', *, *, #88, .T. ) ;
#170 = EDGE_LOOP ( 'NONE', ( #196, #109 ) ) ;
#171 = CIRCLE ( 'NONE', #244, 10.00000000000000533 ) ;
#172 = MECHANICAL_DESIGN_GEOMETRIC_PRESENTATION_REPRESENTATION (  '', ( #32 ), #29 ) ;
#173 = EDGE_LOOP ( 'NONE', ( #11, #208, #281, #130 ) ) ;
#174 = EDGE_LOOP ( 'NONE', ( #39, #239 ) ) ;
#175 = CARTESIAN_POINT ( 'NONE',  ( 10.00000000000000000, 124.9999999999999858, 0.000000000000000000 ) ) ;
#176 = EDGE_CURVE ( 'NONE', #15, #216, #14, .T. ) ;
#177 = SURFACE_STYLE_USAGE ( .BOTH. , #1 ) ;
#178 = AXIS2_PLACEMENT_3D ( 'NONE', #81, #257, #207 ) ;
#179 = CARTESIAN_POINT ( 'NONE',  ( 10.00000000000000000, 50.00000000000000000, 1.224646799147353651E-15 ) ) ;
#180 = PLANE ( 'NONE',  #137 ) ;
#181 = CARTESIAN_POINT ( 'NONE',  ( 0.000000000000000000, 50.00000000000000000, 0.000000000000000000 ) ) ;
#182 = FILL_AREA_STYLE_COLOUR ( '', #106 ) ;
#183 = CYLINDRICAL_SURFACE ( 'NONE', #220, 10.00000000000000178 ) ;
#184 = DIRECTION ( 'NONE',  ( -1.000000000000000000, 0.000000000000000000, 0.000000000000000000 ) ) ;
#185 =( NAMED_UNIT ( * ) SI_UNIT ( $, .STERADIAN. ) SOLID_ANGLE_UNIT ( ) );
#186 = AXIS2_PLACEMENT_3D ( 'NONE', #266, #134, #16 ) ;
#187 =( LENGTH_UNIT ( ) NAMED_UNIT ( * ) SI_UNIT ( .MILLI., .METRE. ) );
#188 = STYLED_ITEM ( 'NONE', ( #75 ), #101 ) ;
#189 = CIRCLE ( 'NONE', #265, 10.00000000000000533 ) ;
#190 = DIRECTION ( 'NONE',  ( -5.878304635907293472E-17, 1.000000000000000000, -0.000000000000000000 ) ) ;
#191 = ADVANCED_FACE ( 'NONE', ( #147 ), #205, .F. ) ;
#192 = VERTEX_POINT ( 'NONE', #131 ) ;
#193 = VERTEX_POINT ( 'NONE', #151 ) ;
#194 = PRESENTATION_LAYER_ASSIGNMENT (  '', '', ( #260 ) ) ;
#195 = DIRECTION ( 'NONE',  ( 0.000000000000000000, 0.000000000000000000, -1.000000000000000000 ) ) ;
#196 = ORIENTED_EDGE ( 'NONE', *, *, #227, .F. ) ;
#197 = DIRECTION ( 'NONE',  ( -5.878304635907293472E-17, 1.000000000000000000, 0.000000000000000000 ) ) ;
#198 = PRESENTATION_STYLE_ASSIGNMENT (( #118 ) ) ;
#199 = COLOUR_RGB ( '',1.000000000000000000, 0.000000000000000000, 0.000000000000000000 ) ;
#200 = DIRECTION ( 'NONE',  ( -0.000000000000000000, -1.000000000000000000, -0.000000000000000000 ) ) ;
#201 = DIRECTION ( 'NONE',  ( -1.000000000000000000, 0.000000000000000000, 0.000000000000000000 ) ) ;
#202 = LINE ( 'NONE', #226, #55 ) ;
#203 = FILL_AREA_STYLE_COLOUR ( '', #199 ) ;
#204 =( NAMED_UNIT ( * ) SI_UNIT ( $, .STERADIAN. ) SOLID_ANGLE_UNIT ( ) );
#205 = PLANE ( 'NONE',  #162 ) ;
#206 = AXIS2_PLACEMENT_3D ( 'NONE', #166, #143, #235 ) ;
#207 = DIRECTION ( 'NONE',  ( 1.000000000000000000, 0.000000000000000000, 0.000000000000000000 ) ) ;
#208 = ORIENTED_EDGE ( 'NONE', *, *, #61, .T. ) ;
#209 = UNCERTAINTY_MEASURE_WITH_UNIT (LENGTH_MEASURE( 1.000000000000000082E-05 ), #153, 'distance_accuracy_value', 'NONE');
#210 = SHAPE_DEFINITION_REPRESENTATION ( #79, #20 ) ;
#211 = ORIENTED_EDGE ( 'NONE', *, *, #98, .F. ) ;
#212 = ORIENTED_EDGE ( 'NONE', *, *, #176, .T. ) ;
#213 = EDGE_LOOP ( 'NONE', ( #212, #127, #90, #68 ) ) ;
#214 =( NAMED_UNIT ( * ) PLANE_ANGLE_UNIT ( ) SI_UNIT ( $, .RADIAN. ) );
#215 = ADVANCED_FACE ( 'NONE', ( #45 ), #77, .T. ) ;
#216 = VERTEX_POINT ( 'NONE', #179 ) ;
#217 = PRESENTATION_STYLE_ASSIGNMENT (( #177 ) ) ;
#218 = CLOSED_SHELL ( 'NONE', ( #65, #191, #258, #53 ) ) ;
#219 = PLANE ( 'NONE',  #167 ) ;
#220 = AXIS2_PLACEMENT_3D ( 'NONE', #229, #254, #51 ) ;
#221 = SURFACE_SIDE_STYLE ('',( #21 ) ) ;
#222 = CARTESIAN_POINT ( 'NONE',  ( -4.408728476930469278E-15, 124.9999999999999858, 0.000000000000000000 ) ) ;
#223 = FILL_AREA_STYLE ('',( #22 ) ) ;
#224 = DIRECTION ( 'NONE',  ( -5.878304635907293472E-17, 1.000000000000000000, -0.000000000000000000 ) ) ;
#225 = CARTESIAN_POINT ( 'NONE',  ( 0.000000000000000000, 0.000000000000000000, 0.000000000000000000 ) ) ;
#226 = CARTESIAN_POINT ( 'NONE',  ( 1.224646799147353256E-15, 0.000000000000000000, 10.00000000000000000 ) ) ;
#227 = EDGE_CURVE ( 'NONE', #113, #112, #107, .T. ) ;
#228 = AXIS2_PLACEMENT_3D ( 'NONE', #270, #5, #140 ) ;
#229 = CARTESIAN_POINT ( 'NONE',  ( -4.408728476930469278E-15, 124.9999999999999858, 0.000000000000000000 ) ) ;
#230 = SURFACE_SIDE_STYLE ('',( #52 ) ) ;
#231 = UNCERTAINTY_MEASURE_WITH_UNIT (LENGTH_MEASURE( 1.000000000000000082E-05 ), #275, 'distance_accuracy_value', 'NONE');
#232 = APPLICATION_PROTOCOL_DEFINITION ( 'draft international standard', 'automotive_design', 1998, #280 ) ;
#233 =( GEOMETRIC_REPRESENTATION_CONTEXT ( 3 ) GLOBAL_UNCERTAINTY_ASSIGNED_CONTEXT ( ( #164 ) ) GLOBAL_UNIT_ASSIGNED_CONTEXT ( ( #8, #57, #185 ) ) REPRESENTATION_CONTEXT ( 'NONE', 'WORKASPACE' ) );
#234 = FILL_AREA_STYLE ('',( #203 ) ) ;
#235 = DIRECTION ( 'NONE',  ( -1.000000000000000000, 0.000000000000000000, 0.000000000000000000 ) ) ;
#236 = CARTESIAN_POINT ( 'NONE',  ( 0.000000000000000000, 0.000000000000000000, -10.00000000000000000 ) ) ;
#237 = PRODUCT_DEFINITION_CONTEXT ( 'detailed design', #287, 'design' ) ;
#238 = PRODUCT_CONTEXT ( 'NONE', #280, 'mechanical' ) ;
#239 = ORIENTED_EDGE ( 'NONE', *, *, #125, .T. ) ;
#240 = FACE_OUTER_BOUND ( 'NONE', #174, .T. ) ;
#241 = STYLED_ITEM ( 'NONE', ( #49 ), #69 ) ;
#242 = MECHANICAL_DESIGN_GEOMETRIC_PRESENTATION_REPRESENTATION (  '', ( #115 ), #233 ) ;
#243 = PRESENTATION_STYLE_ASSIGNMENT (( #152 ) ) ;
#244 = AXIS2_PLACEMENT_3D ( 'NONE', #37, #190, #64 ) ;
#245 = VECTOR ( 'NONE', #54, 1000.000000000000000 ) ;
#246 = MANIFOLD_SOLID_BREP ( 'Revolve - Cutting Edge', #96 ) ;
#247 =( NAMED_UNIT ( * ) SI_UNIT ( $, .STERADIAN. ) SOLID_ANGLE_UNIT ( ) );
#248 =( GEOMETRIC_REPRESENTATION_CONTEXT ( 3 ) GLOBAL_UNCERTAINTY_ASSIGNED_CONTEXT ( ( #85 ) ) GLOBAL_UNIT_ASSIGNED_CONTEXT ( ( #41, #214, #288 ) ) REPRESENTATION_CONTEXT ( 'NONE', 'WORKASPACE' ) );
#249 = PRESENTATION_LAYER_ASSIGNMENT (  '', '', ( #92 ) ) ;
#250 = CARTESIAN_POINT ( 'NONE',  ( 0.000000000000000000, 0.000000000000000000, -10.00000000000000000 ) ) ;
#251 =( LENGTH_UNIT ( ) NAMED_UNIT ( * ) SI_UNIT ( .MILLI., .METRE. ) );
#252 = EDGE_CURVE ( 'NONE', #148, #193, #189, .T. ) ;
#253 = FILL_AREA_STYLE ('',( #182 ) ) ;
#254 = DIRECTION ( 'NONE',  ( -5.878304635907293472E-17, 1.000000000000000000, -0.000000000000000000 ) ) ;
#255 = PRESENTATION_STYLE_ASSIGNMENT (( #276 ) ) ;
#256 = DIRECTION ( 'NONE',  ( 0.000000000000000000, 0.000000000000000000, -1.000000000000000000 ) ) ;
#257 = DIRECTION ( 'NONE',  ( 0.000000000000000000, 0.000000000000000000, 1.000000000000000000 ) ) ;
#258 = ADVANCED_FACE ( 'NONE', ( #78 ), #183, .T. ) ;
#259 = DIRECTION ( 'NONE',  ( -0.000000000000000000, -1.000000000000000000, -0.000000000000000000 ) ) ;
#260 = STYLED_ITEM ( 'NONE', ( #243 ), #42 ) ;
#261 =( GEOMETRIC_REPRESENTATION_CONTEXT ( 3 ) GLOBAL_UNCERTAINTY_ASSIGNED_CONTEXT ( ( #62 ) ) GLOBAL_UNIT_ASSIGNED_CONTEXT ( ( #187, #279, #84 ) ) REPRESENTATION_CONTEXT ( 'NONE', 'WORKASPACE' ) );
#262 = LINE ( 'NONE', #129, #245 ) ;
#263 = ORIENTED_EDGE ( 'NONE', *, *, #30, .T. ) ;
#264 = EDGE_LOOP ( 'NONE', ( #168, #35 ) ) ;
#265 = AXIS2_PLACEMENT_3D ( 'NONE', #222, #273, #103 ) ;
#266 = CARTESIAN_POINT ( 'NONE',  ( 0.000000000000000000, 50.00000000000000000, 0.000000000000000000 ) ) ;
#267 = ADVANCED_FACE ( 'NONE', ( #100 ), #180, .T. ) ;
#268 = ORIENTED_EDGE ( 'NONE', *, *, #252, .T. ) ;
#269 = DIRECTION ( 'NONE',  ( -0.000000000000000000, -1.000000000000000000, -0.000000000000000000 ) ) ;
#270 = CARTESIAN_POINT ( 'NONE',  ( 0.000000000000000000, 0.000000000000000000, 0.000000000000000000 ) ) ;
#271 =( NAMED_UNIT ( * ) PLANE_ANGLE_UNIT ( ) SI_UNIT ( $, .RADIAN. ) );
#272 = DIRECTION ( 'NONE',  ( 5.878304635907293472E-17, -1.000000000000000000, 0.000000000000000000 ) ) ;
#273 = DIRECTION ( 'NONE',  ( -5.878304635907293472E-17, 1.000000000000000000, -0.000000000000000000 ) ) ;
#274 = SURFACE_STYLE_FILL_AREA ( #97 ) ;
#275 =( LENGTH_UNIT ( ) NAMED_UNIT ( * ) SI_UNIT ( .MILLI., .METRE. ) );
#276 = SURFACE_STYLE_USAGE ( .BOTH. , #124 ) ;
#277 = PRESENTATION_LAYER_ASSIGNMENT (  '', '', ( #241 ) ) ;
#278 = VECTOR ( 'NONE', #58, 1000.000000000000000 ) ;
#279 =( NAMED_UNIT ( * ) PLANE_ANGLE_UNIT ( ) SI_UNIT ( $, .RADIAN. ) );
#280 = APPLICATION_CONTEXT ( 'automotive_design' ) ;
#281 = ORIENTED_EDGE ( 'NONE', *, *, #117, .T. ) ;
#282 = VERTEX_POINT ( 'NONE', #250 ) ;
#283 = SURFACE_STYLE_FILL_AREA ( #135 ) ;
#284 = AXIS2_PLACEMENT_3D ( 'NONE', #7, #24, #201 ) ;
#285 = ORIENTED_EDGE ( 'NONE', *, *, #159, .F. ) ;
#286 = FILL_AREA_STYLE_COLOUR ( '', #38 ) ;
#287 = APPLICATION_CONTEXT ( 'automotive_design' ) ;
#288 =( NAMED_UNIT ( * ) SI_UNIT ( $, .STERADIAN. ) SOLID_ANGLE_UNIT ( ) );
ENDSEC;
END-ISO-10303-21;
