ISO-10303-21;
HEADER;
FILE_DESCRIPTION (( 'STEP AP214' ),
    '1' );
FILE_NAME ('59660.STEP',
    '2023-07-24T15:20:45',
    ( '' ),
    ( '' ),
    'SwSTEP 2.0',
    'SolidWorks 2023',
    '' );
FILE_SCHEMA (( 'AUTOMOTIVE_DESIGN' ));
ENDSEC;

DATA;
#1 = COLOUR_RGB ( '',1.000000000000000000, 0.000000000000000000, 0.000000000000000000 ) ;
#2 = AXIS2_PLACEMENT_3D ( 'NONE', #332, #358, #212 ) ;
#3 = ORIENTED_EDGE ( 'NONE', *, *, #239, .F. ) ;
#4 = DIRECTION ( 'NONE',  ( -1.223542297630008506E-16, 1.000000000000000000, -0.000000000000000000 ) ) ;
#5 = FACE_OUTER_BOUND ( 'NONE', #314, .T. ) ;
#6 = ORIENTED_EDGE ( 'NONE', *, *, #239, .T. ) ;
#7 = CARTESIAN_POINT ( 'NONE',  ( 7.347880794884119736E-16, 0.5000000000000000000, 6.000000000000000000 ) ) ;
#8 = UNCERTAINTY_MEASURE_WITH_UNIT (LENGTH_MEASURE( 1.000000000000000082E-05 ), #214, 'distance_accuracy_value', 'NONE');
#9 = AXIS2_PLACEMENT_3D ( 'NONE', #265, #4, #167 ) ;
#10 = CARTESIAN_POINT ( 'NONE',  ( -1.469576158976823750E-15, 75.00000000000000000, 0.000000000000000000 ) ) ;
#11 = CARTESIAN_POINT ( 'NONE',  ( 7.041719095097280880E-16, 0.000000000000000000, 5.500000000000000000 ) ) ;
#12 = DIRECTION ( 'NONE',  ( -1.223542297630008506E-16, 1.000000000000000000, 0.000000000000000000 ) ) ;
#13 = DIRECTION ( 'NONE',  ( 0.000000000000000000, 0.000000000000000000, -1.000000000000000000 ) ) ;
#14 = FILL_AREA_STYLE_COLOUR ( '', #47 ) ;
#15 = PRESENTATION_LAYER_ASSIGNMENT (  '', '', ( #104 ) ) ;
#16 = AXIS2_PLACEMENT_3D ( 'NONE', #92, #194, #233 ) ;
#17 = CARTESIAN_POINT ( 'NONE',  ( 0.000000000000000000, 0.5000000000000000000, 0.000000000000000000 ) ) ;
#18 = EDGE_CURVE ( 'NONE', #141, #81, #261, .T. ) ;
#19 = DIRECTION ( 'NONE',  ( -0.000000000000000000, -1.000000000000000000, -0.000000000000000000 ) ) ;
#20 = DIRECTION ( 'NONE',  ( 1.000000000000000000, 0.000000000000000000, 0.000000000000000000 ) ) ;
#21 = FILL_AREA_STYLE_COLOUR ( '', #255 ) ;
#22 = TOROIDAL_SURFACE ( 'NONE', #155, 5.500000000000000000, 0.5000000000000002220 ) ;
#23 = STYLED_ITEM ( 'NONE', ( #114 ), #267 ) ;
#24 = DIRECTION ( 'NONE',  ( 0.000000000000000000, 0.000000000000000000, -1.000000000000000000 ) ) ;
#25 = AXIS2_PLACEMENT_3D ( 'NONE', #17, #75, #13 ) ;
#26 = SURFACE_STYLE_USAGE ( .BOTH. , #279 ) ;
#27 =( LENGTH_UNIT ( ) NAMED_UNIT ( * ) SI_UNIT ( .MILLI., .METRE. ) );
#28 = ORIENTED_EDGE ( 'NONE', *, *, #220, .F. ) ;
#29 =( NAMED_UNIT ( * ) PLANE_ANGLE_UNIT ( ) SI_UNIT ( $, .RADIAN. ) );
#30 = DIRECTION ( 'NONE',  ( 0.000000000000000000, 0.000000000000000000, -1.000000000000000000 ) ) ;
#31 = CLOSED_SHELL ( 'NONE', ( #111, #107, #82, #283 ) ) ;
#32 = CIRCLE ( 'NONE', #145, 5.500000000000000000 ) ;
#33 = ORIENTED_EDGE ( 'NONE', *, *, #186, .F. ) ;
#34 = DIRECTION ( 'NONE',  ( 0.000000000000000000, -1.000000000000000000, -0.000000000000000000 ) ) ;
#35 = FILL_AREA_STYLE ('',( #140 ) ) ;
#36 = APPLICATION_CONTEXT ( 'automotive_design' ) ;
#37 = ORIENTED_EDGE ( 'NONE', *, *, #294, .T. ) ;
#38 = SURFACE_STYLE_USAGE ( .BOTH. , #345 ) ;
#39 = CYLINDRICAL_SURFACE ( 'NONE', #195, 5.999999999999998224 ) ;
#40 = DIRECTION ( 'NONE',  ( -1.224646799147353454E-16, 0.000000000000000000, -1.000000000000000000 ) ) ;
#41 = ORIENTED_EDGE ( 'NONE', *, *, #254, .T. ) ;
#42 = DIRECTION ( 'NONE',  ( -1.223542297630008506E-16, 1.000000000000000000, -0.000000000000000000 ) ) ;
#43 = PRESENTATION_LAYER_ASSIGNMENT (  '', '', ( #98 ) ) ;
#44 = CARTESIAN_POINT ( 'NONE',  ( 0.000000000000000000, 0.000000000000000000, -6.000000000000000000 ) ) ;
#45 = DIRECTION ( 'NONE',  ( -1.223542297630008506E-16, 1.000000000000000000, -0.000000000000000000 ) ) ;
#46 = FACE_OUTER_BOUND ( 'NONE', #112, .T. ) ;
#47 = COLOUR_RGB ( '',1.000000000000000000, 0.000000000000000000, 0.000000000000000000 ) ;
#48 = ADVANCED_FACE ( 'NONE', ( #264 ), #22, .T. ) ;
#49 = SURFACE_STYLE_FILL_AREA ( #204 ) ;
#50 = SURFACE_SIDE_STYLE ('',( #158 ) ) ;
#51 = CARTESIAN_POINT ( 'NONE',  ( 0.000000000000000000, 0.000000000000000000, 0.000000000000000000 ) ) ;
#52 =( NAMED_UNIT ( * ) SI_UNIT ( $, .STERADIAN. ) SOLID_ANGLE_UNIT ( ) );
#53 = PRESENTATION_LAYER_ASSIGNMENT (  '', '', ( #202 ) ) ;
#54 = MECHANICAL_DESIGN_GEOMETRIC_PRESENTATION_REPRESENTATION (  '', ( #211 ), #246 ) ;
#55 =( GEOMETRIC_REPRESENTATION_CONTEXT ( 3 ) GLOBAL_UNCERTAINTY_ASSIGNED_CONTEXT ( ( #329 ) ) GLOBAL_UNIT_ASSIGNED_CONTEXT ( ( #150, #289, #293 ) ) REPRESENTATION_CONTEXT ( 'NONE', 'WORKASPACE' ) );
#56 = FILL_AREA_STYLE ('',( #310 ) ) ;
#57 = CARTESIAN_POINT ( 'NONE',  ( 0.000000000000000000, 24.00000000000000000, 0.000000000000000000 ) ) ;
#58 = COLOUR_RGB ( '',1.000000000000000000, 0.000000000000000000, 0.000000000000000000 ) ;
#59 = PLANE ( 'NONE',  #119 ) ;
#60 = ORIENTED_EDGE ( 'NONE', *, *, #227, .F. ) ;
#61 = VERTEX_POINT ( 'NONE', #64 ) ;
#62 = MECHANICAL_DESIGN_GEOMETRIC_PRESENTATION_REPRESENTATION (  '', ( #104 ), #268 ) ;
#63 = FACE_OUTER_BOUND ( 'NONE', #190, .T. ) ;
#64 = CARTESIAN_POINT ( 'NONE',  ( 6.000000000000000000, 75.00000000000000000, 7.347880794884119736E-16 ) ) ;
#65 = ORIENTED_EDGE ( 'NONE', *, *, #207, .T. ) ;
#66 = UNCERTAINTY_MEASURE_WITH_UNIT (LENGTH_MEASURE( 1.000000000000000082E-05 ), #91, 'distance_accuracy_value', 'NONE');
#67 = TOROIDAL_SURFACE ( 'NONE', #275, 5.500000000000000000, 0.5000000000000002220 ) ;
#68 = DIRECTION ( 'NONE',  ( -1.223542297630008506E-16, 1.000000000000000000, -0.000000000000000000 ) ) ;
#69 = FACE_OUTER_BOUND ( 'NONE', #148, .T. ) ;
#70 = APPLICATION_PROTOCOL_DEFINITION ( 'draft international standard', 'automotive_design', 1998, #321 ) ;
#71 = DIRECTION ( 'NONE',  ( 0.000000000000000000, 0.000000000000000000, -1.000000000000000000 ) ) ;
#72 = CARTESIAN_POINT ( 'NONE',  ( 0.000000000000000000, 0.000000000000000000, 0.000000000000000000 ) ) ;
#73 = DIRECTION ( 'NONE',  ( -1.000000000000000000, 0.000000000000000000, 0.000000000000000000 ) ) ;
#74 = VECTOR ( 'NONE', #42, 1000.000000000000000 ) ;
#75 = DIRECTION ( 'NONE',  ( -0.000000000000000000, -1.000000000000000000, -0.000000000000000000 ) ) ;
#76 = UNCERTAINTY_MEASURE_WITH_UNIT (LENGTH_MEASURE( 1.000000000000000082E-05 ), #280, 'distance_accuracy_value', 'NONE');
#77 = FILL_AREA_STYLE ('',( #21 ) ) ;
#78 = CARTESIAN_POINT ( 'NONE',  ( 0.000000000000000000, 0.000000000000000000, 0.000000000000000000 ) ) ;
#79 =( LENGTH_UNIT ( ) NAMED_UNIT ( * ) SI_UNIT ( .MILLI., .METRE. ) );
#80 =( GEOMETRIC_REPRESENTATION_CONTEXT ( 3 ) GLOBAL_UNCERTAINTY_ASSIGNED_CONTEXT ( ( #138 ) ) GLOBAL_UNIT_ASSIGNED_CONTEXT ( ( #27, #85, #135 ) ) REPRESENTATION_CONTEXT ( 'NONE', 'WORKASPACE' ) );
#81 = VERTEX_POINT ( 'NONE', #232 ) ;
#82 = ADVANCED_FACE ( 'NONE', ( #5 ), #39, .T. ) ;
#83 = VERTEX_POINT ( 'NONE', #11 ) ;
#84 = CARTESIAN_POINT ( 'NONE',  ( 0.000000000000000000, 0.000000000000000000, 0.000000000000000000 ) ) ;
#85 =( NAMED_UNIT ( * ) PLANE_ANGLE_UNIT ( ) SI_UNIT ( $, .RADIAN. ) );
#86 = VECTOR ( 'NONE', #197, 1000.000000000000000 ) ;
#87 = MECHANICAL_DESIGN_GEOMETRIC_PRESENTATION_REPRESENTATION (  '', ( #263 ), #55 ) ;
#88 = AXIS2_PLACEMENT_3D ( 'NONE', #262, #347, #320 ) ;
#89 = EDGE_LOOP ( 'NONE', ( #65, #198 ) ) ;
#90 = CARTESIAN_POINT ( 'NONE',  ( 4.770489558936219510E-15, 24.00000000000000000, 0.000000000000000000 ) ) ;
#91 =( LENGTH_UNIT ( ) NAMED_UNIT ( * ) SI_UNIT ( .MILLI., .METRE. ) );
#92 = CARTESIAN_POINT ( 'NONE',  ( 0.000000000000000000, 0.000000000000000000, 0.000000000000000000 ) ) ;
#93 = DIRECTION ( 'NONE',  ( -1.223542297630008506E-16, 1.000000000000000000, -0.000000000000000000 ) ) ;
#94 = EDGE_CURVE ( 'NONE', #336, #83, #330, .T. ) ;
#95 = DIRECTION ( 'NONE',  ( 1.000000000000000000, 0.000000000000000000, -1.224646799147353207E-16 ) ) ;
#96 = CARTESIAN_POINT ( 'NONE',  ( -6.000000000000000000, 75.00000000000000000, 0.000000000000000000 ) ) ;
#97 = FILL_AREA_STYLE_COLOUR ( '', #58 ) ;
#98 = STYLED_ITEM ( 'NONE', ( #129 ), #48 ) ;
#99 = PRODUCT_DEFINITION_FORMATION_WITH_SPECIFIED_SOURCE ( 'ANY', '', #363, .NOT_KNOWN. ) ;
#100 = DIRECTION ( 'NONE',  ( 0.000000000000000000, 0.000000000000000000, -1.000000000000000000 ) ) ;
#101 = CARTESIAN_POINT ( 'NONE',  ( 5.999999999999996447, 75.00000000000000000, 7.347880794884117764E-16 ) ) ;
#102 = SURFACE_STYLE_USAGE ( .BOTH. , #181 ) ;
#103 = CARTESIAN_POINT ( 'NONE',  ( 0.000000000000000000, 24.00000000000000000, -6.000000000000000000 ) ) ;
#104 = STYLED_ITEM ( 'NONE', ( #334 ), #200 ) ;
#105 =( NAMED_UNIT ( * ) PLANE_ANGLE_UNIT ( ) SI_UNIT ( $, .RADIAN. ) );
#106 = SURFACE_STYLE_USAGE ( .BOTH. , #302 ) ;
#107 = ADVANCED_FACE ( 'NONE', ( #266 ), #124, .F. ) ;
#108 = FACE_OUTER_BOUND ( 'NONE', #226, .T. ) ;
#109 = DIRECTION ( 'NONE',  ( 0.000000000000000000, 1.000000000000000000, 0.000000000000000000 ) ) ;
#110 = AXIS2_PLACEMENT_3D ( 'NONE', #328, #274, #73 ) ;
#111 = ADVANCED_FACE ( 'NONE', ( #46 ), #153, .T. ) ;
#112 = EDGE_LOOP ( 'NONE', ( #313, #6, #137, #300 ) ) ;
#113 = EDGE_LOOP ( 'NONE', ( #120, #41, #216, #251 ) ) ;
#114 = PRESENTATION_STYLE_ASSIGNMENT (( #282 ) ) ;
#115 = ORIENTED_EDGE ( 'NONE', *, *, #370, .T. ) ;
#116 = CARTESIAN_POINT ( 'NONE',  ( 6.000000000000000000, 75.00000000000000000, 0.000000000000000000 ) ) ;
#117 = CIRCLE ( 'NONE', #322, 6.000000000000000000 ) ;
#118 = PRESENTATION_LAYER_ASSIGNMENT (  '', '', ( #23 ) ) ;
#119 = AXIS2_PLACEMENT_3D ( 'NONE', #57, #109, #368 ) ;
#120 = ORIENTED_EDGE ( 'NONE', *, *, #127, .F. ) ;
#121 = PRESENTATION_STYLE_ASSIGNMENT (( #38 ) ) ;
#122 = VERTEX_POINT ( 'NONE', #183 ) ;
#123 = SURFACE_STYLE_FILL_AREA ( #229 ) ;
#124 = PLANE ( 'NONE',  #210 ) ;
#125 =( GEOMETRIC_REPRESENTATION_CONTEXT ( 3 ) GLOBAL_UNCERTAINTY_ASSIGNED_CONTEXT ( ( #66 ) ) GLOBAL_UNIT_ASSIGNED_CONTEXT ( ( #91, #172, #235 ) ) REPRESENTATION_CONTEXT ( 'NONE', 'WORKASPACE' ) );
#126 = CIRCLE ( 'NONE', #9, 5.999999999999996447 ) ;
#127 = EDGE_CURVE ( 'NONE', #122, #336, #131, .T. ) ;
#128 = SURFACE_SIDE_STYLE ('',( #341 ) ) ;
#129 = PRESENTATION_STYLE_ASSIGNMENT (( #296 ) ) ;
#130 = DIRECTION ( 'NONE',  ( -1.000000000000000000, 0.000000000000000000, 0.000000000000000000 ) ) ;
#131 = LINE ( 'NONE', #134, #364 ) ;
#132 =( NAMED_UNIT ( * ) PLANE_ANGLE_UNIT ( ) SI_UNIT ( $, .RADIAN. ) );
#133 = LINE ( 'NONE', #101, #237 ) ;
#134 = CARTESIAN_POINT ( 'NONE',  ( 7.347880794884119736E-16, 0.000000000000000000, 6.000000000000000000 ) ) ;
#135 =( NAMED_UNIT ( * ) SI_UNIT ( $, .STERADIAN. ) SOLID_ANGLE_UNIT ( ) );
#136 = SURFACE_SIDE_STYLE ('',( #331 ) ) ;
#137 = ORIENTED_EDGE ( 'NONE', *, *, #207, .F. ) ;
#138 = UNCERTAINTY_MEASURE_WITH_UNIT (LENGTH_MEASURE( 1.000000000000000082E-05 ), #27, 'distance_accuracy_value', 'NONE');
#139 = MECHANICAL_DESIGN_GEOMETRIC_PRESENTATION_REPRESENTATION (  '', ( #98 ), #125 ) ;
#140 = FILL_AREA_STYLE_COLOUR ( '', #351 ) ;
#141 = VERTEX_POINT ( 'NONE', #103 ) ;
#142 = CARTESIAN_POINT ( 'NONE',  ( 0.000000000000000000, 0.000000000000000000, -5.500000000000000000 ) ) ;
#143 = DIRECTION ( 'NONE',  ( 0.000000000000000000, 0.000000000000000000, -1.000000000000000000 ) ) ;
#144 = ORIENTED_EDGE ( 'NONE', *, *, #169, .T. ) ;
#145 = AXIS2_PLACEMENT_3D ( 'NONE', #51, #156, #24 ) ;
#146 = ORIENTED_EDGE ( 'NONE', *, *, #356, .F. ) ;
#147 = ADVANCED_BREP_SHAPE_REPRESENTATION ( '59660', ( #200, #201, #290 ), #225 ) ;
#148 = EDGE_LOOP ( 'NONE', ( #115, #340, #60, #33 ) ) ;
#149 = ORIENTED_EDGE ( 'NONE', *, *, #295, .F. ) ;
#150 =( LENGTH_UNIT ( ) NAMED_UNIT ( * ) SI_UNIT ( .MILLI., .METRE. ) );
#151 = PRESENTATION_LAYER_ASSIGNMENT (  '', '', ( #224 ) ) ;
#152 = UNCERTAINTY_MEASURE_WITH_UNIT (LENGTH_MEASURE( 1.000000000000000082E-05 ), #269, 'distance_accuracy_value', 'NONE');
#153 = CYLINDRICAL_SURFACE ( 'NONE', #253, 5.999999999999998224 ) ;
#154 =( LENGTH_UNIT ( ) NAMED_UNIT ( * ) SI_UNIT ( .MILLI., .METRE. ) );
#155 = AXIS2_PLACEMENT_3D ( 'NONE', #346, #170, #234 ) ;
#156 = DIRECTION ( 'NONE',  ( -0.000000000000000000, -1.000000000000000000, -0.000000000000000000 ) ) ;
#157 = COLOUR_RGB ( '',0.7921568627450980005, 0.8196078431372548767, 0.9333333333333333481 ) ;
#158 = SURFACE_STYLE_FILL_AREA ( #56 ) ;
#159 = ADVANCED_FACE ( 'NONE', ( #69 ), #67, .T. ) ;
#160 = SURFACE_SIDE_STYLE ('',( #164 ) ) ;
#161 = ORIENTED_EDGE ( 'NONE', *, *, #227, .T. ) ;
#162 =( GEOMETRIC_REPRESENTATION_CONTEXT ( 3 ) GLOBAL_UNCERTAINTY_ASSIGNED_CONTEXT ( ( #299 ) ) GLOBAL_UNIT_ASSIGNED_CONTEXT ( ( #243, #132, #238 ) ) REPRESENTATION_CONTEXT ( 'NONE', 'WORKASPACE' ) );
#163 = EDGE_LOOP ( 'NONE', ( #175, #144, #316, #28 ) ) ;
#164 = SURFACE_STYLE_FILL_AREA ( #35 ) ;
#165 = DIRECTION ( 'NONE',  ( -0.000000000000000000, -1.000000000000000000, -0.000000000000000000 ) ) ;
#166 = ORIENTED_EDGE ( 'NONE', *, *, #324, .F. ) ;
#167 = DIRECTION ( 'NONE',  ( -1.000000000000000000, 0.000000000000000000, 0.000000000000000000 ) ) ;
#168 = AXIS2_PLACEMENT_3D ( 'NONE', #84, #34, #143 ) ;
#169 = EDGE_CURVE ( 'NONE', #336, #81, #117, .T. ) ;
#170 = DIRECTION ( 'NONE',  ( -0.000000000000000000, -1.000000000000000000, -0.000000000000000000 ) ) ;
#171 = DIRECTION ( 'NONE',  ( -1.000000000000000000, 0.000000000000000000, 0.000000000000000000 ) ) ;
#172 =( NAMED_UNIT ( * ) PLANE_ANGLE_UNIT ( ) SI_UNIT ( $, .RADIAN. ) );
#173 = MECHANICAL_DESIGN_GEOMETRIC_PRESENTATION_REPRESENTATION (  '', ( #245 ), #162 ) ;
#174 = COLOUR_RGB ( '',1.000000000000000000, 0.000000000000000000, 0.000000000000000000 ) ;
#175 = ORIENTED_EDGE ( 'NONE', *, *, #94, .F. ) ;
#176 = FILL_AREA_STYLE ('',( #14 ) ) ;
#177 = DIRECTION ( 'NONE',  ( -1.223542297630008506E-16, 1.000000000000000000, -0.000000000000000000 ) ) ;
#178 = SURFACE_STYLE_FILL_AREA ( #176 ) ;
#179 = PRODUCT_CONTEXT ( 'NONE', #321, 'mechanical' ) ;
#180 = CIRCLE ( 'NONE', #278, 5.500000000000000000 ) ;
#181 = SURFACE_SIDE_STYLE ('',( #178 ) ) ;
#182 = ADVANCED_FACE ( 'NONE', ( #213 ), #240, .T. ) ;
#183 = CARTESIAN_POINT ( 'NONE',  ( 7.347880794884119736E-16, 24.00000000000000000, 6.000000000000000000 ) ) ;
#184 = DIRECTION ( 'NONE',  ( -0.000000000000000000, -1.000000000000000000, -0.000000000000000000 ) ) ;
#185 = CARTESIAN_POINT ( 'NONE',  ( 0.000000000000000000, 0.5000000000000000000, 0.000000000000000000 ) ) ;
#186 = EDGE_CURVE ( 'NONE', #81, #281, #311, .T. ) ;
#187 = MECHANICAL_DESIGN_GEOMETRIC_PRESENTATION_REPRESENTATION (  '', ( #224 ), #80 ) ;
#188 = DIRECTION ( 'NONE',  ( 0.000000000000000000, 0.000000000000000000, -1.000000000000000000 ) ) ;
#189 = PRODUCT_DEFINITION_SHAPE ( 'NONE', 'NONE',  #308 ) ;
#190 = EDGE_LOOP ( 'NONE', ( #218, #287, #291, #339 ) ) ;
#191 = COLOUR_RGB ( '',1.000000000000000000, 0.000000000000000000, 0.000000000000000000 ) ;
#192 = FILL_AREA_STYLE_COLOUR ( '', #191 ) ;
#193 = CARTESIAN_POINT ( 'NONE',  ( 6.735557395310442023E-16, 0.5000000000000000000, 5.500000000000000000 ) ) ;
#194 = DIRECTION ( 'NONE',  ( -0.000000000000000000, -1.000000000000000000, -0.000000000000000000 ) ) ;
#195 = AXIS2_PLACEMENT_3D ( 'NONE', #259, #68, #171 ) ;
#196 = AXIS2_PLACEMENT_3D ( 'NONE', #285, #165, #30 ) ;
#197 = DIRECTION ( 'NONE',  ( -0.000000000000000000, -1.000000000000000000, -0.000000000000000000 ) ) ;
#198 = ORIENTED_EDGE ( 'NONE', *, *, #357, .T. ) ;
#199 = CYLINDRICAL_SURFACE ( 'NONE', #16, 6.000000000000000000 ) ;
#200 = MANIFOLD_SOLID_BREP ( 'Revolve - Cutting Edge', #230 ) ;
#201 = MANIFOLD_SOLID_BREP ( 'Revolve - Tool Body (Straight Shanked)', #31 ) ;
#202 = STYLED_ITEM ( 'NONE', ( #354 ), #182 ) ;
#203 = PRESENTATION_LAYER_ASSIGNMENT (  '', '', ( #211 ) ) ;
#204 = FILL_AREA_STYLE ('',( #205 ) ) ;
#205 = FILL_AREA_STYLE_COLOUR ( '', #1 ) ;
#206 =( NAMED_UNIT ( * ) PLANE_ANGLE_UNIT ( ) SI_UNIT ( $, .RADIAN. ) );
#207 = EDGE_CURVE ( 'NONE', #247, #61, #276, .T. ) ;
#208 =( NAMED_UNIT ( * ) PLANE_ANGLE_UNIT ( ) SI_UNIT ( $, .RADIAN. ) );
#209 = PRESENTATION_STYLE_ASSIGNMENT (( #335 ) ) ;
#210 = AXIS2_PLACEMENT_3D ( 'NONE', #90, #12, #344 ) ;
#211 = STYLED_ITEM ( 'NONE', ( #209 ), #201 ) ;
#212 = DIRECTION ( 'NONE',  ( 0.000000000000000000, 0.000000000000000000, 1.000000000000000000 ) ) ;
#213 = FACE_OUTER_BOUND ( 'NONE', #113, .T. ) ;
#214 =( LENGTH_UNIT ( ) NAMED_UNIT ( * ) SI_UNIT ( .MILLI., .METRE. ) );
#215 = AXIS2_PLACEMENT_3D ( 'NONE', #116, #223, #257 ) ;
#216 = ORIENTED_EDGE ( 'NONE', *, *, #18, .T. ) ;
#217 = CARTESIAN_POINT ( 'NONE',  ( 6.000000000000000000, 24.00000000000000000, 7.347880794884120722E-16 ) ) ;
#218 = ORIENTED_EDGE ( 'NONE', *, *, #356, .T. ) ;
#219 = PLANE ( 'NONE',  #168 ) ;
#220 = EDGE_CURVE ( 'NONE', #83, #281, #180, .T. ) ;
#221 = VERTEX_POINT ( 'NONE', #353 ) ;
#222 =( NAMED_UNIT ( * ) PLANE_ANGLE_UNIT ( ) SI_UNIT ( $, .RADIAN. ) );
#223 = DIRECTION ( 'NONE',  ( 1.223542297630008506E-16, -1.000000000000000000, 0.000000000000000000 ) ) ;
#224 = STYLED_ITEM ( 'NONE', ( #315 ), #248 ) ;
#225 =( GEOMETRIC_REPRESENTATION_CONTEXT ( 3 ) GLOBAL_UNCERTAINTY_ASSIGNED_CONTEXT ( ( #277 ) ) GLOBAL_UNIT_ASSIGNED_CONTEXT ( ( #154, #105, #327 ) ) REPRESENTATION_CONTEXT ( 'NONE', 'WORKASPACE' ) );
#226 = EDGE_LOOP ( 'NONE', ( #146, #228 ) ) ;
#227 = EDGE_CURVE ( 'NONE', #281, #83, #32, .T. ) ;
#228 = ORIENTED_EDGE ( 'NONE', *, *, #254, .F. ) ;
#229 = FILL_AREA_STYLE ('',( #97 ) ) ;
#230 = CLOSED_SHELL ( 'NONE', ( #333, #159, #267, #48, #182, #248 ) ) ;
#231 = UNCERTAINTY_MEASURE_WITH_UNIT (LENGTH_MEASURE( 1.000000000000000082E-05 ), #79, 'distance_accuracy_value', 'NONE');
#232 = CARTESIAN_POINT ( 'NONE',  ( 0.000000000000000000, 0.5000000000000000000, -6.000000000000000000 ) ) ;
#233 = DIRECTION ( 'NONE',  ( 0.000000000000000000, 0.000000000000000000, -1.000000000000000000 ) ) ;
#234 = DIRECTION ( 'NONE',  ( 0.000000000000000000, 0.000000000000000000, -1.000000000000000000 ) ) ;
#235 =( NAMED_UNIT ( * ) SI_UNIT ( $, .STERADIAN. ) SOLID_ANGLE_UNIT ( ) );
#236 = APPLICATION_PROTOCOL_DEFINITION ( 'draft international standard', 'automotive_design', 1998, #36 ) ;
#237 = VECTOR ( 'NONE', #244, 1000.000000000000000 ) ;
#238 =( NAMED_UNIT ( * ) SI_UNIT ( $, .STERADIAN. ) SOLID_ANGLE_UNIT ( ) );
#239 = EDGE_CURVE ( 'NONE', #249, #61, #133, .T. ) ;
#240 = CYLINDRICAL_SURFACE ( 'NONE', #343, 6.000000000000000000 ) ;
#241 = DIRECTION ( 'NONE',  ( -0.000000000000000000, -1.000000000000000000, -0.000000000000000000 ) ) ;
#242 = CIRCLE ( 'NONE', #284, 5.999999999999996447 ) ;
#243 =( LENGTH_UNIT ( ) NAMED_UNIT ( * ) SI_UNIT ( .MILLI., .METRE. ) );
#244 = DIRECTION ( 'NONE',  ( -1.223542297630008506E-16, 1.000000000000000000, -0.000000000000000000 ) ) ;
#245 = STYLED_ITEM ( 'NONE', ( #309 ), #159 ) ;
#246 =( GEOMETRIC_REPRESENTATION_CONTEXT ( 3 ) GLOBAL_UNCERTAINTY_ASSIGNED_CONTEXT ( ( #231 ) ) GLOBAL_UNIT_ASSIGNED_CONTEXT ( ( #79, #29, #272 ) ) REPRESENTATION_CONTEXT ( 'NONE', 'WORKASPACE' ) );
#247 = VERTEX_POINT ( 'NONE', #360 ) ;
#248 = ADVANCED_FACE ( 'NONE', ( #108 ), #59, .T. ) ;
#249 = VERTEX_POINT ( 'NONE', #217 ) ;
#250 = FACE_OUTER_BOUND ( 'NONE', #89, .T. ) ;
#251 = ORIENTED_EDGE ( 'NONE', *, *, #169, .F. ) ;
#252 = PLANE ( 'NONE',  #215 ) ;
#253 = AXIS2_PLACEMENT_3D ( 'NONE', #292, #93, #130 ) ;
#254 = EDGE_CURVE ( 'NONE', #122, #141, #365, .T. ) ;
#255 = COLOUR_RGB ( '',0.7921568627450980005, 0.8196078431372548767, 0.9333333333333333481 ) ;
#256 = ORIENTED_EDGE ( 'NONE', *, *, #357, .F. ) ;
#257 = DIRECTION ( 'NONE',  ( 1.000000000000000000, 1.223542297630008506E-16, 0.000000000000000000 ) ) ;
#258 = CIRCLE ( 'NONE', #366, 6.000000000000001776 ) ;
#259 = CARTESIAN_POINT ( 'NONE',  ( -1.469576158976823750E-15, 75.00000000000000000, 0.000000000000000000 ) ) ;
#260 = DIRECTION ( 'NONE',  ( -1.000000000000000000, 0.000000000000000000, 0.000000000000000000 ) ) ;
#261 = LINE ( 'NONE', #44, #86 ) ;
#262 = CARTESIAN_POINT ( 'NONE',  ( 0.000000000000000000, 24.00000000000000000, 0.000000000000000000 ) ) ;
#263 = STYLED_ITEM ( 'NONE', ( #121 ), #333 ) ;
#264 = FACE_OUTER_BOUND ( 'NONE', #163, .T. ) ;
#265 = CARTESIAN_POINT ( 'NONE',  ( 4.770489558936219510E-15, 24.00000000000000000, 0.000000000000000000 ) ) ;
#266 = FACE_OUTER_BOUND ( 'NONE', #369, .T. ) ;
#267 = ADVANCED_FACE ( 'NONE', ( #286 ), #219, .T. ) ;
#268 =( GEOMETRIC_REPRESENTATION_CONTEXT ( 3 ) GLOBAL_UNCERTAINTY_ASSIGNED_CONTEXT ( ( #8 ) ) GLOBAL_UNIT_ASSIGNED_CONTEXT ( ( #214, #206, #362 ) ) REPRESENTATION_CONTEXT ( 'NONE', 'WORKASPACE' ) );
#269 =( LENGTH_UNIT ( ) NAMED_UNIT ( * ) SI_UNIT ( .MILLI., .METRE. ) );
#270 = CARTESIAN_POINT ( 'NONE',  ( 0.000000000000000000, 0.000000000000000000, 0.000000000000000000 ) ) ;
#271 = SHAPE_DEFINITION_REPRESENTATION ( #189, #147 ) ;
#272 =( NAMED_UNIT ( * ) SI_UNIT ( $, .STERADIAN. ) SOLID_ANGLE_UNIT ( ) );
#273 = SURFACE_STYLE_FILL_AREA ( #77 ) ;
#274 = DIRECTION ( 'NONE',  ( -1.223542297630008506E-16, 1.000000000000000000, -0.000000000000000000 ) ) ;
#275 = AXIS2_PLACEMENT_3D ( 'NONE', #352, #241, #100 ) ;
#276 = CIRCLE ( 'NONE', #110, 6.000000000000001776 ) ;
#277 = UNCERTAINTY_MEASURE_WITH_UNIT (LENGTH_MEASURE( 1.000000000000000082E-05 ), #154, 'distance_accuracy_value', 'NONE');
#278 = AXIS2_PLACEMENT_3D ( 'NONE', #78, #184, #188 ) ;
#279 = SURFACE_SIDE_STYLE ('',( #273 ) ) ;
#280 =( LENGTH_UNIT ( ) NAMED_UNIT ( * ) SI_UNIT ( .MILLI., .METRE. ) );
#281 = VERTEX_POINT ( 'NONE', #142 ) ;
#282 = SURFACE_STYLE_USAGE ( .BOTH. , #160 ) ;
#283 = ADVANCED_FACE ( 'NONE', ( #250 ), #252, .F. ) ;
#284 = AXIS2_PLACEMENT_3D ( 'NONE', #342, #45, #260 ) ;
#285 = CARTESIAN_POINT ( 'NONE',  ( 0.000000000000000000, 24.00000000000000000, 0.000000000000000000 ) ) ;
#286 = FACE_OUTER_BOUND ( 'NONE', #319, .T. ) ;
#287 = ORIENTED_EDGE ( 'NONE', *, *, #127, .T. ) ;
#288 =( GEOMETRIC_REPRESENTATION_CONTEXT ( 3 ) GLOBAL_UNCERTAINTY_ASSIGNED_CONTEXT ( ( #76 ) ) GLOBAL_UNIT_ASSIGNED_CONTEXT ( ( #280, #222, #312 ) ) REPRESENTATION_CONTEXT ( 'NONE', 'WORKASPACE' ) );
#289 =( NAMED_UNIT ( * ) PLANE_ANGLE_UNIT ( ) SI_UNIT ( $, .RADIAN. ) );
#290 = AXIS2_PLACEMENT_3D ( 'NONE', #72, #305, #20 ) ;
#291 = ORIENTED_EDGE ( 'NONE', *, *, #370, .F. ) ;
#292 = CARTESIAN_POINT ( 'NONE',  ( -1.469576158976823750E-15, 75.00000000000000000, 0.000000000000000000 ) ) ;
#293 =( NAMED_UNIT ( * ) SI_UNIT ( $, .STERADIAN. ) SOLID_ANGLE_UNIT ( ) );
#294 = EDGE_CURVE ( 'NONE', #221, #247, #349, .T. ) ;
#295 = EDGE_CURVE ( 'NONE', #221, #249, #242, .T. ) ;
#296 = SURFACE_STYLE_USAGE ( .BOTH. , #128 ) ;
#297 = AXIS2_PLACEMENT_3D ( 'NONE', #193, #95, #40 ) ;
#298 = CIRCLE ( 'NONE', #25, 6.000000000000000000 ) ;
#299 = UNCERTAINTY_MEASURE_WITH_UNIT (LENGTH_MEASURE( 1.000000000000000082E-05 ), #243, 'distance_accuracy_value', 'NONE');
#300 = ORIENTED_EDGE ( 'NONE', *, *, #294, .F. ) ;
#301 = DIRECTION ( 'NONE',  ( -0.000000000000000000, -1.000000000000000000, -0.000000000000000000 ) ) ;
#302 = SURFACE_SIDE_STYLE ('',( #49 ) ) ;
#303 = MECHANICAL_DESIGN_GEOMETRIC_PRESENTATION_REPRESENTATION (  '', ( #202 ), #323 ) ;
#304 = FILL_AREA_STYLE ('',( #355 ) ) ;
#305 = DIRECTION ( 'NONE',  ( 0.000000000000000000, 0.000000000000000000, 1.000000000000000000 ) ) ;
#306 = PRODUCT_DEFINITION_CONTEXT ( 'detailed design', #36, 'design' ) ;
#307 = DIRECTION ( 'NONE',  ( 0.000000000000000000, 0.000000000000000000, -1.000000000000000000 ) ) ;
#308 = PRODUCT_DEFINITION ( 'UNKNOWN', '', #99, #306 ) ;
#309 = PRESENTATION_STYLE_ASSIGNMENT (( #102 ) ) ;
#310 = FILL_AREA_STYLE_COLOUR ( '', #174 ) ;
#311 = CIRCLE ( 'NONE', #2, 0.5000000000000004441 ) ;
#312 =( NAMED_UNIT ( * ) SI_UNIT ( $, .STERADIAN. ) SOLID_ANGLE_UNIT ( ) );
#313 = ORIENTED_EDGE ( 'NONE', *, *, #295, .T. ) ;
#314 = EDGE_LOOP ( 'NONE', ( #3, #367, #37, #256 ) ) ;
#315 = PRESENTATION_STYLE_ASSIGNMENT (( #317 ) ) ;
#316 = ORIENTED_EDGE ( 'NONE', *, *, #186, .T. ) ;
#317 = SURFACE_STYLE_USAGE ( .BOTH. , #50 ) ;
#318 = FILL_AREA_STYLE ('',( #192 ) ) ;
#319 = EDGE_LOOP ( 'NONE', ( #161, #348 ) ) ;
#320 = DIRECTION ( 'NONE',  ( 0.000000000000000000, 0.000000000000000000, -1.000000000000000000 ) ) ;
#321 = APPLICATION_CONTEXT ( 'automotive_design' ) ;
#322 = AXIS2_PLACEMENT_3D ( 'NONE', #185, #350, #71 ) ;
#323 =( GEOMETRIC_REPRESENTATION_CONTEXT ( 3 ) GLOBAL_UNCERTAINTY_ASSIGNED_CONTEXT ( ( #152 ) ) GLOBAL_UNIT_ASSIGNED_CONTEXT ( ( #269, #208, #52 ) ) REPRESENTATION_CONTEXT ( 'NONE', 'WORKASPACE' ) );
#324 = EDGE_CURVE ( 'NONE', #249, #221, #126, .T. ) ;
#325 = CIRCLE ( 'NONE', #88, 6.000000000000000000 ) ;
#326 = DIRECTION ( 'NONE',  ( -1.000000000000000000, 0.000000000000000000, 0.000000000000000000 ) ) ;
#327 =( NAMED_UNIT ( * ) SI_UNIT ( $, .STERADIAN. ) SOLID_ANGLE_UNIT ( ) );
#328 = CARTESIAN_POINT ( 'NONE',  ( -1.469576158976823750E-15, 75.00000000000000000, 0.000000000000000000 ) ) ;
#329 = UNCERTAINTY_MEASURE_WITH_UNIT (LENGTH_MEASURE( 1.000000000000000082E-05 ), #150, 'distance_accuracy_value', 'NONE');
#330 = CIRCLE ( 'NONE', #297, 0.5000000000000004441 ) ;
#331 = SURFACE_STYLE_FILL_AREA ( #304 ) ;
#332 = CARTESIAN_POINT ( 'NONE',  ( 0.000000000000000000, 0.5000000000000000000, -5.500000000000000000 ) ) ;
#333 = ADVANCED_FACE ( 'NONE', ( #63 ), #199, .T. ) ;
#334 = PRESENTATION_STYLE_ASSIGNMENT (( #26 ) ) ;
#335 = SURFACE_STYLE_USAGE ( .BOTH. , #136 ) ;
#336 = VERTEX_POINT ( 'NONE', #7 ) ;
#337 = PRESENTATION_LAYER_ASSIGNMENT (  '', '', ( #245 ) ) ;
#338 = MECHANICAL_DESIGN_GEOMETRIC_PRESENTATION_REPRESENTATION (  '', ( #23 ), #288 ) ;
#339 = ORIENTED_EDGE ( 'NONE', *, *, #18, .F. ) ;
#340 = ORIENTED_EDGE ( 'NONE', *, *, #94, .T. ) ;
#341 = SURFACE_STYLE_FILL_AREA ( #318 ) ;
#342 = CARTESIAN_POINT ( 'NONE',  ( 4.770489558936219510E-15, 24.00000000000000000, 0.000000000000000000 ) ) ;
#343 = AXIS2_PLACEMENT_3D ( 'NONE', #270, #19, #307 ) ;
#344 = DIRECTION ( 'NONE',  ( -1.000000000000000000, -1.223542297630008506E-16, 0.000000000000000000 ) ) ;
#345 = SURFACE_SIDE_STYLE ('',( #123 ) ) ;
#346 = CARTESIAN_POINT ( 'NONE',  ( 0.000000000000000000, 0.5000000000000000000, 0.000000000000000000 ) ) ;
#347 = DIRECTION ( 'NONE',  ( -0.000000000000000000, -1.000000000000000000, -0.000000000000000000 ) ) ;
#348 = ORIENTED_EDGE ( 'NONE', *, *, #220, .T. ) ;
#349 = LINE ( 'NONE', #96, #74 ) ;
#350 = DIRECTION ( 'NONE',  ( -0.000000000000000000, -1.000000000000000000, -0.000000000000000000 ) ) ;
#351 = COLOUR_RGB ( '',1.000000000000000000, 0.000000000000000000, 0.000000000000000000 ) ;
#352 = CARTESIAN_POINT ( 'NONE',  ( 0.000000000000000000, 0.5000000000000000000, 0.000000000000000000 ) ) ;
#353 = CARTESIAN_POINT ( 'NONE',  ( -5.999999999999991118, 24.00000000000000000, 0.000000000000000000 ) ) ;
#354 = PRESENTATION_STYLE_ASSIGNMENT (( #106 ) ) ;
#355 = FILL_AREA_STYLE_COLOUR ( '', #157 ) ;
#356 = EDGE_CURVE ( 'NONE', #141, #122, #325, .T. ) ;
#357 = EDGE_CURVE ( 'NONE', #61, #247, #258, .T. ) ;
#358 = DIRECTION ( 'NONE',  ( -1.000000000000000000, 0.000000000000000000, 0.000000000000000000 ) ) ;
#359 = PRESENTATION_LAYER_ASSIGNMENT (  '', '', ( #263 ) ) ;
#360 = CARTESIAN_POINT ( 'NONE',  ( -6.000000000000003553, 75.00000000000000000, 0.000000000000000000 ) ) ;
#361 = PRODUCT_RELATED_PRODUCT_CATEGORY ( 'part', '', ( #363 ) ) ;
#362 =( NAMED_UNIT ( * ) SI_UNIT ( $, .STERADIAN. ) SOLID_ANGLE_UNIT ( ) );
#363 = PRODUCT ( '59660', '59660', '', ( #179 ) ) ;
#364 = VECTOR ( 'NONE', #301, 1000.000000000000000 ) ;
#365 = CIRCLE ( 'NONE', #196, 6.000000000000000000 ) ;
#366 = AXIS2_PLACEMENT_3D ( 'NONE', #10, #177, #326 ) ;
#367 = ORIENTED_EDGE ( 'NONE', *, *, #324, .T. ) ;
#368 = DIRECTION ( 'NONE',  ( 0.000000000000000000, -0.000000000000000000, 1.000000000000000000 ) ) ;
#369 = EDGE_LOOP ( 'NONE', ( #149, #166 ) ) ;
#370 = EDGE_CURVE ( 'NONE', #81, #336, #298, .T. ) ;
ENDSEC;
END-ISO-10303-21;
