ISO-10303-21;
HEADER;
FILE_DESCRIPTION (( 'STEP AP214' ),
    '1' );
FILE_NAME ('26137.STEP',
    '2023-06-22T17:28:21',
    ( '' ),
    ( '' ),
    'SwSTEP 2.0',
    'SolidWorks 2023',
    '' );
FILE_SCHEMA (( 'AUTOMOTIVE_DESIGN' ));
ENDSEC;

DATA;
#1 = PRESENTATION_STYLE_ASSIGNMENT (( #287 ) ) ;
#2 = SURFACE_STYLE_FILL_AREA ( #70 ) ;
#3 = MECHANICAL_DESIGN_GEOMETRIC_PRESENTATION_REPRESENTATION (  '', ( #82 ), #300 ) ;
#4 = DIRECTION ( 'NONE',  ( 0.000000000000000000, 0.000000000000000000, -1.000000000000000000 ) ) ;
#5 = CARTESIAN_POINT ( 'NONE',  ( -0.1250000000000001388, 2.500000000000000000, 0.000000000000000000 ) ) ;
#6 = MECHANICAL_DESIGN_GEOMETRIC_PRESENTATION_REPRESENTATION (  '', ( #10 ), #186 ) ;
#7 = PRODUCT_DEFINITION_FORMATION_WITH_SPECIFIED_SOURCE ( 'ANY', '', #183, .NOT_KNOWN. ) ;
#8 = CARTESIAN_POINT ( 'NONE',  ( -6.123233995736759873E-17, 2.500000000000000000, 0.000000000000000000 ) ) ;
#9 = CYLINDRICAL_SURFACE ( 'NONE', #278, 0.1250000000000000278 ) ;
#10 = STYLED_ITEM ( 'NONE', ( #36 ), #187 ) ;
#11 =( LENGTH_UNIT ( ) NAMED_UNIT ( * ) SI_UNIT ( $, .METRE. ) );
#12 = LENGTH_MEASURE_WITH_UNIT ( LENGTH_MEASURE( 0.02539999999999999897 ), #11 );
#13 = ORIENTED_EDGE ( 'NONE', *, *, #255, .T. ) ;
#14 = FILL_AREA_STYLE_COLOUR ( '', #294 ) ;
#15 = PRODUCT_DEFINITION_CONTEXT ( 'detailed design', #202, 'design' ) ;
#16 = ORIENTED_EDGE ( 'NONE', *, *, #98, .F. ) ;
#17 =( GEOMETRIC_REPRESENTATION_CONTEXT ( 3 ) GLOBAL_UNCERTAINTY_ASSIGNED_CONTEXT ( ( #130 ) ) GLOBAL_UNIT_ASSIGNED_CONTEXT ( ( #92, #285, #206 ) ) REPRESENTATION_CONTEXT ( 'NONE', 'WORKASPACE' ) );
#18 = ADVANCED_FACE ( 'NONE', ( #79 ), #175, .T. ) ;
#19 = ORIENTED_EDGE ( 'NONE', *, *, #188, .T. ) ;
#20 = FILL_AREA_STYLE_COLOUR ( '', #24 ) ;
#21 = VERTEX_POINT ( 'NONE', #110 ) ;
#22 = PLANE ( 'NONE',  #33 ) ;
#23 = PRODUCT_RELATED_PRODUCT_CATEGORY ( 'part', '', ( #183 ) ) ;
#24 = COLOUR_RGB ( '',0.7921568627450980005, 0.8196078431372548767, 0.9333333333333333481 ) ;
#25 = CARTESIAN_POINT ( 'NONE',  ( 0.000000000000000000, 0.000000000000000000, 0.000000000000000000 ) ) ;
#26 =( CONVERSION_BASED_UNIT ( 'INCH', #112 ) LENGTH_UNIT ( ) NAMED_UNIT ( #263 ) );
#27 =( CONVERSION_BASED_UNIT ( 'INCH', #12 ) LENGTH_UNIT ( ) NAMED_UNIT ( #94 ) );
#28 = SURFACE_STYLE_USAGE ( .BOTH. , #190 ) ;
#29 = LENGTH_MEASURE_WITH_UNIT ( LENGTH_MEASURE( 0.02539999999999999897 ), #236 );
#30 = CIRCLE ( 'NONE', #201, 0.1250000000000000000 ) ;
#31 =( CONVERSION_BASED_UNIT ( 'INCH', #191 ) LENGTH_UNIT ( ) NAMED_UNIT ( #189 ) );
#32 = DIRECTION ( 'NONE',  ( -1.000000000000000000, 0.000000000000000000, 0.000000000000000000 ) ) ;
#33 = AXIS2_PLACEMENT_3D ( 'NONE', #185, #111, #207 ) ;
#34 =( GEOMETRIC_REPRESENTATION_CONTEXT ( 3 ) GLOBAL_UNCERTAINTY_ASSIGNED_CONTEXT ( ( #78 ) ) GLOBAL_UNIT_ASSIGNED_CONTEXT ( ( #27, #262, #309 ) ) REPRESENTATION_CONTEXT ( 'NONE', 'WORKASPACE' ) );
#35 = FILL_AREA_STYLE_COLOUR ( '', #245 ) ;
#36 = PRESENTATION_STYLE_ASSIGNMENT (( #241 ) ) ;
#37 = DIRECTION ( 'NONE',  ( -3.498990854706719663E-17, 1.000000000000000000, -0.000000000000000000 ) ) ;
#38 = EDGE_LOOP ( 'NONE', ( #16, #275, #19, #220 ) ) ;
#39 = CIRCLE ( 'NONE', #208, 0.1250000000000000278 ) ;
#40 = DIRECTION ( 'NONE',  ( -1.000000000000000000, 0.000000000000000000, 0.000000000000000000 ) ) ;
#41 = ORIENTED_EDGE ( 'NONE', *, *, #291, .F. ) ;
#42 = DIRECTION ( 'NONE',  ( -0.000000000000000000, -1.000000000000000000, -0.000000000000000000 ) ) ;
#43 = ORIENTED_EDGE ( 'NONE', *, *, #124, .T. ) ;
#44 = ADVANCED_FACE ( 'NONE', ( #273 ), #205, .T. ) ;
#45 = LENGTH_MEASURE_WITH_UNIT ( LENGTH_MEASURE( 0.02539999999999999897 ), #58 );
#46 = EDGE_LOOP ( 'NONE', ( #160, #254 ) ) ;
#47 = CIRCLE ( 'NONE', #232, 0.1250000000000000555 ) ;
#48 = CARTESIAN_POINT ( 'NONE',  ( 0.1249999999999999584, 2.500000000000000000, 1.530808498934191817E-17 ) ) ;
#49 = ORIENTED_EDGE ( 'NONE', *, *, #188, .F. ) ;
#50 = CARTESIAN_POINT ( 'NONE',  ( -0.1250000000000000000, 0.7499999999999998890, 0.000000000000000000 ) ) ;
#51 = CIRCLE ( 'NONE', #75, 0.1250000000000000000 ) ;
#52 = DIRECTION ( 'NONE',  ( 1.000000000000000000, 0.000000000000000000, 0.000000000000000000 ) ) ;
#53 = FILL_AREA_STYLE_COLOUR ( '', #120 ) ;
#54 = PRESENTATION_LAYER_ASSIGNMENT (  '', '', ( #82 ) ) ;
#55 =( LENGTH_UNIT ( ) NAMED_UNIT ( * ) SI_UNIT ( $, .METRE. ) );
#56 = DIRECTION ( 'NONE',  ( -3.498990854706719663E-17, 1.000000000000000000, -0.000000000000000000 ) ) ;
#57 = FILL_AREA_STYLE ('',( #269 ) ) ;
#58 =( LENGTH_UNIT ( ) NAMED_UNIT ( * ) SI_UNIT ( $, .METRE. ) );
#59 = UNCERTAINTY_MEASURE_WITH_UNIT (LENGTH_MEASURE( 1.000000000000000082E-05 ), #80, 'distance_accuracy_value', 'NONE');
#60 = LINE ( 'NONE', #135, #127 ) ;
#61 = SURFACE_STYLE_FILL_AREA ( #247 ) ;
#62 = SURFACE_STYLE_USAGE ( .BOTH. , #204 ) ;
#63 = EDGE_LOOP ( 'NONE', ( #134, #131 ) ) ;
#64 = DIRECTION ( 'NONE',  ( 0.000000000000000000, -0.000000000000000000, 1.000000000000000000 ) ) ;
#65 = DIRECTION ( 'NONE',  ( -3.498990854706719663E-17, 1.000000000000000000, -0.000000000000000000 ) ) ;
#66 = AXIS2_PLACEMENT_3D ( 'NONE', #8, #56, #195 ) ;
#67 = ORIENTED_EDGE ( 'NONE', *, *, #114, .F. ) ;
#68 = PRESENTATION_LAYER_ASSIGNMENT (  '', '', ( #193 ) ) ;
#69 = DIRECTION ( 'NONE',  ( 3.498990854706719663E-17, -1.000000000000000000, 0.000000000000000000 ) ) ;
#70 = FILL_AREA_STYLE ('',( #53 ) ) ;
#71 = ADVANCED_FACE ( 'NONE', ( #140 ), #72, .T. ) ;
#72 = CYLINDRICAL_SURFACE ( 'NONE', #307, 0.1250000000000000278 ) ;
#73 = SURFACE_SIDE_STYLE ('',( #61 ) ) ;
#74 = DIMENSIONAL_EXPONENTS ( 1.000000000000000000, 0.000000000000000000, 0.000000000000000000, 0.000000000000000000, 0.000000000000000000, 0.000000000000000000, 0.000000000000000000 ) ;
#75 = AXIS2_PLACEMENT_3D ( 'NONE', #176, #304, #248 ) ;
#76 = DIRECTION ( 'NONE',  ( -0.000000000000000000, -1.000000000000000000, -0.000000000000000000 ) ) ;
#77 = FACE_OUTER_BOUND ( 'NONE', #198, .T. ) ;
#78 = UNCERTAINTY_MEASURE_WITH_UNIT (LENGTH_MEASURE( 1.000000000000000082E-05 ), #27, 'distance_accuracy_value', 'NONE');
#79 = FACE_OUTER_BOUND ( 'NONE', #277, .T. ) ;
#80 =( CONVERSION_BASED_UNIT ( 'INCH', #45 ) LENGTH_UNIT ( ) NAMED_UNIT ( #192 ) );
#81 = VERTEX_POINT ( 'NONE', #50 ) ;
#82 = STYLED_ITEM ( 'NONE', ( #1 ), #44 ) ;
#83 = DIRECTION ( 'NONE',  ( 0.000000000000000000, 0.000000000000000000, -1.000000000000000000 ) ) ;
#84 = ORIENTED_EDGE ( 'NONE', *, *, #242, .F. ) ;
#85 = DIRECTION ( 'NONE',  ( -1.000000000000000000, 0.000000000000000000, 0.000000000000000000 ) ) ;
#86 = ORIENTED_EDGE ( 'NONE', *, *, #209, .T. ) ;
#87 = CARTESIAN_POINT ( 'NONE',  ( 1.530808498934191817E-17, 0.000000000000000000, 0.1250000000000000278 ) ) ;
#88 = PRESENTATION_STYLE_ASSIGNMENT (( #28 ) ) ;
#89 = ADVANCED_FACE ( 'NONE', ( #231 ), #22, .F. ) ;
#90 = CLOSED_SHELL ( 'NONE', ( #71, #283, #144, #44 ) ) ;
#91 = CLOSED_SHELL ( 'NONE', ( #18, #89, #153, #303 ) ) ;
#92 =( CONVERSION_BASED_UNIT ( 'INCH', #258 ) LENGTH_UNIT ( ) NAMED_UNIT ( #260 ) );
#93 =( NAMED_UNIT ( * ) SI_UNIT ( $, .STERADIAN. ) SOLID_ANGLE_UNIT ( ) );
#94 = DIMENSIONAL_EXPONENTS ( 1.000000000000000000, 0.000000000000000000, 0.000000000000000000, 0.000000000000000000, 0.000000000000000000, 0.000000000000000000, 0.000000000000000000 ) ;
#95 = CIRCLE ( 'NONE', #227, 0.1250000000000000000 ) ;
#96 =( NAMED_UNIT ( * ) SI_UNIT ( $, .STERADIAN. ) SOLID_ANGLE_UNIT ( ) );
#97 = STYLED_ITEM ( 'NONE', ( #126 ), #296 ) ;
#98 = EDGE_CURVE ( 'NONE', #136, #228, #138, .T. ) ;
#99 = CARTESIAN_POINT ( 'NONE',  ( 0.000000000000000000, 0.000000000000000000, 0.000000000000000000 ) ) ;
#100 = ADVANCED_BREP_SHAPE_REPRESENTATION ( '26137', ( #296, #187, #163 ), #17 ) ;
#101 = CARTESIAN_POINT ( 'NONE',  ( 0.000000000000000000, 0.000000000000000000, -0.1250000000000000278 ) ) ;
#102 = VECTOR ( 'NONE', #240, 39.37007874015748143 ) ;
#103 = CARTESIAN_POINT ( 'NONE',  ( 0.000000000000000000, 0.7500000000000001110, 0.000000000000000000 ) ) ;
#104 = EDGE_LOOP ( 'NONE', ( #13, #86 ) ) ;
#105 = DIRECTION ( 'NONE',  ( -0.000000000000000000, -1.000000000000000000, -0.000000000000000000 ) ) ;
#106 = ORIENTED_EDGE ( 'NONE', *, *, #291, .T. ) ;
#107 = SURFACE_STYLE_FILL_AREA ( #178 ) ;
#108 =( GEOMETRIC_REPRESENTATION_CONTEXT ( 3 ) GLOBAL_UNCERTAINTY_ASSIGNED_CONTEXT ( ( #217 ) ) GLOBAL_UNIT_ASSIGNED_CONTEXT ( ( #162, #118, #93 ) ) REPRESENTATION_CONTEXT ( 'NONE', 'WORKASPACE' ) );
#109 = CARTESIAN_POINT ( 'NONE',  ( -6.123233995736759873E-17, 2.500000000000000000, 0.000000000000000000 ) ) ;
#110 = CARTESIAN_POINT ( 'NONE',  ( 0.1250000000000000278, 2.500000000000000000, 1.530808498934192125E-17 ) ) ;
#111 = DIRECTION ( 'NONE',  ( -3.498990854706719663E-17, 1.000000000000000000, 0.000000000000000000 ) ) ;
#112 = LENGTH_MEASURE_WITH_UNIT ( LENGTH_MEASURE( 0.02539999999999999897 ), #165 );
#113 = DIRECTION ( 'NONE',  ( 0.000000000000000000, 0.000000000000000000, 1.000000000000000000 ) ) ;
#114 = EDGE_CURVE ( 'NONE', #179, #21, #169, .T. ) ;
#115 =( NAMED_UNIT ( * ) SI_UNIT ( $, .STERADIAN. ) SOLID_ANGLE_UNIT ( ) );
#116 = DIRECTION ( 'NONE',  ( 0.000000000000000000, 0.000000000000000000, -1.000000000000000000 ) ) ;
#117 = PRESENTATION_LAYER_ASSIGNMENT (  '', '', ( #288 ) ) ;
#118 =( NAMED_UNIT ( * ) PLANE_ANGLE_UNIT ( ) SI_UNIT ( $, .RADIAN. ) );
#119 = FACE_OUTER_BOUND ( 'NONE', #38, .T. ) ;
#120 = COLOUR_RGB ( '',1.000000000000000000, 0.000000000000000000, 0.000000000000000000 ) ;
#121 = FILL_AREA_STYLE ('',( #35 ) ) ;
#122 = PRESENTATION_LAYER_ASSIGNMENT (  '', '', ( #97 ) ) ;
#123 =( NAMED_UNIT ( * ) PLANE_ANGLE_UNIT ( ) SI_UNIT ( $, .RADIAN. ) );
#124 = EDGE_CURVE ( 'NONE', #152, #81, #30, .T. ) ;
#125 = LENGTH_MEASURE_WITH_UNIT ( LENGTH_MEASURE( 0.02539999999999999897 ), #214 );
#126 = PRESENTATION_STYLE_ASSIGNMENT (( #243 ) ) ;
#127 = VECTOR ( 'NONE', #128, 39.37007874015748143 ) ;
#128 = DIRECTION ( 'NONE',  ( -0.000000000000000000, -1.000000000000000000, -0.000000000000000000 ) ) ;
#129 = CARTESIAN_POINT ( 'NONE',  ( -6.123233995736759873E-17, 2.500000000000000000, 0.000000000000000000 ) ) ;
#130 = UNCERTAINTY_MEASURE_WITH_UNIT (LENGTH_MEASURE( 1.000000000000000082E-05 ), #92, 'distance_accuracy_value', 'NONE');
#131 = ORIENTED_EDGE ( 'NONE', *, *, #211, .F. ) ;
#132 = APPLICATION_CONTEXT ( 'automotive_design' ) ;
#133 =( NAMED_UNIT ( * ) SI_UNIT ( $, .STERADIAN. ) SOLID_ANGLE_UNIT ( ) );
#134 = ORIENTED_EDGE ( 'NONE', *, *, #218, .F. ) ;
#135 = CARTESIAN_POINT ( 'NONE',  ( 0.000000000000000000, 0.000000000000000000, -0.1250000000000000278 ) ) ;
#136 = VERTEX_POINT ( 'NONE', #292 ) ;
#137 = AXIS2_PLACEMENT_3D ( 'NONE', #274, #221, #251 ) ;
#138 = LINE ( 'NONE', #87, #252 ) ;
#139 = DIRECTION ( 'NONE',  ( -0.000000000000000000, -1.000000000000000000, -0.000000000000000000 ) ) ;
#140 = FACE_OUTER_BOUND ( 'NONE', #225, .T. ) ;
#141 = COLOUR_RGB ( '',0.7921568627450980005, 0.8196078431372548767, 0.9333333333333333481 ) ;
#142 = CARTESIAN_POINT ( 'NONE',  ( -0.1250000000000001110, 2.500000000000000000, 0.000000000000000000 ) ) ;
#143 = SURFACE_STYLE_FILL_AREA ( #121 ) ;
#144 = ADVANCED_FACE ( 'NONE', ( #119 ), #9, .T. ) ;
#145 = LINE ( 'NONE', #142, #102 ) ;
#146 = CIRCLE ( 'NONE', #289, 0.1250000000000000000 ) ;
#147 = SURFACE_SIDE_STYLE ('',( #266 ) ) ;
#148 = SURFACE_SIDE_STYLE ('',( #270 ) ) ;
#149 = PLANE ( 'NONE',  #158 ) ;
#150 = MECHANICAL_DESIGN_GEOMETRIC_PRESENTATION_REPRESENTATION (  '', ( #193 ), #197 ) ;
#151 = PRESENTATION_LAYER_ASSIGNMENT (  '', '', ( #174 ) ) ;
#152 = VERTEX_POINT ( 'NONE', #168 ) ;
#153 = ADVANCED_FACE ( 'NONE', ( #77 ), #238, .T. ) ;
#154 = CARTESIAN_POINT ( 'NONE',  ( 0.000000000000000000, 0.7500000000000001110, 0.000000000000000000 ) ) ;
#155 = ORIENTED_EDGE ( 'NONE', *, *, #218, .T. ) ;
#156 = PRODUCT_DEFINITION ( 'UNKNOWN', '', #7, #15 ) ;
#157 = LINE ( 'NONE', #48, #212 ) ;
#158 = AXIS2_PLACEMENT_3D ( 'NONE', #103, #276, #64 ) ;
#159 = CARTESIAN_POINT ( 'NONE',  ( 0.000000000000000000, 0.000000000000000000, 0.000000000000000000 ) ) ;
#160 = ORIENTED_EDGE ( 'NONE', *, *, #114, .T. ) ;
#161 = DIRECTION ( 'NONE',  ( -1.000000000000000000, 0.000000000000000000, 0.000000000000000000 ) ) ;
#162 =( CONVERSION_BASED_UNIT ( 'INCH', #29 ) LENGTH_UNIT ( ) NAMED_UNIT ( #286 ) );
#163 = AXIS2_PLACEMENT_3D ( 'NONE', #159, #113, #52 ) ;
#164 = FACE_OUTER_BOUND ( 'NONE', #46, .T. ) ;
#165 =( LENGTH_UNIT ( ) NAMED_UNIT ( * ) SI_UNIT ( $, .METRE. ) );
#166 =( NAMED_UNIT ( * ) PLANE_ANGLE_UNIT ( ) SI_UNIT ( $, .RADIAN. ) );
#167 = EDGE_CURVE ( 'NONE', #81, #179, #145, .T. ) ;
#168 = CARTESIAN_POINT ( 'NONE',  ( 0.1250000000000000278, 0.7499999999999998890, 1.530808498934192125E-17 ) ) ;
#169 = CIRCLE ( 'NONE', #173, 0.1250000000000000555 ) ;
#170 = CARTESIAN_POINT ( 'NONE',  ( 0.000000000000000000, 0.7500000000000001110, -0.1250000000000000000 ) ) ;
#171 = FILL_AREA_STYLE ('',( #20 ) ) ;
#172 = VERTEX_POINT ( 'NONE', #170 ) ;
#173 = AXIS2_PLACEMENT_3D ( 'NONE', #184, #280, #161 ) ;
#174 = STYLED_ITEM ( 'NONE', ( #200 ), #283 ) ;
#175 = CYLINDRICAL_SURFACE ( 'NONE', #239, 0.1250000000000000278 ) ;
#176 = CARTESIAN_POINT ( 'NONE',  ( 0.000000000000000000, 0.7500000000000001110, 0.000000000000000000 ) ) ;
#177 = VERTEX_POINT ( 'NONE', #101 ) ;
#178 = FILL_AREA_STYLE ('',( #14 ) ) ;
#179 = VERTEX_POINT ( 'NONE', #5 ) ;
#180 = PRODUCT_CONTEXT ( 'NONE', #132, 'mechanical' ) ;
#181 = ORIENTED_EDGE ( 'NONE', *, *, #167, .F. ) ;
#182 = PRESENTATION_LAYER_ASSIGNMENT (  '', '', ( #10 ) ) ;
#183 = PRODUCT ( '26137', '26137', '', ( #180 ) ) ;
#184 = CARTESIAN_POINT ( 'NONE',  ( -6.123233995736759873E-17, 2.500000000000000000, 0.000000000000000000 ) ) ;
#185 = CARTESIAN_POINT ( 'NONE',  ( 7.651835625825786972E-35, 0.7500000000000001110, 0.000000000000000000 ) ) ;
#186 =( GEOMETRIC_REPRESENTATION_CONTEXT ( 3 ) GLOBAL_UNCERTAINTY_ASSIGNED_CONTEXT ( ( #249 ) ) GLOBAL_UNIT_ASSIGNED_CONTEXT ( ( #31, #166, #96 ) ) REPRESENTATION_CONTEXT ( 'NONE', 'WORKASPACE' ) );
#187 = MANIFOLD_SOLID_BREP ( 'Revolve - Tool Body (Straight Shanked)', #91 ) ;
#188 = EDGE_CURVE ( 'NONE', #172, #177, #60, .T. ) ;
#189 = DIMENSIONAL_EXPONENTS ( 1.000000000000000000, 0.000000000000000000, 0.000000000000000000, 0.000000000000000000, 0.000000000000000000, 0.000000000000000000, 0.000000000000000000 ) ;
#190 = SURFACE_SIDE_STYLE ('',( #2 ) ) ;
#191 = LENGTH_MEASURE_WITH_UNIT ( LENGTH_MEASURE( 0.02539999999999999897 ), #55 );
#192 = DIMENSIONAL_EXPONENTS ( 1.000000000000000000, 0.000000000000000000, 0.000000000000000000, 0.000000000000000000, 0.000000000000000000, 0.000000000000000000, 0.000000000000000000 ) ;
#193 = STYLED_ITEM ( 'NONE', ( #196 ), #144 ) ;
#194 = MECHANICAL_DESIGN_GEOMETRIC_PRESENTATION_REPRESENTATION (  '', ( #97 ), #34 ) ;
#195 = DIRECTION ( 'NONE',  ( -1.000000000000000000, 0.000000000000000000, 0.000000000000000000 ) ) ;
#196 = PRESENTATION_STYLE_ASSIGNMENT (( #295 ) ) ;
#197 =( GEOMETRIC_REPRESENTATION_CONTEXT ( 3 ) GLOBAL_UNCERTAINTY_ASSIGNED_CONTEXT ( ( #305 ) ) GLOBAL_UNIT_ASSIGNED_CONTEXT ( ( #293, #123, #267 ) ) REPRESENTATION_CONTEXT ( 'NONE', 'WORKASPACE' ) );
#198 = EDGE_LOOP ( 'NONE', ( #41, #43, #298, #222 ) ) ;
#199 = DIRECTION ( 'NONE',  ( 0.000000000000000000, 0.000000000000000000, -1.000000000000000000 ) ) ;
#200 = PRESENTATION_STYLE_ASSIGNMENT (( #62 ) ) ;
#201 = AXIS2_PLACEMENT_3D ( 'NONE', #257, #282, #32 ) ;
#202 = APPLICATION_CONTEXT ( 'automotive_design' ) ;
#203 = CARTESIAN_POINT ( 'NONE',  ( 1.530808498934192125E-17, 0.000000000000000000, 0.1250000000000000555 ) ) ;
#204 = SURFACE_SIDE_STYLE ('',( #107 ) ) ;
#205 = PLANE ( 'NONE',  #259 ) ;
#206 =( NAMED_UNIT ( * ) SI_UNIT ( $, .STERADIAN. ) SOLID_ANGLE_UNIT ( ) );
#207 = DIRECTION ( 'NONE',  ( -1.000000000000000000, -3.498990854706719663E-17, 0.000000000000000000 ) ) ;
#208 = AXIS2_PLACEMENT_3D ( 'NONE', #99, #42, #83 ) ;
#209 = EDGE_CURVE ( 'NONE', #228, #177, #39, .T. ) ;
#210 = DIRECTION ( 'NONE',  ( 1.000000000000000000, 3.498990854706719663E-17, 0.000000000000000000 ) ) ;
#211 = EDGE_CURVE ( 'NONE', #136, #172, #95, .T. ) ;
#212 = VECTOR ( 'NONE', #297, 39.37007874015748143 ) ;
#213 = CARTESIAN_POINT ( 'NONE',  ( 0.000000000000000000, 0.000000000000000000, 0.000000000000000000 ) ) ;
#214 =( LENGTH_UNIT ( ) NAMED_UNIT ( * ) SI_UNIT ( $, .METRE. ) );
#215 = DIRECTION ( 'NONE',  ( 0.000000000000000000, 0.000000000000000000, -1.000000000000000000 ) ) ;
#216 = SURFACE_SIDE_STYLE ('',( #143 ) ) ;
#217 = UNCERTAINTY_MEASURE_WITH_UNIT (LENGTH_MEASURE( 1.000000000000000082E-05 ), #162, 'distance_accuracy_value', 'NONE');
#218 = EDGE_CURVE ( 'NONE', #172, #136, #51, .T. ) ;
#219 = MECHANICAL_DESIGN_GEOMETRIC_PRESENTATION_REPRESENTATION (  '', ( #288 ), #108 ) ;
#220 = ORIENTED_EDGE ( 'NONE', *, *, #209, .F. ) ;
#221 = DIRECTION ( 'NONE',  ( -0.000000000000000000, -1.000000000000000000, -0.000000000000000000 ) ) ;
#222 = ORIENTED_EDGE ( 'NONE', *, *, #223, .F. ) ;
#223 = EDGE_CURVE ( 'NONE', #21, #179, #47, .T. ) ;
#224 = FACE_OUTER_BOUND ( 'NONE', #63, .T. ) ;
#225 = EDGE_LOOP ( 'NONE', ( #155, #279, #306, #49 ) ) ;
#226 = CARTESIAN_POINT ( 'NONE',  ( 0.000000000000000000, 0.7499999999999998890, 0.000000000000000000 ) ) ;
#227 = AXIS2_PLACEMENT_3D ( 'NONE', #154, #105, #199 ) ;
#228 = VERTEX_POINT ( 'NONE', #203 ) ;
#229 = PLANE ( 'NONE',  #301 ) ;
#230 = DIRECTION ( 'NONE',  ( -1.000000000000000000, 0.000000000000000000, 0.000000000000000000 ) ) ;
#231 = FACE_OUTER_BOUND ( 'NONE', #250, .T. ) ;
#232 = AXIS2_PLACEMENT_3D ( 'NONE', #129, #246, #40 ) ;
#233 =( LENGTH_UNIT ( ) NAMED_UNIT ( * ) SI_UNIT ( $, .METRE. ) );
#234 = SHAPE_DEFINITION_REPRESENTATION ( #256, #100 ) ;
#235 = DIRECTION ( 'NONE',  ( -0.000000000000000000, -1.000000000000000000, -0.000000000000000000 ) ) ;
#236 =( LENGTH_UNIT ( ) NAMED_UNIT ( * ) SI_UNIT ( $, .METRE. ) );
#237 =( GEOMETRIC_REPRESENTATION_CONTEXT ( 3 ) GLOBAL_UNCERTAINTY_ASSIGNED_CONTEXT ( ( #59 ) ) GLOBAL_UNIT_ASSIGNED_CONTEXT ( ( #80, #272, #133 ) ) REPRESENTATION_CONTEXT ( 'NONE', 'WORKASPACE' ) );
#238 = CYLINDRICAL_SURFACE ( 'NONE', #66, 0.1250000000000000278 ) ;
#239 = AXIS2_PLACEMENT_3D ( 'NONE', #109, #65, #230 ) ;
#240 = DIRECTION ( 'NONE',  ( -3.498990854706719663E-17, 1.000000000000000000, -0.000000000000000000 ) ) ;
#241 = SURFACE_STYLE_USAGE ( .BOTH. , #147 ) ;
#242 = EDGE_CURVE ( 'NONE', #81, #152, #146, .T. ) ;
#243 = SURFACE_STYLE_USAGE ( .BOTH. , #148 ) ;
#244 = UNCERTAINTY_MEASURE_WITH_UNIT (LENGTH_MEASURE( 1.000000000000000082E-05 ), #26, 'distance_accuracy_value', 'NONE');
#245 = COLOUR_RGB ( '',1.000000000000000000, 0.000000000000000000, 0.000000000000000000 ) ;
#246 = DIRECTION ( 'NONE',  ( -3.498990854706719663E-17, 1.000000000000000000, -0.000000000000000000 ) ) ;
#247 = FILL_AREA_STYLE ('',( #271 ) ) ;
#248 = DIRECTION ( 'NONE',  ( 0.000000000000000000, 0.000000000000000000, -1.000000000000000000 ) ) ;
#249 = UNCERTAINTY_MEASURE_WITH_UNIT (LENGTH_MEASURE( 1.000000000000000082E-05 ), #31, 'distance_accuracy_value', 'NONE');
#250 = EDGE_LOOP ( 'NONE', ( #84, #302 ) ) ;
#251 = DIRECTION ( 'NONE',  ( 0.000000000000000000, 0.000000000000000000, -1.000000000000000000 ) ) ;
#252 = VECTOR ( 'NONE', #235, 39.37007874015748143 ) ;
#253 = CIRCLE ( 'NONE', #137, 0.1250000000000000278 ) ;
#254 = ORIENTED_EDGE ( 'NONE', *, *, #223, .T. ) ;
#255 = EDGE_CURVE ( 'NONE', #177, #228, #253, .T. ) ;
#256 = PRODUCT_DEFINITION_SHAPE ( 'NONE', 'NONE',  #156 ) ;
#257 = CARTESIAN_POINT ( 'NONE',  ( 0.000000000000000000, 0.7499999999999998890, 0.000000000000000000 ) ) ;
#258 = LENGTH_MEASURE_WITH_UNIT ( LENGTH_MEASURE( 0.02539999999999999897 ), #233 );
#259 = AXIS2_PLACEMENT_3D ( 'NONE', #213, #284, #116 ) ;
#260 = DIMENSIONAL_EXPONENTS ( 1.000000000000000000, 0.000000000000000000, 0.000000000000000000, 0.000000000000000000, 0.000000000000000000, 0.000000000000000000, 0.000000000000000000 ) ;
#261 = MECHANICAL_DESIGN_GEOMETRIC_PRESENTATION_REPRESENTATION (  '', ( #174 ), #237 ) ;
#262 =( NAMED_UNIT ( * ) PLANE_ANGLE_UNIT ( ) SI_UNIT ( $, .RADIAN. ) );
#263 = DIMENSIONAL_EXPONENTS ( 1.000000000000000000, 0.000000000000000000, 0.000000000000000000, 0.000000000000000000, 0.000000000000000000, 0.000000000000000000, 0.000000000000000000 ) ;
#264 = CARTESIAN_POINT ( 'NONE',  ( 0.1250000000000000000, 2.500000000000000000, 0.000000000000000000 ) ) ;
#265 =( NAMED_UNIT ( * ) PLANE_ANGLE_UNIT ( ) SI_UNIT ( $, .RADIAN. ) );
#266 = SURFACE_STYLE_FILL_AREA ( #57 ) ;
#267 =( NAMED_UNIT ( * ) SI_UNIT ( $, .STERADIAN. ) SOLID_ANGLE_UNIT ( ) );
#268 = COLOUR_RGB ( '',1.000000000000000000, 0.000000000000000000, 0.000000000000000000 ) ;
#269 = FILL_AREA_STYLE_COLOUR ( '', #141 ) ;
#270 = SURFACE_STYLE_FILL_AREA ( #171 ) ;
#271 = FILL_AREA_STYLE_COLOUR ( '', #268 ) ;
#272 =( NAMED_UNIT ( * ) PLANE_ANGLE_UNIT ( ) SI_UNIT ( $, .RADIAN. ) );
#273 = FACE_OUTER_BOUND ( 'NONE', #104, .T. ) ;
#274 = CARTESIAN_POINT ( 'NONE',  ( 0.000000000000000000, 0.000000000000000000, 0.000000000000000000 ) ) ;
#275 = ORIENTED_EDGE ( 'NONE', *, *, #211, .T. ) ;
#276 = DIRECTION ( 'NONE',  ( 0.000000000000000000, 1.000000000000000000, 0.000000000000000000 ) ) ;
#277 = EDGE_LOOP ( 'NONE', ( #299, #106, #67, #181 ) ) ;
#278 = AXIS2_PLACEMENT_3D ( 'NONE', #290, #76, #215 ) ;
#279 = ORIENTED_EDGE ( 'NONE', *, *, #98, .T. ) ;
#280 = DIRECTION ( 'NONE',  ( -3.498990854706719663E-17, 1.000000000000000000, -0.000000000000000000 ) ) ;
#281 = APPLICATION_PROTOCOL_DEFINITION ( 'draft international standard', 'automotive_design', 1998, #132 ) ;
#282 = DIRECTION ( 'NONE',  ( -3.498990854706719663E-17, 1.000000000000000000, -0.000000000000000000 ) ) ;
#283 = ADVANCED_FACE ( 'NONE', ( #224 ), #149, .T. ) ;
#284 = DIRECTION ( 'NONE',  ( 0.000000000000000000, -1.000000000000000000, -0.000000000000000000 ) ) ;
#285 =( NAMED_UNIT ( * ) PLANE_ANGLE_UNIT ( ) SI_UNIT ( $, .RADIAN. ) );
#286 = DIMENSIONAL_EXPONENTS ( 1.000000000000000000, 0.000000000000000000, 0.000000000000000000, 0.000000000000000000, 0.000000000000000000, 0.000000000000000000, 0.000000000000000000 ) ;
#287 = SURFACE_STYLE_USAGE ( .BOTH. , #73 ) ;
#288 = STYLED_ITEM ( 'NONE', ( #88 ), #71 ) ;
#289 = AXIS2_PLACEMENT_3D ( 'NONE', #226, #37, #85 ) ;
#290 = CARTESIAN_POINT ( 'NONE',  ( 0.000000000000000000, 0.000000000000000000, 0.000000000000000000 ) ) ;
#291 = EDGE_CURVE ( 'NONE', #152, #21, #157, .T. ) ;
#292 = CARTESIAN_POINT ( 'NONE',  ( 1.530808498934191817E-17, 0.7500000000000001110, 0.1250000000000000000 ) ) ;
#293 =( CONVERSION_BASED_UNIT ( 'INCH', #125 ) LENGTH_UNIT ( ) NAMED_UNIT ( #74 ) );
#294 = COLOUR_RGB ( '',1.000000000000000000, 0.000000000000000000, 0.000000000000000000 ) ;
#295 = SURFACE_STYLE_USAGE ( .BOTH. , #216 ) ;
#296 = MANIFOLD_SOLID_BREP ( 'Revolve - Cutting Edge', #90 ) ;
#297 = DIRECTION ( 'NONE',  ( -3.498990854706719663E-17, 1.000000000000000000, -0.000000000000000000 ) ) ;
#298 = ORIENTED_EDGE ( 'NONE', *, *, #167, .T. ) ;
#299 = ORIENTED_EDGE ( 'NONE', *, *, #242, .T. ) ;
#300 =( GEOMETRIC_REPRESENTATION_CONTEXT ( 3 ) GLOBAL_UNCERTAINTY_ASSIGNED_CONTEXT ( ( #244 ) ) GLOBAL_UNIT_ASSIGNED_CONTEXT ( ( #26, #265, #115 ) ) REPRESENTATION_CONTEXT ( 'NONE', 'WORKASPACE' ) );
#301 = AXIS2_PLACEMENT_3D ( 'NONE', #264, #69, #210 ) ;
#302 = ORIENTED_EDGE ( 'NONE', *, *, #124, .F. ) ;
#303 = ADVANCED_FACE ( 'NONE', ( #164 ), #229, .F. ) ;
#304 = DIRECTION ( 'NONE',  ( -0.000000000000000000, -1.000000000000000000, -0.000000000000000000 ) ) ;
#305 = UNCERTAINTY_MEASURE_WITH_UNIT (LENGTH_MEASURE( 1.000000000000000082E-05 ), #293, 'distance_accuracy_value', 'NONE');
#306 = ORIENTED_EDGE ( 'NONE', *, *, #255, .F. ) ;
#307 = AXIS2_PLACEMENT_3D ( 'NONE', #25, #139, #4 ) ;
#308 = APPLICATION_PROTOCOL_DEFINITION ( 'draft international standard', 'automotive_design', 1998, #202 ) ;
#309 =( NAMED_UNIT ( * ) SI_UNIT ( $, .STERADIAN. ) SOLID_ANGLE_UNIT ( ) );
ENDSEC;
END-ISO-10303-21;
