ISO-10303-21;
HEADER;
FILE_DESCRIPTION (( 'STEP AP214' ),
    '1' );
FILE_NAME ('83884.STEP',
    '2023-07-12T13:08:09',
    ( '' ),
    ( '' ),
    'SwSTEP 2.0',
    'SolidWorks 2023',
    '' );
FILE_SCHEMA (( 'AUTOMOTIVE_DESIGN' ));
ENDSEC;

DATA;
#1 = LINE ( 'NONE', #199, #291 ) ;
#2 = AXIS2_PLACEMENT_3D ( 'NONE', #305, #146, #48 ) ;
#3 =( LENGTH_UNIT ( ) NAMED_UNIT ( * ) SI_UNIT ( $, .METRE. ) );
#4 = DIRECTION ( 'NONE',  ( -1.000000000000000000, 0.000000000000000000, 0.000000000000000000 ) ) ;
#5 = EDGE_CURVE ( 'NONE', #42, #271, #27, .T. ) ;
#6 = CIRCLE ( 'NONE', #2, 0.06249999999999992367 ) ;
#7 = PRESENTATION_LAYER_ASSIGNMENT (  '', '', ( #23 ) ) ;
#8 = CARTESIAN_POINT ( 'NONE',  ( 2.409088309794067243E-16, 0.04249999999999984346, 0.000000000000000000 ) ) ;
#9 = FILL_AREA_STYLE_COLOUR ( '', #118 ) ;
#10 = VECTOR ( 'NONE', #101, 39.37007874015748143 ) ;
#11 = DIRECTION ( 'NONE',  ( 1.000000000000000000, 2.098102613665511024E-17, 0.000000000000000000 ) ) ;
#12 = SURFACE_SIDE_STYLE ('',( #18 ) ) ;
#13 = ORIENTED_EDGE ( 'NONE', *, *, #83, .T. ) ;
#14 = ORIENTED_EDGE ( 'NONE', *, *, #279, .T. ) ;
#15 = UNCERTAINTY_MEASURE_WITH_UNIT (LENGTH_MEASURE( 1.000000000000000082E-05 ), #41, 'distance_accuracy_value', 'NONE');
#16 = CIRCLE ( 'NONE', #264, 0.06249999999999975020 ) ;
#17 = CONICAL_SURFACE ( 'NONE', #84, 0.02000000000000000042, 0.7853981633974500554 ) ;
#18 = SURFACE_STYLE_FILL_AREA ( #163 ) ;
#19 = EDGE_LOOP ( 'NONE', ( #100, #40, #86, #103 ) ) ;
#20 =( CONVERSION_BASED_UNIT ( 'INCH', #217 ) LENGTH_UNIT ( ) NAMED_UNIT ( #129 ) );
#21 = DIRECTION ( 'NONE',  ( -1.232771808041434271E-16, 1.000000000000000000, -0.000000000000000000 ) ) ;
#22 = MECHANICAL_DESIGN_GEOMETRIC_PRESENTATION_REPRESENTATION (  '', ( #249 ), #51 ) ;
#23 = STYLED_ITEM ( 'NONE', ( #239 ), #300 ) ;
#24 = SURFACE_SIDE_STYLE ('',( #149 ) ) ;
#25 = PRESENTATION_STYLE_ASSIGNMENT (( #292 ) ) ;
#26 = EDGE_CURVE ( 'NONE', #278, #145, #82, .T. ) ;
#27 = CIRCLE ( 'NONE', #206, 0.02000000000000000042 ) ;
#28 = LENGTH_MEASURE_WITH_UNIT ( LENGTH_MEASURE( 0.02539999999999999897 ), #3 );
#29 = DIRECTION ( 'NONE',  ( -1.000000000000000000, 0.000000000000000000, 0.000000000000000000 ) ) ;
#30 = FACE_OUTER_BOUND ( 'NONE', #37, .T. ) ;
#31 = CIRCLE ( 'NONE', #34, 0.06249999999999992367 ) ;
#32 = COLOUR_RGB ( '',1.000000000000000000, 0.000000000000000000, 0.000000000000000000 ) ;
#33 = PLANE ( 'NONE',  #240 ) ;
#34 = AXIS2_PLACEMENT_3D ( 'NONE', #134, #180, #4 ) ;
#35 = AXIS2_PLACEMENT_3D ( 'NONE', #270, #232, #11 ) ;
#36 = FILL_AREA_STYLE_COLOUR ( '', #281 ) ;
#37 = EDGE_LOOP ( 'NONE', ( #68, #201 ) ) ;
#38 =( GEOMETRIC_REPRESENTATION_CONTEXT ( 3 ) GLOBAL_UNCERTAINTY_ASSIGNED_CONTEXT ( ( #15 ) ) GLOBAL_UNIT_ASSIGNED_CONTEXT ( ( #41, #244, #64 ) ) REPRESENTATION_CONTEXT ( 'NONE', 'WORKASPACE' ) );
#39 = UNCERTAINTY_MEASURE_WITH_UNIT (LENGTH_MEASURE( 1.000000000000000082E-05 ), #20, 'distance_accuracy_value', 'NONE');
#40 = ORIENTED_EDGE ( 'NONE', *, *, #57, .T. ) ;
#41 =( CONVERSION_BASED_UNIT ( 'INCH', #99 ) LENGTH_UNIT ( ) NAMED_UNIT ( #294 ) );
#42 = VERTEX_POINT ( 'NONE', #75 ) ;
#43 = UNCERTAINTY_MEASURE_WITH_UNIT (LENGTH_MEASURE( 1.000000000000000082E-05 ), #167, 'distance_accuracy_value', 'NONE');
#44 = CONICAL_SURFACE ( 'NONE', #179, 0.02000000000000000042, 0.7853981633974500554 ) ;
#45 = SURFACE_STYLE_USAGE ( .BOTH. , #126 ) ;
#46 = CARTESIAN_POINT ( 'NONE',  ( -0.06249999999999977796, 1.500000000000000222, 0.000000000000000000 ) ) ;
#47 = DIRECTION ( 'NONE',  ( 0.000000000000000000, 0.000000000000000000, 1.000000000000000000 ) ) ;
#48 = DIRECTION ( 'NONE',  ( -1.000000000000000000, 0.000000000000000000, 0.000000000000000000 ) ) ;
#49 = ADVANCED_FACE ( 'NONE', ( #174 ), #219, .T. ) ;
#50 =( NAMED_UNIT ( * ) PLANE_ANGLE_UNIT ( ) SI_UNIT ( $, .RADIAN. ) );
#51 =( GEOMETRIC_REPRESENTATION_CONTEXT ( 3 ) GLOBAL_UNCERTAINTY_ASSIGNED_CONTEXT ( ( #39 ) ) GLOBAL_UNIT_ASSIGNED_CONTEXT ( ( #20, #152, #243 ) ) REPRESENTATION_CONTEXT ( 'NONE', 'WORKASPACE' ) );
#52 = CIRCLE ( 'NONE', #105, 0.06249999999999999306 ) ;
#53 = FACE_OUTER_BOUND ( 'NONE', #19, .T. ) ;
#54 = FACE_OUTER_BOUND ( 'NONE', #74, .T. ) ;
#55 =( NAMED_UNIT ( * ) SI_UNIT ( $, .STERADIAN. ) SOLID_ANGLE_UNIT ( ) );
#56 = ORIENTED_EDGE ( 'NONE', *, *, #5, .T. ) ;
#57 = EDGE_CURVE ( 'NONE', #145, #259, #238, .T. ) ;
#58 =( NAMED_UNIT ( * ) PLANE_ANGLE_UNIT ( ) SI_UNIT ( $, .RADIAN. ) );
#59 = ORIENTED_EDGE ( 'NONE', *, *, #220, .F. ) ;
#60 = AXIS2_PLACEMENT_3D ( 'NONE', #227, #209, #178 ) ;
#61 = CIRCLE ( 'NONE', #35, 0.02000000000000000042 ) ;
#62 = LENGTH_MEASURE_WITH_UNIT ( LENGTH_MEASURE( 0.02539999999999999897 ), #116 );
#63 = ORIENTED_EDGE ( 'NONE', *, *, #283, .F. ) ;
#64 =( NAMED_UNIT ( * ) SI_UNIT ( $, .STERADIAN. ) SOLID_ANGLE_UNIT ( ) );
#65 = CLOSED_SHELL ( 'NONE', ( #156, #111, #260, #109 ) ) ;
#66 = AXIS2_PLACEMENT_3D ( 'NONE', #247, #226, #29 ) ;
#67 = SURFACE_STYLE_FILL_AREA ( #130 ) ;
#68 = ORIENTED_EDGE ( 'NONE', *, *, #26, .F. ) ;
#69 = SURFACE_SIDE_STYLE ('',( #123 ) ) ;
#70 = CARTESIAN_POINT ( 'NONE',  ( 8.804069154940098743E-36, -4.196205227331022434E-19, 0.000000000000000000 ) ) ;
#71 = CARTESIAN_POINT ( 'NONE',  ( 2.409088309794067243E-16, 0.04249999999999988509, 0.000000000000000000 ) ) ;
#72 = PRODUCT ( '83884', '83884', '', ( #237 ) ) ;
#73 = CARTESIAN_POINT ( 'NONE',  ( 0.000000000000000000, 0.000000000000000000, 0.000000000000000000 ) ) ;
#74 = EDGE_LOOP ( 'NONE', ( #212, #13 ) ) ;
#75 = CARTESIAN_POINT ( 'NONE',  ( -0.02000000000000000042, -8.392410454662044868E-19, 0.000000000000000000 ) ) ;
#76 = FILL_AREA_STYLE ('',( #208 ) ) ;
#77 = COLOUR_RGB ( '',0.7921568627450980005, 0.8196078431372548767, 0.9333333333333333481 ) ;
#78 =( CONVERSION_BASED_UNIT ( 'INCH', #28 ) LENGTH_UNIT ( ) NAMED_UNIT ( #153 ) );
#79 = PRESENTATION_STYLE_ASSIGNMENT (( #184 ) ) ;
#80 = DIRECTION ( 'NONE',  ( -1.232771808041434271E-16, 1.000000000000000000, 0.000000000000000000 ) ) ;
#81 = DIRECTION ( 'NONE',  ( -2.098102613665511333E-17, 1.000000000000000000, 0.000000000000000000 ) ) ;
#82 = CIRCLE ( 'NONE', #96, 0.06249999999999975020 ) ;
#83 = EDGE_CURVE ( 'NONE', #259, #302, #6, .T. ) ;
#84 = AXIS2_PLACEMENT_3D ( 'NONE', #70, #171, #148 ) ;
#85 =( NAMED_UNIT ( * ) PLANE_ANGLE_UNIT ( ) SI_UNIT ( $, .RADIAN. ) );
#86 = ORIENTED_EDGE ( 'NONE', *, *, #107, .F. ) ;
#87 = EDGE_CURVE ( 'NONE', #278, #302, #236, .T. ) ;
#88 = CYLINDRICAL_SURFACE ( 'NONE', #151, 0.06249999999999984041 ) ;
#89 = EDGE_LOOP ( 'NONE', ( #235, #198, #119, #276 ) ) ;
#90 = ADVANCED_BREP_SHAPE_REPRESENTATION ( '83884', ( #140, #228, #139 ), #182 ) ;
#91 = DIRECTION ( 'NONE',  ( 1.000000000000000000, 2.098102613665511333E-17, 0.000000000000000000 ) ) ;
#92 = LENGTH_MEASURE_WITH_UNIT ( LENGTH_MEASURE( 0.02539999999999999897 ), #185 );
#93 = FACE_OUTER_BOUND ( 'NONE', #299, .T. ) ;
#94 = ADVANCED_FACE ( 'NONE', ( #286 ), #44, .T. ) ;
#95 = CARTESIAN_POINT ( 'NONE',  ( 8.804069154940098743E-36, -4.196205227331022434E-19, 0.000000000000000000 ) ) ;
#96 = AXIS2_PLACEMENT_3D ( 'NONE', #71, #215, #204 ) ;
#97 = APPLICATION_PROTOCOL_DEFINITION ( 'draft international standard', 'automotive_design', 1998, #177 ) ;
#98 = SURFACE_STYLE_USAGE ( .BOTH. , #24 ) ;
#99 = LENGTH_MEASURE_WITH_UNIT ( LENGTH_MEASURE( 0.02539999999999999897 ), #285 );
#100 = ORIENTED_EDGE ( 'NONE', *, *, #26, .T. ) ;
#101 = DIRECTION ( 'NONE',  ( -1.232771808041434271E-16, 1.000000000000000000, -0.000000000000000000 ) ) ;
#102 = MECHANICAL_DESIGN_GEOMETRIC_PRESENTATION_REPRESENTATION (  '', ( #293 ), #195 ) ;
#103 = ORIENTED_EDGE ( 'NONE', *, *, #87, .F. ) ;
#104 = DIRECTION ( 'NONE',  ( 1.000000000000000000, 0.000000000000000000, 0.000000000000000000 ) ) ;
#105 = AXIS2_PLACEMENT_3D ( 'NONE', #295, #106, #104 ) ;
#106 = DIRECTION ( 'NONE',  ( 2.098102613665511333E-17, -1.000000000000000000, -0.000000000000000000 ) ) ;
#107 = EDGE_CURVE ( 'NONE', #302, #259, #31, .T. ) ;
#108 = SURFACE_STYLE_FILL_AREA ( #76 ) ;
#109 = ADVANCED_FACE ( 'NONE', ( #54 ), #161, .F. ) ;
#110 = CARTESIAN_POINT ( 'NONE',  ( 0.06249999999999999306, 0.04249999999999989897, 7.654042494670942137E-18 ) ) ;
#111 = ADVANCED_FACE ( 'NONE', ( #30 ), #33, .F. ) ;
#112 = AXIS2_PLACEMENT_3D ( 'NONE', #275, #230, #91 ) ;
#113 = ORIENTED_EDGE ( 'NONE', *, *, #57, .F. ) ;
#114 = CARTESIAN_POINT ( 'NONE',  ( 0.06249999999999999306, 0.04249999999999984346, 7.654042494670956004E-18 ) ) ;
#115 = ORIENTED_EDGE ( 'NONE', *, *, #252, .T. ) ;
#116 =( LENGTH_UNIT ( ) NAMED_UNIT ( * ) SI_UNIT ( $, .METRE. ) );
#117 = ORIENTED_EDGE ( 'NONE', *, *, #124, .F. ) ;
#118 = COLOUR_RGB ( '',1.000000000000000000, 0.000000000000000000, 0.000000000000000000 ) ;
#119 = ORIENTED_EDGE ( 'NONE', *, *, #283, .T. ) ;
#120 = UNCERTAINTY_MEASURE_WITH_UNIT (LENGTH_MEASURE( 1.000000000000000082E-05 ), #287, 'distance_accuracy_value', 'NONE');
#121 = UNCERTAINTY_MEASURE_WITH_UNIT (LENGTH_MEASURE( 1.000000000000000082E-05 ), #78, 'distance_accuracy_value', 'NONE');
#122 = CARTESIAN_POINT ( 'NONE',  ( -0.06249999999999951428, 0.04249999999999987815, 0.000000000000000000 ) ) ;
#123 = SURFACE_STYLE_FILL_AREA ( #155 ) ;
#124 = EDGE_CURVE ( 'NONE', #186, #254, #52, .T. ) ;
#125 =( GEOMETRIC_REPRESENTATION_CONTEXT ( 3 ) GLOBAL_UNCERTAINTY_ASSIGNED_CONTEXT ( ( #192 ) ) GLOBAL_UNIT_ASSIGNED_CONTEXT ( ( #214, #58, #137 ) ) REPRESENTATION_CONTEXT ( 'NONE', 'WORKASPACE' ) );
#126 = SURFACE_SIDE_STYLE ('',( #67 ) ) ;
#127 = DIRECTION ( 'NONE',  ( -1.000000000000000000, 0.000000000000000000, 0.000000000000000000 ) ) ;
#128 = CARTESIAN_POINT ( 'NONE',  ( 8.804069154940098743E-36, -4.196205227331022434E-19, 0.000000000000000000 ) ) ;
#129 = DIMENSIONAL_EXPONENTS ( 1.000000000000000000, 0.000000000000000000, 0.000000000000000000, 0.000000000000000000, 0.000000000000000000, 0.000000000000000000, 0.000000000000000000 ) ;
#130 = FILL_AREA_STYLE ('',( #169 ) ) ;
#131 = FILL_AREA_STYLE_COLOUR ( '', #135 ) ;
#132 = PRESENTATION_LAYER_ASSIGNMENT (  '', '', ( #261 ) ) ;
#133 = CARTESIAN_POINT ( 'NONE',  ( 2.409088309794067243E-16, 0.04249999999999988509, 0.000000000000000000 ) ) ;
#134 = CARTESIAN_POINT ( 'NONE',  ( 6.123233995736763571E-17, 1.500000000000000222, 0.000000000000000000 ) ) ;
#135 = COLOUR_RGB ( '',1.000000000000000000, 0.000000000000000000, 0.000000000000000000 ) ;
#136 =( NAMED_UNIT ( * ) SI_UNIT ( $, .STERADIAN. ) SOLID_ANGLE_UNIT ( ) );
#137 =( NAMED_UNIT ( * ) SI_UNIT ( $, .STERADIAN. ) SOLID_ANGLE_UNIT ( ) );
#138 = VECTOR ( 'NONE', #21, 39.37007874015748143 ) ;
#139 = AXIS2_PLACEMENT_3D ( 'NONE', #73, #47, #306 ) ;
#140 = MANIFOLD_SOLID_BREP ( 'Revolve - Cutting Edge', #273 ) ;
#141 = DIRECTION ( 'NONE',  ( 2.098102613665511333E-17, -1.000000000000000000, -0.000000000000000000 ) ) ;
#142 = ORIENTED_EDGE ( 'NONE', *, *, #162, .T. ) ;
#143 = SURFACE_STYLE_USAGE ( .BOTH. , #253 ) ;
#144 = ORIENTED_EDGE ( 'NONE', *, *, #83, .F. ) ;
#145 = VERTEX_POINT ( 'NONE', #110 ) ;
#146 = DIRECTION ( 'NONE',  ( -1.232771808041434271E-16, 1.000000000000000000, -0.000000000000000000 ) ) ;
#147 =( LENGTH_UNIT ( ) NAMED_UNIT ( * ) SI_UNIT ( $, .METRE. ) );
#148 = DIRECTION ( 'NONE',  ( -1.000000000000000000, -2.098102613665511024E-17, 0.000000000000000000 ) ) ;
#149 = SURFACE_STYLE_FILL_AREA ( #194 ) ;
#150 = STYLED_ITEM ( 'NONE', ( #79 ), #140 ) ;
#151 = AXIS2_PLACEMENT_3D ( 'NONE', #255, #188, #127 ) ;
#152 =( NAMED_UNIT ( * ) PLANE_ANGLE_UNIT ( ) SI_UNIT ( $, .RADIAN. ) );
#153 = DIMENSIONAL_EXPONENTS ( 1.000000000000000000, 0.000000000000000000, 0.000000000000000000, 0.000000000000000000, 0.000000000000000000, 0.000000000000000000, 0.000000000000000000 ) ;
#154 = DIRECTION ( 'NONE',  ( -0.7071067811865486830, 0.7071067811865462405, 0.000000000000000000 ) ) ;
#155 = FILL_AREA_STYLE ('',( #131 ) ) ;
#156 = ADVANCED_FACE ( 'NONE', ( #53 ), #158, .T. ) ;
#157 = PRESENTATION_LAYER_ASSIGNMENT (  '', '', ( #249 ) ) ;
#158 = CYLINDRICAL_SURFACE ( 'NONE', #66, 0.06249999999999984041 ) ;
#159 = SURFACE_SIDE_STYLE ('',( #108 ) ) ;
#160 =( NAMED_UNIT ( * ) PLANE_ANGLE_UNIT ( ) SI_UNIT ( $, .RADIAN. ) );
#161 = PLANE ( 'NONE',  #60 ) ;
#162 = EDGE_CURVE ( 'NONE', #145, #278, #16, .T. ) ;
#163 = FILL_AREA_STYLE ('',( #9 ) ) ;
#164 = CARTESIAN_POINT ( 'NONE',  ( -8.916936108078390653E-19, 0.04249999999999984346, 0.000000000000000000 ) ) ;
#165 =( NAMED_UNIT ( * ) SI_UNIT ( $, .STERADIAN. ) SOLID_ANGLE_UNIT ( ) );
#166 = PRESENTATION_STYLE_ASSIGNMENT (( #297 ) ) ;
#167 =( CONVERSION_BASED_UNIT ( 'INCH', #62 ) LENGTH_UNIT ( ) NAMED_UNIT ( #207 ) );
#168 = EDGE_LOOP ( 'NONE', ( #113, #142, #256, #144 ) ) ;
#169 = FILL_AREA_STYLE_COLOUR ( '', #32 ) ;
#170 = VECTOR ( 'NONE', #222, 39.37007874015748854 ) ;
#171 = DIRECTION ( 'NONE',  ( -2.098102613665511333E-17, 1.000000000000000000, 0.000000000000000000 ) ) ;
#172 = FACE_OUTER_BOUND ( 'NONE', #89, .T. ) ;
#173 = DIRECTION ( 'NONE',  ( -2.098102613665511333E-17, 1.000000000000000000, 0.000000000000000000 ) ) ;
#174 = FACE_OUTER_BOUND ( 'NONE', #200, .T. ) ;
#175 = PRESENTATION_LAYER_ASSIGNMENT (  '', '', ( #293 ) ) ;
#176 = CARTESIAN_POINT ( 'NONE',  ( 0.02000000000000000042, 0.000000000000000000, 2.449293598294706769E-18 ) ) ;
#177 = APPLICATION_CONTEXT ( 'automotive_design' ) ;
#178 = DIRECTION ( 'NONE',  ( 1.000000000000000000, 1.232771808041434271E-16, 0.000000000000000000 ) ) ;
#179 = AXIS2_PLACEMENT_3D ( 'NONE', #95, #81, #250 ) ;
#180 = DIRECTION ( 'NONE',  ( -1.232771808041434271E-16, 1.000000000000000000, -0.000000000000000000 ) ) ;
#181 =( GEOMETRIC_REPRESENTATION_CONTEXT ( 3 ) GLOBAL_UNCERTAINTY_ASSIGNED_CONTEXT ( ( #304 ) ) GLOBAL_UNIT_ASSIGNED_CONTEXT ( ( #229, #160, #55 ) ) REPRESENTATION_CONTEXT ( 'NONE', 'WORKASPACE' ) );
#182 =( GEOMETRIC_REPRESENTATION_CONTEXT ( 3 ) GLOBAL_UNCERTAINTY_ASSIGNED_CONTEXT ( ( #120 ) ) GLOBAL_UNIT_ASSIGNED_CONTEXT ( ( #287, #263, #308 ) ) REPRESENTATION_CONTEXT ( 'NONE', 'WORKASPACE' ) );
#183 = DIMENSIONAL_EXPONENTS ( 1.000000000000000000, 0.000000000000000000, 0.000000000000000000, 0.000000000000000000, 0.000000000000000000, 0.000000000000000000, 0.000000000000000000 ) ;
#184 = SURFACE_STYLE_USAGE ( .BOTH. , #159 ) ;
#185 =( LENGTH_UNIT ( ) NAMED_UNIT ( * ) SI_UNIT ( $, .METRE. ) );
#186 = VERTEX_POINT ( 'NONE', #251 ) ;
#187 = ORIENTED_EDGE ( 'NONE', *, *, #252, .F. ) ;
#188 = DIRECTION ( 'NONE',  ( -1.232771808041434271E-16, 1.000000000000000000, -0.000000000000000000 ) ) ;
#189 = AXIS2_PLACEMENT_3D ( 'NONE', #164, #141, #272 ) ;
#190 = DIRECTION ( 'NONE',  ( -1.232771808041434271E-16, 1.000000000000000000, -0.000000000000000000 ) ) ;
#191 = EDGE_LOOP ( 'NONE', ( #187, #14, #258, #63 ) ) ;
#192 = UNCERTAINTY_MEASURE_WITH_UNIT (LENGTH_MEASURE( 1.000000000000000082E-05 ), #214, 'distance_accuracy_value', 'NONE');
#193 = APPLICATION_PROTOCOL_DEFINITION ( 'draft international standard', 'automotive_design', 1998, #284 ) ;
#194 = FILL_AREA_STYLE ('',( #307 ) ) ;
#195 =( GEOMETRIC_REPRESENTATION_CONTEXT ( 3 ) GLOBAL_UNCERTAINTY_ASSIGNED_CONTEXT ( ( #121 ) ) GLOBAL_UNIT_ASSIGNED_CONTEXT ( ( #78, #50, #136 ) ) REPRESENTATION_CONTEXT ( 'NONE', 'WORKASPACE' ) );
#196 = MECHANICAL_DESIGN_GEOMETRIC_PRESENTATION_REPRESENTATION (  '', ( #23 ), #38 ) ;
#197 = CARTESIAN_POINT ( 'NONE',  ( 0.02000000000000000042, 0.000000000000000000, 5.051668046482832349E-18 ) ) ;
#198 = ORIENTED_EDGE ( 'NONE', *, *, #5, .F. ) ;
#199 = CARTESIAN_POINT ( 'NONE',  ( -0.02000000000000000042, -8.392410454662044868E-19, 0.000000000000000000 ) ) ;
#200 = EDGE_LOOP ( 'NONE', ( #117, #59 ) ) ;
#201 = ORIENTED_EDGE ( 'NONE', *, *, #162, .F. ) ;
#202 = DIMENSIONAL_EXPONENTS ( 1.000000000000000000, 0.000000000000000000, 0.000000000000000000, 0.000000000000000000, 0.000000000000000000, 0.000000000000000000, 0.000000000000000000 ) ;
#203 = COLOUR_RGB ( '',1.000000000000000000, 0.000000000000000000, 0.000000000000000000 ) ;
#204 = DIRECTION ( 'NONE',  ( -1.000000000000000000, -1.365923996832137033E-16, 0.000000000000000000 ) ) ;
#205 = ADVANCED_FACE ( 'NONE', ( #93 ), #274, .T. ) ;
#206 = AXIS2_PLACEMENT_3D ( 'NONE', #128, #290, #262 ) ;
#207 = DIMENSIONAL_EXPONENTS ( 1.000000000000000000, 0.000000000000000000, 0.000000000000000000, 0.000000000000000000, 0.000000000000000000, 0.000000000000000000, 0.000000000000000000 ) ;
#208 = FILL_AREA_STYLE_COLOUR ( '', #77 ) ;
#209 = DIRECTION ( 'NONE',  ( 1.232771808041434271E-16, -1.000000000000000000, 0.000000000000000000 ) ) ;
#210 = PRODUCT_DEFINITION ( 'UNKNOWN', '', #224, #303 ) ;
#211 = CARTESIAN_POINT ( 'NONE',  ( 0.06249999999999997918, 1.500000000000000222, 7.654042494670942137E-18 ) ) ;
#212 = ORIENTED_EDGE ( 'NONE', *, *, #107, .T. ) ;
#213 = FILL_AREA_STYLE ('',( #36 ) ) ;
#214 =( CONVERSION_BASED_UNIT ( 'INCH', #92 ) LENGTH_UNIT ( ) NAMED_UNIT ( #221 ) );
#215 = DIRECTION ( 'NONE',  ( -1.232771808041434271E-16, 1.000000000000000000, -0.000000000000000000 ) ) ;
#216 = MECHANICAL_DESIGN_GEOMETRIC_PRESENTATION_REPRESENTATION (  '', ( #150 ), #181 ) ;
#217 = LENGTH_MEASURE_WITH_UNIT ( LENGTH_MEASURE( 0.02539999999999999897 ), #147 );
#218 = LENGTH_MEASURE_WITH_UNIT ( LENGTH_MEASURE( 0.02539999999999999897 ), #277 );
#219 = PLANE ( 'NONE',  #269 ) ;
#220 = EDGE_CURVE ( 'NONE', #254, #186, #223, .T. ) ;
#221 = DIMENSIONAL_EXPONENTS ( 1.000000000000000000, 0.000000000000000000, 0.000000000000000000, 0.000000000000000000, 0.000000000000000000, 0.000000000000000000, 0.000000000000000000 ) ;
#222 = DIRECTION ( 'NONE',  ( 0.7071067811865486830, 0.7071067811865462405, 8.659560562354947649E-17 ) ) ;
#223 = CIRCLE ( 'NONE', #189, 0.06249999999999999306 ) ;
#224 = PRODUCT_DEFINITION_FORMATION_WITH_SPECIFIED_SOURCE ( 'ANY', '', #72, .NOT_KNOWN. ) ;
#225 = LENGTH_MEASURE_WITH_UNIT ( LENGTH_MEASURE( 0.02539999999999999897 ), #268 );
#226 = DIRECTION ( 'NONE',  ( -1.232771808041434271E-16, 1.000000000000000000, -0.000000000000000000 ) ) ;
#227 = CARTESIAN_POINT ( 'NONE',  ( 0.06249999999999997918, 1.500000000000000222, 0.000000000000000000 ) ) ;
#228 = MANIFOLD_SOLID_BREP ( 'Revolve - Tool Body (Tipped Off)', #65 ) ;
#229 =( CONVERSION_BASED_UNIT ( 'INCH', #225 ) LENGTH_UNIT ( ) NAMED_UNIT ( #202 ) );
#230 = DIRECTION ( 'NONE',  ( 2.098102613665511333E-17, -1.000000000000000000, -0.000000000000000000 ) ) ;
#231 = PRESENTATION_LAYER_ASSIGNMENT (  '', '', ( #289 ) ) ;
#232 = DIRECTION ( 'NONE',  ( 2.098102613665511333E-17, -1.000000000000000000, -0.000000000000000000 ) ) ;
#233 = DIRECTION ( 'NONE',  ( -1.000000000000000000, -1.365923996832137033E-16, 0.000000000000000000 ) ) ;
#234 = PRESENTATION_LAYER_ASSIGNMENT (  '', '', ( #150 ) ) ;
#235 = ORIENTED_EDGE ( 'NONE', *, *, #279, .F. ) ;
#236 = LINE ( 'NONE', #46, #10 ) ;
#237 = PRODUCT_CONTEXT ( 'NONE', #284, 'mechanical' ) ;
#238 = LINE ( 'NONE', #265, #138 ) ;
#239 = PRESENTATION_STYLE_ASSIGNMENT (( #45 ) ) ;
#240 = AXIS2_PLACEMENT_3D ( 'NONE', #8, #80, #267 ) ;
#241 = PRODUCT_DEFINITION_SHAPE ( 'NONE', 'NONE',  #210 ) ;
#242 = SHAPE_DEFINITION_REPRESENTATION ( #241, #90 ) ;
#243 =( NAMED_UNIT ( * ) SI_UNIT ( $, .STERADIAN. ) SOLID_ANGLE_UNIT ( ) );
#244 =( NAMED_UNIT ( * ) PLANE_ANGLE_UNIT ( ) SI_UNIT ( $, .RADIAN. ) );
#245 = DIRECTION ( 'NONE',  ( -1.000000000000000000, -2.098102613665511333E-17, 0.000000000000000000 ) ) ;
#246 = MECHANICAL_DESIGN_GEOMETRIC_PRESENTATION_REPRESENTATION (  '', ( #289 ), #125 ) ;
#247 = CARTESIAN_POINT ( 'NONE',  ( 6.123233995736763571E-17, 1.500000000000000222, 0.000000000000000000 ) ) ;
#248 = PRODUCT_RELATED_PRODUCT_CATEGORY ( 'part', '', ( #72 ) ) ;
#249 = STYLED_ITEM ( 'NONE', ( #282 ), #49 ) ;
#250 = DIRECTION ( 'NONE',  ( -1.000000000000000000, -2.098102613665511024E-17, 0.000000000000000000 ) ) ;
#251 = CARTESIAN_POINT ( 'NONE',  ( -0.06249999999999999306, 0.04249999999999984346, 0.000000000000000000 ) ) ;
#252 = EDGE_CURVE ( 'NONE', #271, #42, #61, .T. ) ;
#253 = SURFACE_SIDE_STYLE ('',( #257 ) ) ;
#254 = VERTEX_POINT ( 'NONE', #114 ) ;
#255 = CARTESIAN_POINT ( 'NONE',  ( 6.123233995736763571E-17, 1.500000000000000222, 0.000000000000000000 ) ) ;
#256 = ORIENTED_EDGE ( 'NONE', *, *, #87, .T. ) ;
#257 = SURFACE_STYLE_FILL_AREA ( #213 ) ;
#258 = ORIENTED_EDGE ( 'NONE', *, *, #220, .T. ) ;
#259 = VERTEX_POINT ( 'NONE', #211 ) ;
#260 = ADVANCED_FACE ( 'NONE', ( #298 ), #88, .T. ) ;
#261 = STYLED_ITEM ( 'NONE', ( #301 ), #228 ) ;
#262 = DIRECTION ( 'NONE',  ( 1.000000000000000000, 2.098102613665511024E-17, 0.000000000000000000 ) ) ;
#263 =( NAMED_UNIT ( * ) PLANE_ANGLE_UNIT ( ) SI_UNIT ( $, .RADIAN. ) );
#264 = AXIS2_PLACEMENT_3D ( 'NONE', #133, #190, #233 ) ;
#265 = CARTESIAN_POINT ( 'NONE',  ( 0.06249999999999989592, 1.500000000000000222, 7.654042494670937515E-18 ) ) ;
#266 =( GEOMETRIC_REPRESENTATION_CONTEXT ( 3 ) GLOBAL_UNCERTAINTY_ASSIGNED_CONTEXT ( ( #43 ) ) GLOBAL_UNIT_ASSIGNED_CONTEXT ( ( #167, #85, #165 ) ) REPRESENTATION_CONTEXT ( 'NONE', 'WORKASPACE' ) );
#267 = DIRECTION ( 'NONE',  ( -1.000000000000000000, -1.232771808041434271E-16, 0.000000000000000000 ) ) ;
#268 =( LENGTH_UNIT ( ) NAMED_UNIT ( * ) SI_UNIT ( $, .METRE. ) );
#269 = AXIS2_PLACEMENT_3D ( 'NONE', #309, #173, #245 ) ;
#270 = CARTESIAN_POINT ( 'NONE',  ( 8.804069154940098743E-36, -4.196205227331022434E-19, 0.000000000000000000 ) ) ;
#271 = VERTEX_POINT ( 'NONE', #197 ) ;
#272 = DIRECTION ( 'NONE',  ( 1.000000000000000000, 0.000000000000000000, 0.000000000000000000 ) ) ;
#273 = CLOSED_SHELL ( 'NONE', ( #94, #49, #300, #205 ) ) ;
#274 = PLANE ( 'NONE',  #112 ) ;
#275 = CARTESIAN_POINT ( 'NONE',  ( 4.402034577470049371E-36, -2.098102613665511217E-19, 0.000000000000000000 ) ) ;
#276 = ORIENTED_EDGE ( 'NONE', *, *, #124, .T. ) ;
#277 =( LENGTH_UNIT ( ) NAMED_UNIT ( * ) SI_UNIT ( $, .METRE. ) );
#278 = VERTEX_POINT ( 'NONE', #122 ) ;
#279 = EDGE_CURVE ( 'NONE', #271, #254, #280, .T. ) ;
#280 = LINE ( 'NONE', #176, #170 ) ;
#281 = COLOUR_RGB ( '',0.7921568627450980005, 0.8196078431372548767, 0.9333333333333333481 ) ;
#282 = PRESENTATION_STYLE_ASSIGNMENT (( #98 ) ) ;
#283 = EDGE_CURVE ( 'NONE', #42, #186, #1, .T. ) ;
#284 = APPLICATION_CONTEXT ( 'automotive_design' ) ;
#285 =( LENGTH_UNIT ( ) NAMED_UNIT ( * ) SI_UNIT ( $, .METRE. ) );
#286 = FACE_OUTER_BOUND ( 'NONE', #191, .T. ) ;
#287 =( CONVERSION_BASED_UNIT ( 'INCH', #218 ) LENGTH_UNIT ( ) NAMED_UNIT ( #183 ) );
#288 = CARTESIAN_POINT ( 'NONE',  ( -0.06249999999999986122, 1.500000000000000222, 0.000000000000000000 ) ) ;
#289 = STYLED_ITEM ( 'NONE', ( #166 ), #205 ) ;
#290 = DIRECTION ( 'NONE',  ( 2.098102613665511333E-17, -1.000000000000000000, -0.000000000000000000 ) ) ;
#291 = VECTOR ( 'NONE', #154, 39.37007874015748854 ) ;
#292 = SURFACE_STYLE_USAGE ( .BOTH. , #69 ) ;
#293 = STYLED_ITEM ( 'NONE', ( #25 ), #94 ) ;
#294 = DIMENSIONAL_EXPONENTS ( 1.000000000000000000, 0.000000000000000000, 0.000000000000000000, 0.000000000000000000, 0.000000000000000000, 0.000000000000000000, 0.000000000000000000 ) ;
#295 = CARTESIAN_POINT ( 'NONE',  ( -8.916936108078390653E-19, 0.04249999999999984346, 0.000000000000000000 ) ) ;
#296 = MECHANICAL_DESIGN_GEOMETRIC_PRESENTATION_REPRESENTATION (  '', ( #261 ), #266 ) ;
#297 = SURFACE_STYLE_USAGE ( .BOTH. , #12 ) ;
#298 = FACE_OUTER_BOUND ( 'NONE', #168, .T. ) ;
#299 = EDGE_LOOP ( 'NONE', ( #56, #115 ) ) ;
#300 = ADVANCED_FACE ( 'NONE', ( #172 ), #17, .T. ) ;
#301 = PRESENTATION_STYLE_ASSIGNMENT (( #143 ) ) ;
#302 = VERTEX_POINT ( 'NONE', #288 ) ;
#303 = PRODUCT_DEFINITION_CONTEXT ( 'detailed design', #177, 'design' ) ;
#304 = UNCERTAINTY_MEASURE_WITH_UNIT (LENGTH_MEASURE( 1.000000000000000082E-05 ), #229, 'distance_accuracy_value', 'NONE');
#305 = CARTESIAN_POINT ( 'NONE',  ( 6.123233995736763571E-17, 1.500000000000000222, 0.000000000000000000 ) ) ;
#306 = DIRECTION ( 'NONE',  ( 1.000000000000000000, 0.000000000000000000, 0.000000000000000000 ) ) ;
#307 = FILL_AREA_STYLE_COLOUR ( '', #203 ) ;
#308 =( NAMED_UNIT ( * ) SI_UNIT ( $, .STERADIAN. ) SOLID_ANGLE_UNIT ( ) );
#309 = CARTESIAN_POINT ( 'NONE',  ( -8.916936108078390653E-19, 0.04249999999999984346, 0.000000000000000000 ) ) ;
ENDSEC;
END-ISO-10303-21;
