ISO-10303-21;
HEADER;
FILE_DESCRIPTION (( 'STEP AP214' ),
    '1' );
FILE_NAME ('83209.STEP',
    '2023-06-23T08:51:44',
    ( '' ),
    ( '' ),
    'SwSTEP 2.0',
    'SolidWorks 2023',
    '' );
FILE_SCHEMA (( 'AUTOMOTIVE_DESIGN' ));
ENDSEC;

DATA;
#1 = CARTESIAN_POINT ( 'NONE',  ( 0.000000000000000000, 0.000000000000000000, 0.000000000000000000 ) ) ;
#2 =( NAMED_UNIT ( * ) SI_UNIT ( $, .STERADIAN. ) SOLID_ANGLE_UNIT ( ) );
#3 = CARTESIAN_POINT ( 'NONE',  ( 0.3750000000000000555, 4.000000000000000000, 0.000000000000000000 ) ) ;
#4 = SURFACE_STYLE_FILL_AREA ( #306 ) ;
#5 = EDGE_LOOP ( 'NONE', ( #152, #154, #172, #196 ) ) ;
#6 = LINE ( 'NONE', #151, #52 ) ;
#7 = CLOSED_SHELL ( 'NONE', ( #170, #26, #32, #273 ) ) ;
#8 = STYLED_ITEM ( 'NONE', ( #76 ), #273 ) ;
#9 = EDGE_LOOP ( 'NONE', ( #54, #201, #81, #267 ) ) ;
#10 = CYLINDRICAL_SURFACE ( 'NONE', #112, 0.3750000000000001110 ) ;
#11 = SURFACE_SIDE_STYLE ('',( #266 ) ) ;
#12 = STYLED_ITEM ( 'NONE', ( #213 ), #26 ) ;
#13 = ORIENTED_EDGE ( 'NONE', *, *, #263, .T. ) ;
#14 = SURFACE_STYLE_USAGE ( .BOTH. , #302 ) ;
#15 = DIRECTION ( 'NONE',  ( -4.453261087808555212E-17, 1.000000000000000000, -0.000000000000000000 ) ) ;
#16 = EDGE_CURVE ( 'NONE', #104, #222, #239, .T. ) ;
#17 =( NAMED_UNIT ( * ) SI_UNIT ( $, .STERADIAN. ) SOLID_ANGLE_UNIT ( ) );
#18 = DIRECTION ( 'NONE',  ( -0.000000000000000000, -1.000000000000000000, -0.000000000000000000 ) ) ;
#19 = CARTESIAN_POINT ( 'NONE',  ( -0.3750000000000000555, 1.250000000000000000, 0.000000000000000000 ) ) ;
#20 = PRODUCT_CONTEXT ( 'NONE', #295, 'mechanical' ) ;
#21 = CARTESIAN_POINT ( 'NONE',  ( -0.3750000000000002220, 4.000000000000000000, 0.000000000000000000 ) ) ;
#22 =( NAMED_UNIT ( * ) SI_UNIT ( $, .STERADIAN. ) SOLID_ANGLE_UNIT ( ) );
#23 = SURFACE_STYLE_FILL_AREA ( #138 ) ;
#24 = SURFACE_STYLE_FILL_AREA ( #73 ) ;
#25 = CARTESIAN_POINT ( 'NONE',  ( -1.224646799147352714E-16, 4.000000000000000000, 0.000000000000000000 ) ) ;
#26 = ADVANCED_FACE ( 'NONE', ( #70 ), #210, .T. ) ;
#27 = STYLED_ITEM ( 'NONE', ( #275 ), #170 ) ;
#28 = CARTESIAN_POINT ( 'NONE',  ( 4.592425496802575451E-17, 1.250000000000000000, 0.3750000000000000555 ) ) ;
#29 = EDGE_LOOP ( 'NONE', ( #242, #149 ) ) ;
#30 =( LENGTH_UNIT ( ) NAMED_UNIT ( * ) SI_UNIT ( $, .METRE. ) );
#31 = DIRECTION ( 'NONE',  ( -1.000000000000000000, -4.453261087808555212E-17, 0.000000000000000000 ) ) ;
#32 = ADVANCED_FACE ( 'NONE', ( #281 ), #136, .T. ) ;
#33 = ORIENTED_EDGE ( 'NONE', *, *, #16, .T. ) ;
#34 = ORIENTED_EDGE ( 'NONE', *, *, #168, .F. ) ;
#35 = UNCERTAINTY_MEASURE_WITH_UNIT (LENGTH_MEASURE( 1.000000000000000082E-05 ), #43, 'distance_accuracy_value', 'NONE');
#36 = CARTESIAN_POINT ( 'NONE',  ( 0.000000000000000000, 0.000000000000000000, 0.000000000000000000 ) ) ;
#37 = ORIENTED_EDGE ( 'NONE', *, *, #114, .T. ) ;
#38 = APPLICATION_PROTOCOL_DEFINITION ( 'draft international standard', 'automotive_design', 1998, #295 ) ;
#39 = CLOSED_SHELL ( 'NONE', ( #129, #87, #245, #230 ) ) ;
#40 = AXIS2_PLACEMENT_3D ( 'NONE', #111, #15, #88 ) ;
#41 = ORIENTED_EDGE ( 'NONE', *, *, #223, .F. ) ;
#42 = PRODUCT_DEFINITION_CONTEXT ( 'detailed design', #165, 'design' ) ;
#43 =( CONVERSION_BASED_UNIT ( 'INCH', #200 ) LENGTH_UNIT ( ) NAMED_UNIT ( #128 ) );
#44 = MECHANICAL_DESIGN_GEOMETRIC_PRESENTATION_REPRESENTATION (  '', ( #89 ), #155 ) ;
#45 = DIRECTION ( 'NONE',  ( -4.453261087808555212E-17, 1.000000000000000000, -0.000000000000000000 ) ) ;
#46 =( NAMED_UNIT ( * ) PLANE_ANGLE_UNIT ( ) SI_UNIT ( $, .RADIAN. ) );
#47 = UNCERTAINTY_MEASURE_WITH_UNIT (LENGTH_MEASURE( 1.000000000000000082E-05 ), #163, 'distance_accuracy_value', 'NONE');
#48 = AXIS2_PLACEMENT_3D ( 'NONE', #211, #233, #209 ) ;
#49 = PRESENTATION_LAYER_ASSIGNMENT (  '', '', ( #89 ) ) ;
#50 = DIRECTION ( 'NONE',  ( -0.000000000000000000, -1.000000000000000000, -0.000000000000000000 ) ) ;
#51 = AXIS2_PLACEMENT_3D ( 'NONE', #252, #50, #139 ) ;
#52 = VECTOR ( 'NONE', #61, 39.37007874015748143 ) ;
#53 = EDGE_CURVE ( 'NONE', #222, #104, #85, .T. ) ;
#54 = ORIENTED_EDGE ( 'NONE', *, *, #168, .T. ) ;
#55 = DIRECTION ( 'NONE',  ( -4.453261087808555212E-17, 1.000000000000000000, -0.000000000000000000 ) ) ;
#56 = CARTESIAN_POINT ( 'NONE',  ( 3.718412684285594657E-34, 1.250000000000000000, 0.000000000000000000 ) ) ;
#57 = ORIENTED_EDGE ( 'NONE', *, *, #263, .F. ) ;
#58 = AXIS2_PLACEMENT_3D ( 'NONE', #1, #161, #164 ) ;
#59 = LINE ( 'NONE', #286, #204 ) ;
#60 = ORIENTED_EDGE ( 'NONE', *, *, #187, .T. ) ;
#61 = DIRECTION ( 'NONE',  ( -0.000000000000000000, -1.000000000000000000, -0.000000000000000000 ) ) ;
#62 =( LENGTH_UNIT ( ) NAMED_UNIT ( * ) SI_UNIT ( $, .METRE. ) );
#63 = ORIENTED_EDGE ( 'NONE', *, *, #271, .T. ) ;
#64 =( LENGTH_UNIT ( ) NAMED_UNIT ( * ) SI_UNIT ( $, .METRE. ) );
#65 = VERTEX_POINT ( 'NONE', #140 ) ;
#66 = CARTESIAN_POINT ( 'NONE',  ( 0.000000000000000000, 0.000000000000000000, 0.000000000000000000 ) ) ;
#67 = CARTESIAN_POINT ( 'NONE',  ( 0.3750000000000000555, 1.250000000000000000, 4.592425496802576684E-17 ) ) ;
#68 =( NAMED_UNIT ( * ) SI_UNIT ( $, .STERADIAN. ) SOLID_ANGLE_UNIT ( ) );
#69 = MECHANICAL_DESIGN_GEOMETRIC_PRESENTATION_REPRESENTATION (  '', ( #27 ), #194 ) ;
#70 = FACE_OUTER_BOUND ( 'NONE', #29, .T. ) ;
#71 = SHAPE_DEFINITION_REPRESENTATION ( #177, #274 ) ;
#72 = SURFACE_SIDE_STYLE ('',( #23 ) ) ;
#73 = FILL_AREA_STYLE ('',( #162 ) ) ;
#74 = CIRCLE ( 'NONE', #277, 0.3750000000000000555 ) ;
#75 = DIRECTION ( 'NONE',  ( -4.453261087808555212E-17, 1.000000000000000000, -0.000000000000000000 ) ) ;
#76 = PRESENTATION_STYLE_ASSIGNMENT (( #291 ) ) ;
#77 =( LENGTH_UNIT ( ) NAMED_UNIT ( * ) SI_UNIT ( $, .METRE. ) );
#78 = AXIS2_PLACEMENT_3D ( 'NONE', #25, #45, #116 ) ;
#79 = COLOUR_RGB ( '',0.7921568627450980005, 0.8196078431372548767, 0.9333333333333333481 ) ;
#80 = PLANE ( 'NONE',  #98 ) ;
#81 = ORIENTED_EDGE ( 'NONE', *, *, #278, .F. ) ;
#82 = FACE_OUTER_BOUND ( 'NONE', #215, .T. ) ;
#83 = DIRECTION ( 'NONE',  ( 0.000000000000000000, 0.000000000000000000, -1.000000000000000000 ) ) ;
#84 = MANIFOLD_SOLID_BREP ( 'Revolve - Cutting Edge', #7 ) ;
#85 = CIRCLE ( 'NONE', #226, 0.3750000000000000555 ) ;
#86 = CARTESIAN_POINT ( 'NONE',  ( 0.000000000000000000, 1.250000000000000000, 0.000000000000000000 ) ) ;
#87 = ADVANCED_FACE ( 'NONE', ( #82 ), #80, .F. ) ;
#88 = DIRECTION ( 'NONE',  ( -1.000000000000000000, 0.000000000000000000, 0.000000000000000000 ) ) ;
#89 = STYLED_ITEM ( 'NONE', ( #97 ), #32 ) ;
#90 =( LENGTH_UNIT ( ) NAMED_UNIT ( * ) SI_UNIT ( $, .METRE. ) );
#91 = UNCERTAINTY_MEASURE_WITH_UNIT (LENGTH_MEASURE( 1.000000000000000082E-05 ), #225, 'distance_accuracy_value', 'NONE');
#92 = CIRCLE ( 'NONE', #270, 0.3750000000000000555 ) ;
#93 = CYLINDRICAL_SURFACE ( 'NONE', #124, 0.3750000000000000555 ) ;
#94 = SURFACE_SIDE_STYLE ('',( #4 ) ) ;
#95 = LENGTH_MEASURE_WITH_UNIT ( LENGTH_MEASURE( 0.02539999999999999897 ), #249 );
#96 = CARTESIAN_POINT ( 'NONE',  ( -1.224646799147352714E-16, 4.000000000000000000, 0.000000000000000000 ) ) ;
#97 = PRESENTATION_STYLE_ASSIGNMENT (( #308 ) ) ;
#98 = AXIS2_PLACEMENT_3D ( 'NONE', #56, #144, #31 ) ;
#99 = FILL_AREA_STYLE_COLOUR ( '', #235 ) ;
#100 = VERTEX_POINT ( 'NONE', #19 ) ;
#101 = COLOUR_RGB ( '',1.000000000000000000, 0.000000000000000000, 0.000000000000000000 ) ;
#102 = DIRECTION ( 'NONE',  ( -0.000000000000000000, -1.000000000000000000, -0.000000000000000000 ) ) ;
#103 =( NAMED_UNIT ( * ) SI_UNIT ( $, .STERADIAN. ) SOLID_ANGLE_UNIT ( ) );
#104 = VERTEX_POINT ( 'NONE', #109 ) ;
#105 = SURFACE_STYLE_USAGE ( .BOTH. , #11 ) ;
#106 = LENGTH_MEASURE_WITH_UNIT ( LENGTH_MEASURE( 0.02539999999999999897 ), #62 );
#107 = PRESENTATION_LAYER_ASSIGNMENT (  '', '', ( #8 ) ) ;
#108 = EDGE_LOOP ( 'NONE', ( #60, #37 ) ) ;
#109 = CARTESIAN_POINT ( 'NONE',  ( 0.000000000000000000, 1.250000000000000000, -0.3750000000000000555 ) ) ;
#110 = LENGTH_MEASURE_WITH_UNIT ( LENGTH_MEASURE( 0.02539999999999999897 ), #64 );
#111 = CARTESIAN_POINT ( 'NONE',  ( -1.224646799147352714E-16, 4.000000000000000000, 0.000000000000000000 ) ) ;
#112 = AXIS2_PLACEMENT_3D ( 'NONE', #198, #55, #294 ) ;
#113 =( GEOMETRIC_REPRESENTATION_CONTEXT ( 3 ) GLOBAL_UNCERTAINTY_ASSIGNED_CONTEXT ( ( #91 ) ) GLOBAL_UNIT_ASSIGNED_CONTEXT ( ( #225, #158, #300 ) ) REPRESENTATION_CONTEXT ( 'NONE', 'WORKASPACE' ) );
#114 = EDGE_CURVE ( 'NONE', #145, #65, #169, .T. ) ;
#115 = PRODUCT_RELATED_PRODUCT_CATEGORY ( 'part', '', ( #207 ) ) ;
#116 = DIRECTION ( 'NONE',  ( -1.000000000000000000, 0.000000000000000000, 0.000000000000000000 ) ) ;
#117 = AXIS2_PLACEMENT_3D ( 'NONE', #96, #228, #120 ) ;
#118 = STYLED_ITEM ( 'NONE', ( #183 ), #282 ) ;
#119 = EDGE_CURVE ( 'NONE', #100, #257, #232, .T. ) ;
#120 = DIRECTION ( 'NONE',  ( -1.000000000000000000, 0.000000000000000000, 0.000000000000000000 ) ) ;
#121 = MECHANICAL_DESIGN_GEOMETRIC_PRESENTATION_REPRESENTATION (  '', ( #118 ), #247 ) ;
#122 = CARTESIAN_POINT ( 'NONE',  ( -0.3750000000000002776, 4.000000000000000000, 0.000000000000000000 ) ) ;
#123 =( NAMED_UNIT ( * ) PLANE_ANGLE_UNIT ( ) SI_UNIT ( $, .RADIAN. ) );
#124 = AXIS2_PLACEMENT_3D ( 'NONE', #36, #102, #256 ) ;
#125 = DIMENSIONAL_EXPONENTS ( 1.000000000000000000, 0.000000000000000000, 0.000000000000000000, 0.000000000000000000, 0.000000000000000000, 0.000000000000000000, 0.000000000000000000 ) ;
#126 = CARTESIAN_POINT ( 'NONE',  ( 0.000000000000000000, 1.250000000000000000, 0.000000000000000000 ) ) ;
#127 =( CONVERSION_BASED_UNIT ( 'INCH', #106 ) LENGTH_UNIT ( ) NAMED_UNIT ( #258 ) );
#128 = DIMENSIONAL_EXPONENTS ( 1.000000000000000000, 0.000000000000000000, 0.000000000000000000, 0.000000000000000000, 0.000000000000000000, 0.000000000000000000, 0.000000000000000000 ) ;
#129 = ADVANCED_FACE ( 'NONE', ( #248 ), #167, .T. ) ;
#130 = FACE_OUTER_BOUND ( 'NONE', #108, .T. ) ;
#131 = ORIENTED_EDGE ( 'NONE', *, *, #278, .T. ) ;
#132 = PRESENTATION_LAYER_ASSIGNMENT (  '', '', ( #12 ) ) ;
#133 = MECHANICAL_DESIGN_GEOMETRIC_PRESENTATION_REPRESENTATION (  '', ( #8 ), #113 ) ;
#134 = CARTESIAN_POINT ( 'NONE',  ( 4.592425496802575451E-17, 0.000000000000000000, 0.3750000000000000555 ) ) ;
#135 = AXIS2_PLACEMENT_3D ( 'NONE', #3, #237, #142 ) ;
#136 = CYLINDRICAL_SURFACE ( 'NONE', #51, 0.3750000000000000555 ) ;
#137 =( NAMED_UNIT ( * ) PLANE_ANGLE_UNIT ( ) SI_UNIT ( $, .RADIAN. ) );
#138 = FILL_AREA_STYLE ('',( #212 ) ) ;
#139 = DIRECTION ( 'NONE',  ( 0.000000000000000000, 0.000000000000000000, -1.000000000000000000 ) ) ;
#140 = CARTESIAN_POINT ( 'NONE',  ( 0.000000000000000000, 0.000000000000000000, -0.3750000000000000555 ) ) ;
#141 = DIMENSIONAL_EXPONENTS ( 1.000000000000000000, 0.000000000000000000, 0.000000000000000000, 0.000000000000000000, 0.000000000000000000, 0.000000000000000000, 0.000000000000000000 ) ;
#142 = DIRECTION ( 'NONE',  ( 1.000000000000000000, 4.453261087808555212E-17, 0.000000000000000000 ) ) ;
#143 = ORIENTED_EDGE ( 'NONE', *, *, #148, .F. ) ;
#144 = DIRECTION ( 'NONE',  ( -4.453261087808555212E-17, 1.000000000000000000, 0.000000000000000000 ) ) ;
#145 = VERTEX_POINT ( 'NONE', #134 ) ;
#146 = AXIS2_PLACEMENT_3D ( 'NONE', #191, #283, #236 ) ;
#147 = PRESENTATION_LAYER_ASSIGNMENT (  '', '', ( #118 ) ) ;
#148 = EDGE_CURVE ( 'NONE', #243, #257, #244, .T. ) ;
#149 = ORIENTED_EDGE ( 'NONE', *, *, #53, .F. ) ;
#150 = UNCERTAINTY_MEASURE_WITH_UNIT (LENGTH_MEASURE( 1.000000000000000082E-05 ), #127, 'distance_accuracy_value', 'NONE');
#151 = CARTESIAN_POINT ( 'NONE',  ( 4.592425496802575451E-17, 0.000000000000000000, 0.3750000000000000555 ) ) ;
#152 = ORIENTED_EDGE ( 'NONE', *, *, #271, .F. ) ;
#153 = CARTESIAN_POINT ( 'NONE',  ( 0.000000000000000000, 0.000000000000000000, 0.000000000000000000 ) ) ;
#154 = ORIENTED_EDGE ( 'NONE', *, *, #53, .T. ) ;
#155 =( GEOMETRIC_REPRESENTATION_CONTEXT ( 3 ) GLOBAL_UNCERTAINTY_ASSIGNED_CONTEXT ( ( #303 ) ) GLOBAL_UNIT_ASSIGNED_CONTEXT ( ( #276, #254, #22 ) ) REPRESENTATION_CONTEXT ( 'NONE', 'WORKASPACE' ) );
#156 = AXIS2_PLACEMENT_3D ( 'NONE', #153, #224, #202 ) ;
#157 = EDGE_CURVE ( 'NONE', #292, #243, #208, .T. ) ;
#158 =( NAMED_UNIT ( * ) PLANE_ANGLE_UNIT ( ) SI_UNIT ( $, .RADIAN. ) );
#159 =( NAMED_UNIT ( * ) PLANE_ANGLE_UNIT ( ) SI_UNIT ( $, .RADIAN. ) );
#160 = VECTOR ( 'NONE', #234, 39.37007874015748143 ) ;
#161 = DIRECTION ( 'NONE',  ( -0.000000000000000000, -1.000000000000000000, -0.000000000000000000 ) ) ;
#162 = FILL_AREA_STYLE_COLOUR ( '', #265 ) ;
#163 =( CONVERSION_BASED_UNIT ( 'INCH', #280 ) LENGTH_UNIT ( ) NAMED_UNIT ( #261 ) );
#164 = DIRECTION ( 'NONE',  ( 0.000000000000000000, 0.000000000000000000, -1.000000000000000000 ) ) ;
#165 = APPLICATION_CONTEXT ( 'automotive_design' ) ;
#166 =( CONVERSION_BASED_UNIT ( 'INCH', #189 ) LENGTH_UNIT ( ) NAMED_UNIT ( #141 ) );
#167 = CYLINDRICAL_SURFACE ( 'NONE', #78, 0.3750000000000001110 ) ;
#168 = EDGE_CURVE ( 'NONE', #100, #292, #182, .T. ) ;
#169 = CIRCLE ( 'NONE', #58, 0.3750000000000000555 ) ;
#170 = ADVANCED_FACE ( 'NONE', ( #190 ), #93, .T. ) ;
#171 = PLANE ( 'NONE',  #135 ) ;
#172 = ORIENTED_EDGE ( 'NONE', *, *, #223, .T. ) ;
#173 =( GEOMETRIC_REPRESENTATION_CONTEXT ( 3 ) GLOBAL_UNCERTAINTY_ASSIGNED_CONTEXT ( ( #35 ) ) GLOBAL_UNIT_ASSIGNED_CONTEXT ( ( #43, #203, #17 ) ) REPRESENTATION_CONTEXT ( 'NONE', 'WORKASPACE' ) );
#174 = DIMENSIONAL_EXPONENTS ( 1.000000000000000000, 0.000000000000000000, 0.000000000000000000, 0.000000000000000000, 0.000000000000000000, 0.000000000000000000, 0.000000000000000000 ) ;
#175 = EDGE_LOOP ( 'NONE', ( #33, #63, #268, #41 ) ) ;
#176 = UNCERTAINTY_MEASURE_WITH_UNIT (LENGTH_MEASURE( 1.000000000000000082E-05 ), #299, 'distance_accuracy_value', 'NONE');
#177 = PRODUCT_DEFINITION_SHAPE ( 'NONE', 'NONE',  #181 ) ;
#178 = LENGTH_MEASURE_WITH_UNIT ( LENGTH_MEASURE( 0.02539999999999999897 ), #30 );
#179 = EDGE_LOOP ( 'NONE', ( #131, #195 ) ) ;
#180 = DIRECTION ( 'NONE',  ( 0.000000000000000000, 0.000000000000000000, -1.000000000000000000 ) ) ;
#181 = PRODUCT_DEFINITION ( 'UNKNOWN', '', #188, #42 ) ;
#182 = CIRCLE ( 'NONE', #48, 0.3750000000000000555 ) ;
#183 = PRESENTATION_STYLE_ASSIGNMENT (( #14 ) ) ;
#184 = FILL_AREA_STYLE_COLOUR ( '', #79 ) ;
#185 = VECTOR ( 'NONE', #75, 39.37007874015748143 ) ;
#186 = FILL_AREA_STYLE_COLOUR ( '', #101 ) ;
#187 = EDGE_CURVE ( 'NONE', #65, #145, #92, .T. ) ;
#188 = PRODUCT_DEFINITION_FORMATION_WITH_SPECIFIED_SOURCE ( 'ANY', '', #207, .NOT_KNOWN. ) ;
#189 = LENGTH_MEASURE_WITH_UNIT ( LENGTH_MEASURE( 0.02539999999999999897 ), #77 );
#190 = FACE_OUTER_BOUND ( 'NONE', #175, .T. ) ;
#191 = CARTESIAN_POINT ( 'NONE',  ( 0.000000000000000000, 1.250000000000000000, 0.000000000000000000 ) ) ;
#192 = SURFACE_STYLE_FILL_AREA ( #255 ) ;
#193 = DIRECTION ( 'NONE',  ( -1.000000000000000000, 0.000000000000000000, 0.000000000000000000 ) ) ;
#194 =( GEOMETRIC_REPRESENTATION_CONTEXT ( 3 ) GLOBAL_UNCERTAINTY_ASSIGNED_CONTEXT ( ( #47 ) ) GLOBAL_UNIT_ASSIGNED_CONTEXT ( ( #163, #137, #197 ) ) REPRESENTATION_CONTEXT ( 'NONE', 'WORKASPACE' ) );
#195 = ORIENTED_EDGE ( 'NONE', *, *, #148, .T. ) ;
#196 = ORIENTED_EDGE ( 'NONE', *, *, #114, .F. ) ;
#197 =( NAMED_UNIT ( * ) SI_UNIT ( $, .STERADIAN. ) SOLID_ANGLE_UNIT ( ) );
#198 = CARTESIAN_POINT ( 'NONE',  ( -1.224646799147352714E-16, 4.000000000000000000, 0.000000000000000000 ) ) ;
#199 = COLOUR_RGB ( '',0.7921568627450980005, 0.8196078431372548767, 0.9333333333333333481 ) ;
#200 = LENGTH_MEASURE_WITH_UNIT ( LENGTH_MEASURE( 0.02539999999999999897 ), #90 );
#201 = ORIENTED_EDGE ( 'NONE', *, *, #157, .T. ) ;
#202 = DIRECTION ( 'NONE',  ( 1.000000000000000000, 0.000000000000000000, 0.000000000000000000 ) ) ;
#203 =( NAMED_UNIT ( * ) PLANE_ANGLE_UNIT ( ) SI_UNIT ( $, .RADIAN. ) );
#204 = VECTOR ( 'NONE', #238, 39.37007874015748143 ) ;
#205 = FILL_AREA_STYLE ('',( #184 ) ) ;
#206 = DIRECTION ( 'NONE',  ( 0.000000000000000000, 0.000000000000000000, -1.000000000000000000 ) ) ;
#207 = PRODUCT ( '83209', '83209', '', ( #20 ) ) ;
#208 = LINE ( 'NONE', #231, #185 ) ;
#209 = DIRECTION ( 'NONE',  ( -1.000000000000000000, 0.000000000000000000, 0.000000000000000000 ) ) ;
#210 = PLANE ( 'NONE',  #146 ) ;
#211 = CARTESIAN_POINT ( 'NONE',  ( 0.000000000000000000, 1.250000000000000000, 0.000000000000000000 ) ) ;
#212 = FILL_AREA_STYLE_COLOUR ( '', #250 ) ;
#213 = PRESENTATION_STYLE_ASSIGNMENT (( #251 ) ) ;
#214 = FACE_OUTER_BOUND ( 'NONE', #179, .T. ) ;
#215 = EDGE_LOOP ( 'NONE', ( #34, #57 ) ) ;
#216 = DIRECTION ( 'NONE',  ( -4.453261087808555212E-17, 1.000000000000000000, -0.000000000000000000 ) ) ;
#217 = MECHANICAL_DESIGN_GEOMETRIC_PRESENTATION_REPRESENTATION (  '', ( #12 ), #287 ) ;
#218 = STYLED_ITEM ( 'NONE', ( #296 ), #84 ) ;
#219 = DIMENSIONAL_EXPONENTS ( 1.000000000000000000, 0.000000000000000000, 0.000000000000000000, 0.000000000000000000, 0.000000000000000000, 0.000000000000000000, 0.000000000000000000 ) ;
#220 = CARTESIAN_POINT ( 'NONE',  ( 0.000000000000000000, 0.000000000000000000, 0.000000000000000000 ) ) ;
#221 = CARTESIAN_POINT ( 'NONE',  ( 0.000000000000000000, 1.250000000000000000, 0.000000000000000000 ) ) ;
#222 = VERTEX_POINT ( 'NONE', #28 ) ;
#223 = EDGE_CURVE ( 'NONE', #104, #65, #59, .T. ) ;
#224 = DIRECTION ( 'NONE',  ( 0.000000000000000000, 0.000000000000000000, 1.000000000000000000 ) ) ;
#225 =( CONVERSION_BASED_UNIT ( 'INCH', #178 ) LENGTH_UNIT ( ) NAMED_UNIT ( #174 ) );
#226 = AXIS2_PLACEMENT_3D ( 'NONE', #221, #297, #264 ) ;
#227 = APPLICATION_PROTOCOL_DEFINITION ( 'draft international standard', 'automotive_design', 1998, #165 ) ;
#228 = DIRECTION ( 'NONE',  ( -4.453261087808555212E-17, 1.000000000000000000, -0.000000000000000000 ) ) ;
#229 = PRESENTATION_LAYER_ASSIGNMENT (  '', '', ( #218 ) ) ;
#230 = ADVANCED_FACE ( 'NONE', ( #214 ), #171, .F. ) ;
#231 = CARTESIAN_POINT ( 'NONE',  ( 0.3749999999999999445, 4.000000000000000000, 4.592425496802576068E-17 ) ) ;
#232 = LINE ( 'NONE', #21, #160 ) ;
#233 = DIRECTION ( 'NONE',  ( -4.453261087808555212E-17, 1.000000000000000000, -0.000000000000000000 ) ) ;
#234 = DIRECTION ( 'NONE',  ( -4.453261087808555212E-17, 1.000000000000000000, -0.000000000000000000 ) ) ;
#235 = COLOUR_RGB ( '',1.000000000000000000, 0.000000000000000000, 0.000000000000000000 ) ;
#236 = DIRECTION ( 'NONE',  ( 0.000000000000000000, -0.000000000000000000, 1.000000000000000000 ) ) ;
#237 = DIRECTION ( 'NONE',  ( 4.453261087808555212E-17, -1.000000000000000000, 0.000000000000000000 ) ) ;
#238 = DIRECTION ( 'NONE',  ( -0.000000000000000000, -1.000000000000000000, -0.000000000000000000 ) ) ;
#239 = CIRCLE ( 'NONE', #272, 0.3750000000000000555 ) ;
#240 = FILL_AREA_STYLE_COLOUR ( '', #199 ) ;
#241 = PLANE ( 'NONE',  #288 ) ;
#242 = ORIENTED_EDGE ( 'NONE', *, *, #16, .F. ) ;
#243 = VERTEX_POINT ( 'NONE', #262 ) ;
#244 = CIRCLE ( 'NONE', #117, 0.3750000000000001665 ) ;
#245 = ADVANCED_FACE ( 'NONE', ( #259 ), #10, .T. ) ;
#246 = MECHANICAL_DESIGN_GEOMETRIC_PRESENTATION_REPRESENTATION (  '', ( #218 ), #305 ) ;
#247 =( GEOMETRIC_REPRESENTATION_CONTEXT ( 3 ) GLOBAL_UNCERTAINTY_ASSIGNED_CONTEXT ( ( #176 ) ) GLOBAL_UNIT_ASSIGNED_CONTEXT ( ( #299, #159, #68 ) ) REPRESENTATION_CONTEXT ( 'NONE', 'WORKASPACE' ) );
#248 = FACE_OUTER_BOUND ( 'NONE', #9, .T. ) ;
#249 =( LENGTH_UNIT ( ) NAMED_UNIT ( * ) SI_UNIT ( $, .METRE. ) );
#250 = COLOUR_RGB ( '',1.000000000000000000, 0.000000000000000000, 0.000000000000000000 ) ;
#251 = SURFACE_STYLE_USAGE ( .BOTH. , #285 ) ;
#252 = CARTESIAN_POINT ( 'NONE',  ( 0.000000000000000000, 0.000000000000000000, 0.000000000000000000 ) ) ;
#253 =( LENGTH_UNIT ( ) NAMED_UNIT ( * ) SI_UNIT ( $, .METRE. ) );
#254 =( NAMED_UNIT ( * ) PLANE_ANGLE_UNIT ( ) SI_UNIT ( $, .RADIAN. ) );
#255 = FILL_AREA_STYLE ('',( #99 ) ) ;
#256 = DIRECTION ( 'NONE',  ( 0.000000000000000000, 0.000000000000000000, -1.000000000000000000 ) ) ;
#257 = VERTEX_POINT ( 'NONE', #122 ) ;
#258 = DIMENSIONAL_EXPONENTS ( 1.000000000000000000, 0.000000000000000000, 0.000000000000000000, 0.000000000000000000, 0.000000000000000000, 0.000000000000000000, 0.000000000000000000 ) ;
#259 = FACE_OUTER_BOUND ( 'NONE', #290, .T. ) ;
#260 = ORIENTED_EDGE ( 'NONE', *, *, #157, .F. ) ;
#261 = DIMENSIONAL_EXPONENTS ( 1.000000000000000000, 0.000000000000000000, 0.000000000000000000, 0.000000000000000000, 0.000000000000000000, 0.000000000000000000, 0.000000000000000000 ) ;
#262 = CARTESIAN_POINT ( 'NONE',  ( 0.3750000000000000555, 4.000000000000000000, 4.592425496802576684E-17 ) ) ;
#263 = EDGE_CURVE ( 'NONE', #292, #100, #74, .T. ) ;
#264 = DIRECTION ( 'NONE',  ( 0.000000000000000000, 0.000000000000000000, -1.000000000000000000 ) ) ;
#265 = COLOUR_RGB ( '',1.000000000000000000, 0.000000000000000000, 0.000000000000000000 ) ;
#266 = SURFACE_STYLE_FILL_AREA ( #289 ) ;
#267 = ORIENTED_EDGE ( 'NONE', *, *, #119, .F. ) ;
#268 = ORIENTED_EDGE ( 'NONE', *, *, #187, .F. ) ;
#269 = SURFACE_STYLE_FILL_AREA ( #205 ) ;
#270 = AXIS2_PLACEMENT_3D ( 'NONE', #220, #293, #83 ) ;
#271 = EDGE_CURVE ( 'NONE', #222, #145, #6, .T. ) ;
#272 = AXIS2_PLACEMENT_3D ( 'NONE', #126, #18, #206 ) ;
#273 = ADVANCED_FACE ( 'NONE', ( #130 ), #241, .T. ) ;
#274 = ADVANCED_BREP_SHAPE_REPRESENTATION ( '83209', ( #84, #282, #156 ), #173 ) ;
#275 = PRESENTATION_STYLE_ASSIGNMENT (( #307 ) ) ;
#276 =( CONVERSION_BASED_UNIT ( 'INCH', #95 ) LENGTH_UNIT ( ) NAMED_UNIT ( #219 ) );
#277 = AXIS2_PLACEMENT_3D ( 'NONE', #86, #216, #193 ) ;
#278 = EDGE_CURVE ( 'NONE', #257, #243, #279, .T. ) ;
#279 = CIRCLE ( 'NONE', #40, 0.3750000000000001665 ) ;
#280 = LENGTH_MEASURE_WITH_UNIT ( LENGTH_MEASURE( 0.02539999999999999897 ), #253 );
#281 = FACE_OUTER_BOUND ( 'NONE', #5, .T. ) ;
#282 = MANIFOLD_SOLID_BREP ( 'Revolve - Tool Body (Straight Shanked)', #39 ) ;
#283 = DIRECTION ( 'NONE',  ( 0.000000000000000000, 1.000000000000000000, 0.000000000000000000 ) ) ;
#284 = SURFACE_SIDE_STYLE ('',( #192 ) ) ;
#285 = SURFACE_SIDE_STYLE ('',( #24 ) ) ;
#286 = CARTESIAN_POINT ( 'NONE',  ( 0.000000000000000000, 0.000000000000000000, -0.3750000000000000555 ) ) ;
#287 =( GEOMETRIC_REPRESENTATION_CONTEXT ( 3 ) GLOBAL_UNCERTAINTY_ASSIGNED_CONTEXT ( ( #309 ) ) GLOBAL_UNIT_ASSIGNED_CONTEXT ( ( #166, #46, #2 ) ) REPRESENTATION_CONTEXT ( 'NONE', 'WORKASPACE' ) );
#288 = AXIS2_PLACEMENT_3D ( 'NONE', #66, #304, #180 ) ;
#289 = FILL_AREA_STYLE ('',( #240 ) ) ;
#290 = EDGE_LOOP ( 'NONE', ( #260, #13, #298, #143 ) ) ;
#291 = SURFACE_STYLE_USAGE ( .BOTH. , #284 ) ;
#292 = VERTEX_POINT ( 'NONE', #67 ) ;
#293 = DIRECTION ( 'NONE',  ( -0.000000000000000000, -1.000000000000000000, -0.000000000000000000 ) ) ;
#294 = DIRECTION ( 'NONE',  ( -1.000000000000000000, 0.000000000000000000, 0.000000000000000000 ) ) ;
#295 = APPLICATION_CONTEXT ( 'automotive_design' ) ;
#296 = PRESENTATION_STYLE_ASSIGNMENT (( #105 ) ) ;
#297 = DIRECTION ( 'NONE',  ( -0.000000000000000000, -1.000000000000000000, -0.000000000000000000 ) ) ;
#298 = ORIENTED_EDGE ( 'NONE', *, *, #119, .T. ) ;
#299 =( CONVERSION_BASED_UNIT ( 'INCH', #110 ) LENGTH_UNIT ( ) NAMED_UNIT ( #125 ) );
#300 =( NAMED_UNIT ( * ) SI_UNIT ( $, .STERADIAN. ) SOLID_ANGLE_UNIT ( ) );
#301 = PRESENTATION_LAYER_ASSIGNMENT (  '', '', ( #27 ) ) ;
#302 = SURFACE_SIDE_STYLE ('',( #269 ) ) ;
#303 = UNCERTAINTY_MEASURE_WITH_UNIT (LENGTH_MEASURE( 1.000000000000000082E-05 ), #276, 'distance_accuracy_value', 'NONE');
#304 = DIRECTION ( 'NONE',  ( 0.000000000000000000, -1.000000000000000000, -0.000000000000000000 ) ) ;
#305 =( GEOMETRIC_REPRESENTATION_CONTEXT ( 3 ) GLOBAL_UNCERTAINTY_ASSIGNED_CONTEXT ( ( #150 ) ) GLOBAL_UNIT_ASSIGNED_CONTEXT ( ( #127, #123, #103 ) ) REPRESENTATION_CONTEXT ( 'NONE', 'WORKASPACE' ) );
#306 = FILL_AREA_STYLE ('',( #186 ) ) ;
#307 = SURFACE_STYLE_USAGE ( .BOTH. , #72 ) ;
#308 = SURFACE_STYLE_USAGE ( .BOTH. , #94 ) ;
#309 = UNCERTAINTY_MEASURE_WITH_UNIT (LENGTH_MEASURE( 1.000000000000000082E-05 ), #166, 'distance_accuracy_value', 'NONE');
ENDSEC;
END-ISO-10303-21;
