ISO-10303-21;
HEADER;
FILE_DESCRIPTION (( 'STEP AP214' ),
    '1' );
FILE_NAME ('Micro_SME-017-2.STEP',
    '2021-09-02T10:31:26',
    ( '' ),
    ( '' ),
    'SwSTEP 2.0',
    'SolidWorks 2020',
    '' );
FILE_SCHEMA (( 'AUTOMOTIVE_DESIGN' ));
ENDSEC;

DATA;
#1 = VECTOR ( 'NONE', #150, 39.37007874015747433 ) ;
#2 =( GEOMETRIC_REPRESENTATION_CONTEXT ( 3 ) GLOBAL_UNCERTAINTY_ASSIGNED_CONTEXT ( ( #258 ) ) GLOBAL_UNIT_ASSIGNED_CONTEXT ( ( #163, #36, #196 ) ) REPRESENTATION_CONTEXT ( 'NONE', 'WORKASPACE' ) );
#3 = DIRECTION ( 'NONE',  ( 1.224646799147353700E-16, 0.0000000000000000000, 1.000000000000000000 ) ) ;
#4 = CARTESIAN_POINT ( 'NONE',  ( 3.061616997868384713E-18, 0.0000000000000000000, 0.02500000000000000139 ) ) ;
#5 = VECTOR ( 'NONE', #299, 39.37007874015748143 ) ;
#6 = SURFACE_SIDE_STYLE ('',( #138 ) ) ;
#7 = DIRECTION ( 'NONE',  ( 0.0000000000000000000, 0.0000000000000000000, 1.000000000000000000 ) ) ;
#8 = CARTESIAN_POINT ( 'NONE',  ( -0.04750000000000064587, 0.0000000000000000000, 1.500000000000000222 ) ) ;
#9 = VERTEX_POINT ( 'NONE', #263 ) ;
#10 = EDGE_CURVE ( 'NONE', #9, #283, #63, .T. ) ;
#11 = LINE ( 'NONE', #72, #81 ) ;
#12 =( GEOMETRIC_REPRESENTATION_CONTEXT ( 3 ) GLOBAL_UNCERTAINTY_ASSIGNED_CONTEXT ( ( #30 ) ) GLOBAL_UNIT_ASSIGNED_CONTEXT ( ( #157, #92, #236 ) ) REPRESENTATION_CONTEXT ( 'NONE', 'WORKASPACE' ) );
#13 = ADVANCED_FACE ( 'NONE', ( #140 ), #100, .T. ) ;
#14 = CARTESIAN_POINT ( 'NONE',  ( 0.0000000000000000000, 0.0000000000000000000, 1.500000000000000222 ) ) ;
#15 = FACE_OUTER_BOUND ( 'NONE', #40, .T. ) ;
#16 = DIRECTION ( 'NONE',  ( -0.0000000000000000000, -0.0000000000000000000, -1.000000000000000000 ) ) ;
#17 = CIRCLE ( 'NONE', #261, 0.06250000000000002776 ) ;
#18 = DIRECTION ( 'NONE',  ( 1.000000000000000000, 0.0000000000000000000, 0.0000000000000000000 ) ) ;
#19 = CARTESIAN_POINT ( 'NONE',  ( 0.04750000000000064587, 5.817072295950006528E-18, 1.500000000000000222 ) ) ;
#20 = FILL_AREA_STYLE_COLOUR ( '', #65 ) ;
#21 = DIRECTION ( 'NONE',  ( 1.000000000000000000, 0.0000000000000000000, 0.0000000000000000000 ) ) ;
#22 = ADVANCED_FACE ( 'NONE', ( #15 ), #239, .T. ) ;
#23 = SURFACE_STYLE_FILL_AREA ( #145 ) ;
#24 = DIRECTION ( 'NONE',  ( -1.224646799147353700E-16, -0.0000000000000000000, -1.000000000000000000 ) ) ;
#25 = PRODUCT ( 'Micro_SME-017-2', 'Micro_SME-017-2', '', ( #241 ) ) ;
#26 = DIRECTION ( 'NONE',  ( -0.0000000000000000000, -0.0000000000000000000, -1.000000000000000000 ) ) ;
#27 = CIRCLE ( 'NONE', #291, 0.06250000000000002776 ) ;
#28 = CARTESIAN_POINT ( 'NONE',  ( -0.008491499999999995579, 1.039908829495974675E-18, 0.02500000000000000139 ) ) ;
#29 = SURFACE_STYLE_USAGE ( .BOTH. , #6 ) ;
#30 = UNCERTAINTY_MEASURE_WITH_UNIT (LENGTH_MEASURE( 1.000000000000000082E-05 ), #157, 'distance_accuracy_value', 'NONE');
#31 = EDGE_CURVE ( 'NONE', #234, #95, #27, .T. ) ;
#32 = ORIENTED_EDGE ( 'NONE', *, *, #183, .T. ) ;
#33 = EDGE_LOOP ( 'NONE', ( #123, #120, #210, #229 ) ) ;
#34 = ORIENTED_EDGE ( 'NONE', *, *, #232, .T. ) ;
#35 = EDGE_CURVE ( 'NONE', #283, #9, #51, .T. ) ;
#36 =( NAMED_UNIT ( * ) PLANE_ANGLE_UNIT ( ) SI_UNIT ( $, .RADIAN. ) );
#37 = DIRECTION ( 'NONE',  ( 0.0000000000000000000, 0.0000000000000000000, -1.000000000000000000 ) ) ;
#38 = DIRECTION ( 'NONE',  ( -1.000000000000000000, 0.0000000000000000000, 0.0000000000000000000 ) ) ;
#39 = AXIS2_PLACEMENT_3D ( 'NONE', #271, #273, #248 ) ;
#40 = EDGE_LOOP ( 'NONE', ( #94, #175, #256, #56 ) ) ;
#41 = DIRECTION ( 'NONE',  ( -1.000000000000000000, 0.0000000000000000000, 1.224646799147353700E-16 ) ) ;
#42 = AXIS2_PLACEMENT_3D ( 'NONE', #110, #166, #41 ) ;
#43 = VECTOR ( 'NONE', #171, 39.37007874015748854 ) ;
#44 = LINE ( 'NONE', #90, #78 ) ;
#45 = LINE ( 'NONE', #152, #121 ) ;
#46 = CARTESIAN_POINT ( 'NONE',  ( -0.04750000000000064587, 0.0000000000000000000, 1.500000000000000222 ) ) ;
#47 = CARTESIAN_POINT ( 'NONE',  ( -0.06250000000000002776, 0.0000000000000000000, 1.485000000000000764 ) ) ;
#48 = DIRECTION ( 'NONE',  ( -1.224646799147353700E-16, -0.0000000000000000000, -1.000000000000000000 ) ) ;
#49 = EDGE_CURVE ( 'NONE', #283, #95, #69, .T. ) ;
#50 = ORIENTED_EDGE ( 'NONE', *, *, #298, .F. ) ;
#51 = CIRCLE ( 'NONE', #162, 0.04750000000000064587 ) ;
#52 = DIRECTION ( 'NONE',  ( -1.224646799147353700E-16, -0.0000000000000000000, -1.000000000000000000 ) ) ;
#53 = EDGE_LOOP ( 'NONE', ( #117, #235, #207, #202 ) ) ;
#54 = ORIENTED_EDGE ( 'NONE', *, *, #31, .T. ) ;
#55 = EDGE_LOOP ( 'NONE', ( #233, #54, #289, #50 ) ) ;
#56 = ORIENTED_EDGE ( 'NONE', *, *, #31, .F. ) ;
#57 = EDGE_CURVE ( 'NONE', #181, #102, #227, .T. ) ;
#58 = CONICAL_SURFACE ( 'NONE', #105, 0.04750000000000064587, 0.7853981633974466137 ) ;
#59 = AXIS2_PLACEMENT_3D ( 'NONE', #186, #260, #288 ) ;
#60 = ADVANCED_FACE ( 'NONE', ( #68 ), #242, .T. ) ;
#61 = LINE ( 'NONE', #28, #1 ) ;
#62 = FACE_OUTER_BOUND ( 'NONE', #154, .T. ) ;
#63 = CIRCLE ( 'NONE', #119, 0.04750000000000064587 ) ;
#64 = AXIS2_PLACEMENT_3D ( 'NONE', #204, #182, #66 ) ;
#65 = COLOUR_RGB ( '',0.7921568627450980005, 0.8196078431372548767, 0.9333333333333333481 ) ;
#66 = DIRECTION ( 'NONE',  ( -1.000000000000000000, 0.0000000000000000000, 0.0000000000000000000 ) ) ;
#67 = CYLINDRICAL_SURFACE ( 'NONE', #42, 0.008491500000000002518 ) ;
#68 = FACE_OUTER_BOUND ( 'NONE', #33, .T. ) ;
#69 = LINE ( 'NONE', #46, #106 ) ;
#70 = CARTESIAN_POINT ( 'NONE',  ( 0.0000000000000000000, 0.0000000000000000000, 1.500000000000000222 ) ) ;
#71 = AXIS2_PLACEMENT_3D ( 'NONE', #136, #226, #97 ) ;
#72 = CARTESIAN_POINT ( 'NONE',  ( -0.008491500000000002518, 0.0000000000000000000, 1.039908829495975638E-18 ) ) ;
#73 = ADVANCED_FACE ( 'NONE', ( #62 ), #58, .T. ) ;
#74 = LENGTH_MEASURE_WITH_UNIT ( LENGTH_MEASURE( 0.02539999999999999897 ), #155 );
#75 = PRODUCT_DEFINITION_CONTEXT ( 'detailed design', #247, 'design' ) ;
#76 = EDGE_LOOP ( 'NONE', ( #32, #286, #137, #156 ) ) ;
#77 = VERTEX_POINT ( 'NONE', #130 ) ;
#78 = VECTOR ( 'NONE', #250, 39.37007874015748143 ) ;
#79 = ORIENTED_EDGE ( 'NONE', *, *, #35, .T. ) ;
#80 = PRESENTATION_LAYER_ASSIGNMENT (  '', '', ( #148 ) ) ;
#81 = VECTOR ( 'NONE', #52, 39.37007874015748143 ) ;
#82 = FACE_OUTER_BOUND ( 'NONE', #149, .T. ) ;
#83 = EDGE_CURVE ( 'NONE', #77, #181, #173, .T. ) ;
#84 = PRESENTATION_STYLE_ASSIGNMENT (( #167 ) ) ;
#85 = CARTESIAN_POINT ( 'NONE',  ( 0.0000000000000000000, 0.0000000000000000000, 1.500000000000000222 ) ) ;
#86 = CARTESIAN_POINT ( 'NONE',  ( 0.0000000000000000000, 0.0000000000000000000, 0.0000000000000000000 ) ) ;
#87 = CARTESIAN_POINT ( 'NONE',  ( -0.008491500000000004253, 0.0000000000000000000, 2.079817658991951660E-18 ) ) ;
#88 = DIRECTION ( 'NONE',  ( 1.224646799147353700E-16, 0.0000000000000000000, 1.000000000000000000 ) ) ;
#89 = AXIS2_PLACEMENT_3D ( 'NONE', #107, #88, #147 ) ;
#90 = CARTESIAN_POINT ( 'NONE',  ( 0.06250000000000002776, 7.654042494670959086E-18, 1.500000000000000222 ) ) ;
#91 = DIRECTION ( 'NONE',  ( -1.000000000000000000, 0.0000000000000000000, 1.224646799147353700E-16 ) ) ;
#92 =( NAMED_UNIT ( * ) PLANE_ANGLE_UNIT ( ) SI_UNIT ( $, .RADIAN. ) );
#93 = FILL_AREA_STYLE_COLOUR ( '', #292 ) ;
#94 = ORIENTED_EDGE ( 'NONE', *, *, #188, .F. ) ;
#95 = VERTEX_POINT ( 'NONE', #47 ) ;
#96 = ORIENTED_EDGE ( 'NONE', *, *, #285, .T. ) ;
#97 = DIRECTION ( 'NONE',  ( -1.000000000000000000, 0.0000000000000000000, 1.224646799147353700E-16 ) ) ;
#98 = CONICAL_SURFACE ( 'NONE', #187, 0.008491499999999999049, 0.1745329251994338637 ) ;
#99 = CIRCLE ( 'NONE', #59, 0.06250000000000002776 ) ;
#100 = CYLINDRICAL_SURFACE ( 'NONE', #265, 0.06250000000000002776 ) ;
#101 = ORIENTED_EDGE ( 'NONE', *, *, #252, .T. ) ;
#102 = VERTEX_POINT ( 'NONE', #87 ) ;
#103 = DIRECTION ( 'NONE',  ( 1.000000000000000000, 0.0000000000000000000, 0.0000000000000000000 ) ) ;
#104 = ADVANCED_FACE ( 'NONE', ( #216 ), #67, .T. ) ;
#105 = AXIS2_PLACEMENT_3D ( 'NONE', #70, #272, #297 ) ;
#106 = VECTOR ( 'NONE', #220, 39.37007874015748854 ) ;
#107 = CARTESIAN_POINT ( 'NONE',  ( 3.061616997868384713E-18, 0.0000000000000000000, 0.02500000000000000139 ) ) ;
#108 = AXIS2_PLACEMENT_3D ( 'NONE', #124, #194, #91 ) ;
#109 = CARTESIAN_POINT ( 'NONE',  ( 0.008491500000000002518, 1.039908829495975252E-18, -1.039908829495975638E-18 ) ) ;
#110 = CARTESIAN_POINT ( 'NONE',  ( 0.0000000000000000000, 0.0000000000000000000, 0.0000000000000000000 ) ) ;
#111 = DIRECTION ( 'NONE',  ( 1.000000000000000000, 0.0000000000000000000, 0.0000000000000000000 ) ) ;
#112 = CARTESIAN_POINT ( 'NONE',  ( 0.008491500000000002518, 0.0000000000000000000, 0.02500000000000000139 ) ) ;
#113 = MECHANICAL_DESIGN_GEOMETRIC_PRESENTATION_REPRESENTATION (  '', ( #125 ), #12 ) ;
#114 = FACE_OUTER_BOUND ( 'NONE', #76, .T. ) ;
#115 = EDGE_CURVE ( 'NONE', #77, #116, #192, .T. ) ;
#116 = VERTEX_POINT ( 'NONE', #151 ) ;
#117 = ORIENTED_EDGE ( 'NONE', *, *, #172, .F. ) ;
#118 = ORIENTED_EDGE ( 'NONE', *, *, #83, .F. ) ;
#119 = AXIS2_PLACEMENT_3D ( 'NONE', #14, #185, #238 ) ;
#120 = ORIENTED_EDGE ( 'NONE', *, *, #158, .T. ) ;
#121 = VECTOR ( 'NONE', #168, 39.37007874015748143 ) ;
#122 = PRESENTATION_LAYER_ASSIGNMENT (  '', '', ( #125 ) ) ;
#123 = ORIENTED_EDGE ( 'NONE', *, *, #146, .T. ) ;
#124 = CARTESIAN_POINT ( 'NONE',  ( 0.0000000000000000000, 0.0000000000000000000, 0.0000000000000000000 ) ) ;
#125 = STYLED_ITEM ( 'NONE', ( #203 ), #224 ) ;
#126 = SHAPE_DEFINITION_REPRESENTATION ( #197, #139 ) ;
#127 = FACE_OUTER_BOUND ( 'NONE', #159, .T. ) ;
#128 = CARTESIAN_POINT ( 'NONE',  ( 0.0000000000000000000, 0.0000000000000000000, 1.485000000000000764 ) ) ;
#129 = CARTESIAN_POINT ( 'NONE',  ( 0.0000000000000000000, 0.0000000000000000000, 1.500000000000000222 ) ) ;
#130 = CARTESIAN_POINT ( 'NONE',  ( 0.008491500000000002518, 0.0000000000000000000, 0.02500000000000000139 ) ) ;
#131 = DIRECTION ( 'NONE',  ( 1.000000000000000000, 0.0000000000000000000, 0.0000000000000000000 ) ) ;
#132 = CIRCLE ( 'NONE', #180, 0.008491499999999999049 ) ;
#133 = ADVANCED_FACE ( 'NONE', ( #127 ), #213, .T. ) ;
#134 = DIRECTION ( 'NONE',  ( -1.224646799147353700E-16, -0.0000000000000000000, -1.000000000000000000 ) ) ;
#135 = DIRECTION ( 'NONE',  ( 1.000000000000000000, 0.0000000000000000000, 0.0000000000000000000 ) ) ;
#136 = CARTESIAN_POINT ( 'NONE',  ( 1.273521019447318016E-34, 0.0000000000000000000, 1.039908829495975830E-18 ) ) ;
#137 = ORIENTED_EDGE ( 'NONE', *, *, #285, .F. ) ;
#138 = SURFACE_STYLE_FILL_AREA ( #212 ) ;
#139 = ADVANCED_BREP_SHAPE_REPRESENTATION ( 'Micro_SME-017-2', ( #224, #230 ), #2 ) ;
#140 = FACE_OUTER_BOUND ( 'NONE', #55, .T. ) ;
#141 = DIMENSIONAL_EXPONENTS ( 1.000000000000000000, 0.0000000000000000000, 0.0000000000000000000, 0.0000000000000000000, 0.0000000000000000000, 0.0000000000000000000, 0.0000000000000000000 ) ;
#142 =( NAMED_UNIT ( * ) PLANE_ANGLE_UNIT ( ) SI_UNIT ( $, .RADIAN. ) );
#143 = DIRECTION ( 'NONE',  ( -1.000000000000000000, 0.0000000000000000000, 1.224646799147353700E-16 ) ) ;
#144 = ORIENTED_EDGE ( 'NONE', *, *, #188, .T. ) ;
#145 = FILL_AREA_STYLE ('',( #20 ) ) ;
#146 = EDGE_CURVE ( 'NONE', #95, #234, #17, .T. ) ;
#147 = DIRECTION ( 'NONE',  ( 1.000000000000000000, 0.0000000000000000000, 0.0000000000000000000 ) ) ;
#148 = STYLED_ITEM ( 'NONE', ( #84 ), #139 ) ;
#149 = EDGE_LOOP ( 'NONE', ( #96, #264 ) ) ;
#150 = DIRECTION ( 'NONE',  ( -0.1736481776669311639, 2.126576849575783008E-17, 0.9848077530122080203 ) ) ;
#151 = CARTESIAN_POINT ( 'NONE',  ( 0.06250000000000006939, 7.654042494670963708E-18, 0.3312974241548216070 ) ) ;
#152 = CARTESIAN_POINT ( 'NONE',  ( -0.06250000000000002776, 0.0000000000000000000, 1.500000000000000222 ) ) ;
#153 = DIRECTION ( 'NONE',  ( 0.0000000000000000000, 0.0000000000000000000, 1.000000000000000000 ) ) ;
#154 = EDGE_LOOP ( 'NONE', ( #280, #144, #184, #276 ) ) ;
#155 =( LENGTH_UNIT ( ) NAMED_UNIT ( * ) SI_UNIT ( $, .METRE. ) );
#156 = ORIENTED_EDGE ( 'NONE', *, *, #274, .F. ) ;
#157 =( CONVERSION_BASED_UNIT ( 'INCH', #74 ) LENGTH_UNIT ( ) NAMED_UNIT ( #294 ) );
#158 = EDGE_CURVE ( 'NONE', #234, #116, #44, .T. ) ;
#159 = EDGE_LOOP ( 'NONE', ( #177, #243, #34, #259 ) ) ;
#160 = EDGE_CURVE ( 'NONE', #95, #255, #45, .T. ) ;
#161 = CARTESIAN_POINT ( 'NONE',  ( 0.0000000000000000000, 0.0000000000000000000, 1.500000000000000222 ) ) ;
#162 = AXIS2_PLACEMENT_3D ( 'NONE', #129, #7, #103 ) ;
#163 =( CONVERSION_BASED_UNIT ( 'INCH', #253 ) LENGTH_UNIT ( ) NAMED_UNIT ( #141 ) );
#164 = CARTESIAN_POINT ( 'NONE',  ( -0.06249999999999997918, 0.0000000000000000000, 0.3312974241548216070 ) ) ;
#165 = MECHANICAL_DESIGN_GEOMETRIC_PRESENTATION_REPRESENTATION (  '', ( #148 ), #262 ) ;
#166 = DIRECTION ( 'NONE',  ( -1.224646799147353700E-16, -0.0000000000000000000, -1.000000000000000000 ) ) ;
#167 = SURFACE_STYLE_USAGE ( .BOTH. , #217 ) ;
#168 = DIRECTION ( 'NONE',  ( -0.0000000000000000000, -0.0000000000000000000, -1.000000000000000000 ) ) ;
#169 = AXIS2_PLACEMENT_3D ( 'NONE', #225, #153, #281 ) ;
#170 = FACE_OUTER_BOUND ( 'NONE', #53, .T. ) ;
#171 = DIRECTION ( 'NONE',  ( 0.7071067811865462405, 8.659560562354916834E-17, -0.7071067811865486830 ) ) ;
#172 = EDGE_CURVE ( 'NONE', #209, #255, #61, .T. ) ;
#173 = LINE ( 'NONE', #109, #5 ) ;
#174 = PLANE ( 'NONE',  #287 ) ;
#175 = ORIENTED_EDGE ( 'NONE', *, *, #35, .F. ) ;
#176 = ADVANCED_FACE ( 'NONE', ( #170 ), #98, .T. ) ;
#177 = ORIENTED_EDGE ( 'NONE', *, *, #183, .F. ) ;
#178 = CARTESIAN_POINT ( 'NONE',  ( 4.057223300569654464E-17, 0.0000000000000000000, 0.3312974241548216070 ) ) ;
#179 = AXIS2_PLACEMENT_3D ( 'NONE', #219, #24, #143 ) ;
#180 = AXIS2_PLACEMENT_3D ( 'NONE', #277, #134, #275 ) ;
#181 = VERTEX_POINT ( 'NONE', #222 ) ;
#182 = DIRECTION ( 'NONE',  ( 0.0000000000000000000, 0.0000000000000000000, -1.000000000000000000 ) ) ;
#183 = EDGE_CURVE ( 'NONE', #209, #77, #282, .T. ) ;
#184 = ORIENTED_EDGE ( 'NONE', *, *, #146, .F. ) ;
#185 = DIRECTION ( 'NONE',  ( 0.0000000000000000000, 0.0000000000000000000, 1.000000000000000000 ) ) ;
#186 = CARTESIAN_POINT ( 'NONE',  ( 4.057223300569654464E-17, 0.0000000000000000000, 0.3312974241548216070 ) ) ;
#187 = AXIS2_PLACEMENT_3D ( 'NONE', #4, #3, #131 ) ;
#188 = EDGE_CURVE ( 'NONE', #9, #234, #268, .T. ) ;
#189 = CARTESIAN_POINT ( 'NONE',  ( -0.008491499999999995579, 4.346975662083468132E-18, 0.02500000000000000139 ) ) ;
#190 =( CONVERSION_BASED_UNIT ( 'INCH', #296 ) LENGTH_UNIT ( ) NAMED_UNIT ( #211 ) );
#191 = CYLINDRICAL_SURFACE ( 'NONE', #108, 0.008491500000000002518 ) ;
#192 = LINE ( 'NONE', #112, #269 ) ;
#193 = DIRECTION ( 'NONE',  ( 0.1736481776669313581, 0.0000000000000000000, 0.9848077530122077983 ) ) ;
#194 = DIRECTION ( 'NONE',  ( -1.224646799147353700E-16, -0.0000000000000000000, -1.000000000000000000 ) ) ;
#195 = CARTESIAN_POINT ( 'NONE',  ( 0.0000000000000000000, 0.0000000000000000000, 0.0000000000000000000 ) ) ;
#196 =( NAMED_UNIT ( * ) SI_UNIT ( $, .STERADIAN. ) SOLID_ANGLE_UNIT ( ) );
#197 = PRODUCT_DEFINITION_SHAPE ( 'NONE', 'NONE',  #215 ) ;
#198 = ADVANCED_FACE ( 'NONE', ( #114 ), #191, .T. ) ;
#199 = ORIENTED_EDGE ( 'NONE', *, *, #274, .T. ) ;
#200 = DIRECTION ( 'NONE',  ( 0.0000000000000000000, 0.0000000000000000000, 1.000000000000000000 ) ) ;
#201 = EDGE_LOOP ( 'NONE', ( #79, #254 ) ) ;
#202 = ORIENTED_EDGE ( 'NONE', *, *, #298, .T. ) ;
#203 = PRESENTATION_STYLE_ASSIGNMENT (( #29 ) ) ;
#204 = CARTESIAN_POINT ( 'NONE',  ( 0.0000000000000000000, 0.0000000000000000000, 1.500000000000000222 ) ) ;
#205 = CLOSED_SHELL ( 'NONE', ( #198, #133, #73, #60, #13, #214, #22, #176, #104, #237 ) ) ;
#206 = CIRCLE ( 'NONE', #71, 0.008491500000000004253 ) ;
#207 = ORIENTED_EDGE ( 'NONE', *, *, #115, .T. ) ;
#208 = APPLICATION_CONTEXT ( 'automotive_design' ) ;
#209 = VERTEX_POINT ( 'NONE', #189 ) ;
#210 = ORIENTED_EDGE ( 'NONE', *, *, #232, .F. ) ;
#211 = DIMENSIONAL_EXPONENTS ( 1.000000000000000000, 0.0000000000000000000, 0.0000000000000000000, 0.0000000000000000000, 0.0000000000000000000, 0.0000000000000000000, 0.0000000000000000000 ) ;
#212 = FILL_AREA_STYLE ('',( #93 ) ) ;
#213 = CONICAL_SURFACE ( 'NONE', #89, 0.008491499999999999049, 0.1745329251994338637 ) ;
#214 = ADVANCED_FACE ( 'NONE', ( #295 ), #266, .T. ) ;
#215 = PRODUCT_DEFINITION ( 'UNKNOWN', '', #270, #75 ) ;
#216 = FACE_OUTER_BOUND ( 'NONE', #279, .T. ) ;
#217 = SURFACE_SIDE_STYLE ('',( #23 ) ) ;
#218 = DIRECTION ( 'NONE',  ( -1.000000000000000000, 0.0000000000000000000, 0.0000000000000000000 ) ) ;
#219 = CARTESIAN_POINT ( 'NONE',  ( 1.273521019447318016E-34, 0.0000000000000000000, 1.039908829495975830E-18 ) ) ;
#220 = DIRECTION ( 'NONE',  ( -0.7071067811865462405, 0.0000000000000000000, -0.7071067811865486830 ) ) ;
#221 = AXIS2_PLACEMENT_3D ( 'NONE', #178, #48, #135 ) ;
#222 = CARTESIAN_POINT ( 'NONE',  ( 0.008491500000000004253, 1.039908829495975445E-18, 0.0000000000000000000 ) ) ;
#223 =( LENGTH_UNIT ( ) NAMED_UNIT ( * ) SI_UNIT ( $, .METRE. ) );
#224 = MANIFOLD_SOLID_BREP ( 'Cut-Revolve1', #205 ) ;
#225 = CARTESIAN_POINT ( 'NONE',  ( 0.0000000000000000000, 0.0000000000000000000, 1.500000000000000222 ) ) ;
#226 = DIRECTION ( 'NONE',  ( -1.224646799147353700E-16, -0.0000000000000000000, -1.000000000000000000 ) ) ;
#227 = CIRCLE ( 'NONE', #179, 0.008491500000000004253 ) ;
#228 = CIRCLE ( 'NONE', #221, 0.06250000000000002776 ) ;
#229 = ORIENTED_EDGE ( 'NONE', *, *, #160, .F. ) ;
#230 = AXIS2_PLACEMENT_3D ( 'NONE', #86, #244, #18 ) ;
#231 = CARTESIAN_POINT ( 'NONE',  ( 0.06250000000000002776, 7.654042494670959086E-18, 1.485000000000000764 ) ) ;
#232 = EDGE_CURVE ( 'NONE', #255, #116, #99, .T. ) ;
#233 = ORIENTED_EDGE ( 'NONE', *, *, #158, .F. ) ;
#234 = VERTEX_POINT ( 'NONE', #231 ) ;
#235 = ORIENTED_EDGE ( 'NONE', *, *, #252, .F. ) ;
#236 =( NAMED_UNIT ( * ) SI_UNIT ( $, .STERADIAN. ) SOLID_ANGLE_UNIT ( ) );
#237 = ADVANCED_FACE ( 'NONE', ( #82 ), #174, .F. ) ;
#238 = DIRECTION ( 'NONE',  ( 1.000000000000000000, 0.0000000000000000000, 0.0000000000000000000 ) ) ;
#239 = CONICAL_SURFACE ( 'NONE', #64, 0.04750000000000064587, 0.7853981633974466137 ) ;
#240 = APPLICATION_PROTOCOL_DEFINITION ( 'draft international standard', 'automotive_design', 1998, #208 ) ;
#241 = PRODUCT_CONTEXT ( 'NONE', #208, 'mechanical' ) ;
#242 = CYLINDRICAL_SURFACE ( 'NONE', #245, 0.06250000000000002776 ) ;
#243 = ORIENTED_EDGE ( 'NONE', *, *, #172, .T. ) ;
#244 = DIRECTION ( 'NONE',  ( 0.0000000000000000000, 0.0000000000000000000, 1.000000000000000000 ) ) ;
#245 = AXIS2_PLACEMENT_3D ( 'NONE', #85, #26, #218 ) ;
#246 = CARTESIAN_POINT ( 'NONE',  ( 0.0000000000000000000, 0.0000000000000000000, 1.485000000000000764 ) ) ;
#247 = APPLICATION_CONTEXT ( 'automotive_design' ) ;
#248 = DIRECTION ( 'NONE',  ( -1.000000000000000000, 0.0000000000000000000, 0.0000000000000000000 ) ) ;
#249 = PRODUCT_RELATED_PRODUCT_CATEGORY ( 'part', '', ( #25 ) ) ;
#250 = DIRECTION ( 'NONE',  ( -0.0000000000000000000, -0.0000000000000000000, -1.000000000000000000 ) ) ;
#251 = DIRECTION ( 'NONE',  ( 0.0000000000000000000, 0.0000000000000000000, -1.000000000000000000 ) ) ;
#252 = EDGE_CURVE ( 'NONE', #77, #209, #132, .T. ) ;
#253 = LENGTH_MEASURE_WITH_UNIT ( LENGTH_MEASURE( 0.02539999999999999897 ), #223 );
#254 = ORIENTED_EDGE ( 'NONE', *, *, #10, .T. ) ;
#255 = VERTEX_POINT ( 'NONE', #164 ) ;
#256 = ORIENTED_EDGE ( 'NONE', *, *, #49, .T. ) ;
#257 = DIRECTION ( 'NONE',  ( 1.000000000000000000, 0.0000000000000000000, -0.0000000000000000000 ) ) ;
#258 = UNCERTAINTY_MEASURE_WITH_UNIT (LENGTH_MEASURE( 1.000000000000000082E-05 ), #163, 'distance_accuracy_value', 'NONE');
#259 = ORIENTED_EDGE ( 'NONE', *, *, #115, .F. ) ;
#260 = DIRECTION ( 'NONE',  ( -1.224646799147353700E-16, -0.0000000000000000000, -1.000000000000000000 ) ) ;
#261 = AXIS2_PLACEMENT_3D ( 'NONE', #246, #251, #21 ) ;
#262 =( GEOMETRIC_REPRESENTATION_CONTEXT ( 3 ) GLOBAL_UNCERTAINTY_ASSIGNED_CONTEXT ( ( #278 ) ) GLOBAL_UNIT_ASSIGNED_CONTEXT ( ( #190, #142, #293 ) ) REPRESENTATION_CONTEXT ( 'NONE', 'WORKASPACE' ) );
#263 = CARTESIAN_POINT ( 'NONE',  ( 0.04750000000000064587, 6.735557395310483192E-18, 1.500000000000000222 ) ) ;
#264 = ORIENTED_EDGE ( 'NONE', *, *, #57, .T. ) ;
#265 = AXIS2_PLACEMENT_3D ( 'NONE', #161, #16, #38 ) ;
#266 = PLANE ( 'NONE',  #169 ) ;
#267 = APPLICATION_PROTOCOL_DEFINITION ( 'draft international standard', 'automotive_design', 1998, #247 ) ;
#268 = LINE ( 'NONE', #19, #43 ) ;
#269 = VECTOR ( 'NONE', #193, 39.37007874015748143 ) ;
#270 = PRODUCT_DEFINITION_FORMATION_WITH_SPECIFIED_SOURCE ( 'ANY', '', #25, .NOT_KNOWN. ) ;
#271 = CARTESIAN_POINT ( 'NONE',  ( 3.061616997868384713E-18, 0.0000000000000000000, 0.02500000000000000139 ) ) ;
#272 = DIRECTION ( 'NONE',  ( 0.0000000000000000000, 0.0000000000000000000, -1.000000000000000000 ) ) ;
#273 = DIRECTION ( 'NONE',  ( -1.224646799147353700E-16, -0.0000000000000000000, -1.000000000000000000 ) ) ;
#274 = EDGE_CURVE ( 'NONE', #209, #102, #11, .T. ) ;
#275 = DIRECTION ( 'NONE',  ( -1.000000000000000000, 0.0000000000000000000, 0.0000000000000000000 ) ) ;
#276 = ORIENTED_EDGE ( 'NONE', *, *, #49, .F. ) ;
#277 = CARTESIAN_POINT ( 'NONE',  ( 3.061616997868384713E-18, 0.0000000000000000000, 0.02500000000000000139 ) ) ;
#278 = UNCERTAINTY_MEASURE_WITH_UNIT (LENGTH_MEASURE( 1.000000000000000082E-05 ), #190, 'distance_accuracy_value', 'NONE');
#279 = EDGE_LOOP ( 'NONE', ( #118, #101, #199, #284 ) ) ;
#280 = ORIENTED_EDGE ( 'NONE', *, *, #10, .F. ) ;
#281 = DIRECTION ( 'NONE',  ( 1.000000000000000000, 0.0000000000000000000, -0.0000000000000000000 ) ) ;
#282 = CIRCLE ( 'NONE', #39, 0.008491499999999999049 ) ;
#283 = VERTEX_POINT ( 'NONE', #8 ) ;
#284 = ORIENTED_EDGE ( 'NONE', *, *, #57, .F. ) ;
#285 = EDGE_CURVE ( 'NONE', #102, #181, #206, .T. ) ;
#286 = ORIENTED_EDGE ( 'NONE', *, *, #83, .T. ) ;
#287 = AXIS2_PLACEMENT_3D ( 'NONE', #195, #200, #257 ) ;
#288 = DIRECTION ( 'NONE',  ( 1.000000000000000000, 0.0000000000000000000, 0.0000000000000000000 ) ) ;
#289 = ORIENTED_EDGE ( 'NONE', *, *, #160, .T. ) ;
#290 =( LENGTH_UNIT ( ) NAMED_UNIT ( * ) SI_UNIT ( $, .METRE. ) );
#291 = AXIS2_PLACEMENT_3D ( 'NONE', #128, #37, #111 ) ;
#292 = COLOUR_RGB ( '',0.7921568627450980005, 0.8196078431372548767, 0.9333333333333333481 ) ;
#293 =( NAMED_UNIT ( * ) SI_UNIT ( $, .STERADIAN. ) SOLID_ANGLE_UNIT ( ) );
#294 = DIMENSIONAL_EXPONENTS ( 1.000000000000000000, 0.0000000000000000000, 0.0000000000000000000, 0.0000000000000000000, 0.0000000000000000000, 0.0000000000000000000, 0.0000000000000000000 ) ;
#295 = FACE_OUTER_BOUND ( 'NONE', #201, .T. ) ;
#296 = LENGTH_MEASURE_WITH_UNIT ( LENGTH_MEASURE( 0.02539999999999999897 ), #290 );
#297 = DIRECTION ( 'NONE',  ( -1.000000000000000000, 0.0000000000000000000, 0.0000000000000000000 ) ) ;
#298 = EDGE_CURVE ( 'NONE', #116, #255, #228, .T. ) ;
#299 = DIRECTION ( 'NONE',  ( -1.224646799147353700E-16, -0.0000000000000000000, -1.000000000000000000 ) ) ;
ENDSEC;
END-ISO-10303-21;
