ISO-10303-21;
HEADER;
FILE_DESCRIPTION (( 'STEP AP214' ),
    '1' );
FILE_NAME ('83782.STEP',
    '2023-07-05T16:05:08',
    ( '' ),
    ( '' ),
    'SwSTEP 2.0',
    'SolidWorks 2023',
    '' );
FILE_SCHEMA (( 'AUTOMOTIVE_DESIGN' ));
ENDSEC;

DATA;
#1 = CIRCLE ( 'NONE', #224, 0.09374999999999984734 ) ;
#2 = FILL_AREA_STYLE ('',( #142 ) ) ;
#3 = UNCERTAINTY_MEASURE_WITH_UNIT (LENGTH_MEASURE( 1.000000000000000082E-05 ), #143, 'distance_accuracy_value', 'NONE');
#4 = FACE_OUTER_BOUND ( 'NONE', #31, .T. ) ;
#5 = MANIFOLD_SOLID_BREP ( 'Revolve - Tool Body (Pointed)', #228 ) ;
#6 = LENGTH_MEASURE_WITH_UNIT ( LENGTH_MEASURE( 0.02539999999999999897 ), #265 );
#7 = MECHANICAL_DESIGN_GEOMETRIC_PRESENTATION_REPRESENTATION (  '', ( #64 ), #70 ) ;
#8 = DIRECTION ( 'NONE',  ( 1.215897659961753384E-16, -1.000000000000000000, 0.000000000000000000 ) ) ;
#9 = ORIENTED_EDGE ( 'NONE', *, *, #248, .T. ) ;
#10 = CARTESIAN_POINT ( 'NONE',  ( 1.148106374200643401E-17, 0.1623797632095817789, -0.09374999999999998612 ) ) ;
#11 = STYLED_ITEM ( 'NONE', ( #131 ), #5 ) ;
#12 = PRESENTATION_LAYER_ASSIGNMENT (  '', '', ( #119 ) ) ;
#13 = LINE ( 'NONE', #35, #211 ) ;
#14 = CARTESIAN_POINT ( 'NONE',  ( 0.09374999999999987510, 2.000000000000000000, 1.148106374200642938E-17 ) ) ;
#15 = EDGE_LOOP ( 'NONE', ( #181, #122 ) ) ;
#16 =( GEOMETRIC_REPRESENTATION_CONTEXT ( 3 ) GLOBAL_UNCERTAINTY_ASSIGNED_CONTEXT ( ( #3 ) ) GLOBAL_UNIT_ASSIGNED_CONTEXT ( ( #143, #38, #183 ) ) REPRESENTATION_CONTEXT ( 'NONE', 'WORKASPACE' ) );
#17 =( NAMED_UNIT ( * ) PLANE_ANGLE_UNIT ( ) SI_UNIT ( $, .RADIAN. ) );
#18 = FILL_AREA_STYLE_COLOUR ( '', #196 ) ;
#19 = CARTESIAN_POINT ( 'NONE',  ( -0.09375000000000001388, 2.000000000000000000, 0.000000000000000000 ) ) ;
#20 = ADVANCED_FACE ( 'NONE', ( #4 ), #140, .F. ) ;
#21 = SURFACE_STYLE_FILL_AREA ( #2 ) ;
#22 = DIRECTION ( 'NONE',  ( 0.000000000000000000, 1.000000000000000000, 0.000000000000000000 ) ) ;
#23 =( GEOMETRIC_REPRESENTATION_CONTEXT ( 3 ) GLOBAL_UNCERTAINTY_ASSIGNED_CONTEXT ( ( #99 ) ) GLOBAL_UNIT_ASSIGNED_CONTEXT ( ( #205, #17, #97 ) ) REPRESENTATION_CONTEXT ( 'NONE', 'WORKASPACE' ) );
#24 = CARTESIAN_POINT ( 'NONE',  ( 0.000000000000000000, 0.1623797632095817789, 0.09374999999999998612 ) ) ;
#25 = ADVANCED_FACE ( 'NONE', ( #101 ), #212, .T. ) ;
#26 = AXIS2_PLACEMENT_3D ( 'NONE', #90, #172, #218 ) ;
#27 = VECTOR ( 'NONE', #73, 39.37007874015748143 ) ;
#28 = DIRECTION ( 'NONE',  ( -0.000000000000000000, -1.000000000000000000, -0.000000000000000000 ) ) ;
#29 = ORIENTED_EDGE ( 'NONE', *, *, #75, .F. ) ;
#30 = CARTESIAN_POINT ( 'NONE',  ( 0.000000000000000000, 0.1623797632095817789, 0.000000000000000000 ) ) ;
#31 = EDGE_LOOP ( 'NONE', ( #54, #217 ) ) ;
#32 = CARTESIAN_POINT ( 'NONE',  ( 0.000000000000000000, 0.000000000000000000, 0.000000000000000000 ) ) ;
#33 = AXIS2_PLACEMENT_3D ( 'NONE', #182, #262, #163 ) ;
#34 = EDGE_LOOP ( 'NONE', ( #259, #116, #48, #157 ) ) ;
#35 = CARTESIAN_POINT ( 'NONE',  ( 0.000000000000000000, 0.000000000000000000, 0.000000000000000000 ) ) ;
#36 = CARTESIAN_POINT ( 'NONE',  ( 0.09374999999999998612, 0.1623797632095817234, 1.148106374200643863E-17 ) ) ;
#37 = COLOUR_RGB ( '',1.000000000000000000, 0.000000000000000000, 0.000000000000000000 ) ;
#38 =( NAMED_UNIT ( * ) PLANE_ANGLE_UNIT ( ) SI_UNIT ( $, .RADIAN. ) );
#39 = UNCERTAINTY_MEASURE_WITH_UNIT (LENGTH_MEASURE( 1.000000000000000082E-05 ), #209, 'distance_accuracy_value', 'NONE');
#40 = CARTESIAN_POINT ( 'NONE',  ( 0.000000000000000000, 39.37007874015748143, 0.000000000000000000 ) ) ;
#41 = FILL_AREA_STYLE ('',( #221 ) ) ;
#42 = AXIS2_PLACEMENT_3D ( 'NONE', #30, #117, #195 ) ;
#43 = ADVANCED_FACE ( 'NONE', ( #59 ), #71, .T. ) ;
#44 = PRODUCT_CONTEXT ( 'NONE', #130, 'mechanical' ) ;
#45 = EDGE_CURVE ( 'NONE', #56, #236, #104, .T. ) ;
#46 = CARTESIAN_POINT ( 'NONE',  ( 0.000000000000000000, 0.1623797632095817789, 0.000000000000000000 ) ) ;
#47 = AXIS2_PLACEMENT_3D ( 'NONE', #82, #22, #164 ) ;
#48 = ORIENTED_EDGE ( 'NONE', *, *, #210, .T. ) ;
#49 = DIRECTION ( 'NONE',  ( -1.000000000000000000, 0.000000000000000000, 0.000000000000000000 ) ) ;
#50 = SURFACE_STYLE_FILL_AREA ( #138 ) ;
#51 = ORIENTED_EDGE ( 'NONE', *, *, #175, .T. ) ;
#52 = PRODUCT_RELATED_PRODUCT_CATEGORY ( 'part', '', ( #109 ) ) ;
#53 =( NAMED_UNIT ( * ) PLANE_ANGLE_UNIT ( ) SI_UNIT ( $, .RADIAN. ) );
#54 = ORIENTED_EDGE ( 'NONE', *, *, #248, .F. ) ;
#55 = SURFACE_SIDE_STYLE ('',( #80 ) ) ;
#56 = VERTEX_POINT ( 'NONE', #220 ) ;
#57 = DIRECTION ( 'NONE',  ( 0.000000000000000000, 0.000000000000000000, 1.000000000000000000 ) ) ;
#58 = CARTESIAN_POINT ( 'NONE',  ( -0.09375000000000012490, 2.000000000000000000, 0.000000000000000000 ) ) ;
#59 = FACE_OUTER_BOUND ( 'NONE', #72, .T. ) ;
#60 = ADVANCED_FACE ( 'NONE', ( #173 ), #255, .T. ) ;
#61 = SURFACE_STYLE_FILL_AREA ( #184 ) ;
#62 = DIMENSIONAL_EXPONENTS ( 1.000000000000000000, 0.000000000000000000, 0.000000000000000000, 0.000000000000000000, 0.000000000000000000, 0.000000000000000000, 0.000000000000000000 ) ;
#63 = SURFACE_SIDE_STYLE ('',( #61 ) ) ;
#64 = STYLED_ITEM ( 'NONE', ( #247 ), #25 ) ;
#65 = MECHANICAL_DESIGN_GEOMETRIC_PRESENTATION_REPRESENTATION (  '', ( #119 ), #16 ) ;
#66 = LENGTH_MEASURE_WITH_UNIT ( LENGTH_MEASURE( 0.02539999999999999897 ), #204 );
#67 = EDGE_CURVE ( 'NONE', #200, #120, #1, .T. ) ;
#68 =( CONVERSION_BASED_UNIT ( 'INCH', #66 ) LENGTH_UNIT ( ) NAMED_UNIT ( #250 ) );
#69 = DIRECTION ( 'NONE',  ( 0.000000000000000000, 1.000000000000000000, 0.000000000000000000 ) ) ;
#70 =( GEOMETRIC_REPRESENTATION_CONTEXT ( 3 ) GLOBAL_UNCERTAINTY_ASSIGNED_CONTEXT ( ( #258 ) ) GLOBAL_UNIT_ASSIGNED_CONTEXT ( ( #148, #242, #244 ) ) REPRESENTATION_CONTEXT ( 'NONE', 'WORKASPACE' ) );
#71 = CONICAL_SURFACE ( 'NONE', #92, 22.73032555864674364, 0.5235987755983000369 ) ;
#72 = EDGE_LOOP ( 'NONE', ( #94, #194, #215 ) ) ;
#73 = DIRECTION ( 'NONE',  ( 6.123233995736778362E-17, 0.8660254037844380415, -0.5000000000000009992 ) ) ;
#74 = VERTEX_POINT ( 'NONE', #32 ) ;
#75 = EDGE_CURVE ( 'NONE', #74, #233, #13, .T. ) ;
#76 = DIRECTION ( 'NONE',  ( -1.215897659961753384E-16, 1.000000000000000000, -0.000000000000000000 ) ) ;
#77 = CLOSED_SHELL ( 'NONE', ( #25, #264, #43 ) ) ;
#78 = AXIS2_PLACEMENT_3D ( 'NONE', #135, #89, #159 ) ;
#79 = ORIENTED_EDGE ( 'NONE', *, *, #93, .T. ) ;
#80 = SURFACE_STYLE_FILL_AREA ( #261 ) ;
#81 = UNCERTAINTY_MEASURE_WITH_UNIT (LENGTH_MEASURE( 1.000000000000000082E-05 ), #227, 'distance_accuracy_value', 'NONE');
#82 = CARTESIAN_POINT ( 'NONE',  ( 0.000000000000000000, 0.1623797632095817789, 0.000000000000000000 ) ) ;
#83 = MECHANICAL_DESIGN_GEOMETRIC_PRESENTATION_REPRESENTATION (  '', ( #149 ), #23 ) ;
#84 = CARTESIAN_POINT ( 'NONE',  ( 1.622034746238156224E-16, 0.1623797632095817234, 0.000000000000000000 ) ) ;
#85 = DIRECTION ( 'NONE',  ( 0.000000000000000000, 0.000000000000000000, 1.000000000000000000 ) ) ;
#86 =( GEOMETRIC_REPRESENTATION_CONTEXT ( 3 ) GLOBAL_UNCERTAINTY_ASSIGNED_CONTEXT ( ( #222 ) ) GLOBAL_UNIT_ASSIGNED_CONTEXT ( ( #68, #53, #256 ) ) REPRESENTATION_CONTEXT ( 'NONE', 'WORKASPACE' ) );
#87 = APPLICATION_PROTOCOL_DEFINITION ( 'draft international standard', 'automotive_design', 1998, #130 ) ;
#88 = VECTOR ( 'NONE', #234, 39.37007874015748143 ) ;
#89 = DIRECTION ( 'NONE',  ( -1.215897659961753384E-16, 1.000000000000000000, -0.000000000000000000 ) ) ;
#90 = CARTESIAN_POINT ( 'NONE',  ( -6.123233995736763571E-17, 2.000000000000000000, 0.000000000000000000 ) ) ;
#91 = PLANE ( 'NONE',  #260 ) ;
#92 = AXIS2_PLACEMENT_3D ( 'NONE', #40, #69, #114 ) ;
#93 = EDGE_CURVE ( 'NONE', #74, #177, #174, .T. ) ;
#94 = ORIENTED_EDGE ( 'NONE', *, *, #93, .F. ) ;
#95 = FACE_OUTER_BOUND ( 'NONE', #155, .T. ) ;
#96 =( GEOMETRIC_REPRESENTATION_CONTEXT ( 3 ) GLOBAL_UNCERTAINTY_ASSIGNED_CONTEXT ( ( #81 ) ) GLOBAL_UNIT_ASSIGNED_CONTEXT ( ( #227, #187, #191 ) ) REPRESENTATION_CONTEXT ( 'NONE', 'WORKASPACE' ) );
#97 =( NAMED_UNIT ( * ) SI_UNIT ( $, .STERADIAN. ) SOLID_ANGLE_UNIT ( ) );
#98 = SURFACE_SIDE_STYLE ('',( #251 ) ) ;
#99 = UNCERTAINTY_MEASURE_WITH_UNIT (LENGTH_MEASURE( 1.000000000000000082E-05 ), #205, 'distance_accuracy_value', 'NONE');
#100 =( LENGTH_UNIT ( ) NAMED_UNIT ( * ) SI_UNIT ( $, .METRE. ) );
#101 = FACE_OUTER_BOUND ( 'NONE', #219, .T. ) ;
#102 = SURFACE_STYLE_USAGE ( .BOTH. , #127 ) ;
#103 = PRODUCT_DEFINITION ( 'UNKNOWN', '', #170, #105 ) ;
#104 = CIRCLE ( 'NONE', #26, 0.09375000000000005551 ) ;
#105 = PRODUCT_DEFINITION_CONTEXT ( 'detailed design', #207, 'design' ) ;
#106 = DIRECTION ( 'NONE',  ( 0.000000000000000000, 1.000000000000000000, 0.000000000000000000 ) ) ;
#107 = CARTESIAN_POINT ( 'NONE',  ( 0.000000000000000000, 0.000000000000000000, 0.000000000000000000 ) ) ;
#108 = SHAPE_DEFINITION_REPRESENTATION ( #171, #186 ) ;
#109 = PRODUCT ( '83782', '83782', '', ( #44 ) ) ;
#110 = ADVANCED_FACE ( 'NONE', ( #121 ), #237, .T. ) ;
#111 = PRESENTATION_LAYER_ASSIGNMENT (  '', '', ( #160 ) ) ;
#112 = COLOUR_RGB ( '',0.7921568627450980005, 0.8196078431372548767, 0.9333333333333333481 ) ;
#113 = PRESENTATION_LAYER_ASSIGNMENT (  '', '', ( #149 ) ) ;
#114 = DIRECTION ( 'NONE',  ( 0.000000000000000000, 0.000000000000000000, 1.000000000000000000 ) ) ;
#115 = LINE ( 'NONE', #14, #88 ) ;
#116 = ORIENTED_EDGE ( 'NONE', *, *, #67, .T. ) ;
#117 = DIRECTION ( 'NONE',  ( -0.000000000000000000, -1.000000000000000000, -0.000000000000000000 ) ) ;
#118 = EDGE_LOOP ( 'NONE', ( #9, #198, #240, #161 ) ) ;
#119 = STYLED_ITEM ( 'NONE', ( #263 ), #264 ) ;
#120 = VERTEX_POINT ( 'NONE', #232 ) ;
#121 = FACE_OUTER_BOUND ( 'NONE', #34, .T. ) ;
#122 = ORIENTED_EDGE ( 'NONE', *, *, #175, .F. ) ;
#123 = FACE_OUTER_BOUND ( 'NONE', #15, .T. ) ;
#124 =( GEOMETRIC_REPRESENTATION_CONTEXT ( 3 ) GLOBAL_UNCERTAINTY_ASSIGNED_CONTEXT ( ( #39 ) ) GLOBAL_UNIT_ASSIGNED_CONTEXT ( ( #209, #229, #166 ) ) REPRESENTATION_CONTEXT ( 'NONE', 'WORKASPACE' ) );
#125 = AXIS2_PLACEMENT_3D ( 'NONE', #214, #152, #137 ) ;
#126 = SURFACE_STYLE_USAGE ( .BOTH. , #249 ) ;
#127 = SURFACE_SIDE_STYLE ('',( #50 ) ) ;
#128 = SURFACE_STYLE_USAGE ( .BOTH. , #63 ) ;
#129 = EDGE_CURVE ( 'NONE', #236, #56, #245, .T. ) ;
#130 = APPLICATION_CONTEXT ( 'automotive_design' ) ;
#131 = PRESENTATION_STYLE_ASSIGNMENT (( #185 ) ) ;
#132 = MECHANICAL_DESIGN_GEOMETRIC_PRESENTATION_REPRESENTATION (  '', ( #11 ), #124 ) ;
#133 = COLOUR_RGB ( '',0.7921568627450980005, 0.8196078431372548767, 0.9333333333333333481 ) ;
#134 = DIRECTION ( 'NONE',  ( 0.000000000000000000, 0.8660254037844380415, 0.5000000000000009992 ) ) ;
#135 = CARTESIAN_POINT ( 'NONE',  ( -6.123233995736763571E-17, 2.000000000000000000, 0.000000000000000000 ) ) ;
#136 = ORIENTED_EDGE ( 'NONE', *, *, #45, .T. ) ;
#137 = DIRECTION ( 'NONE',  ( -1.000000000000000000, 0.000000000000000000, 0.000000000000000000 ) ) ;
#138 = FILL_AREA_STYLE ('',( #235 ) ) ;
#139 = ORIENTED_EDGE ( 'NONE', *, *, #129, .T. ) ;
#140 = PLANE ( 'NONE',  #33 ) ;
#141 = LENGTH_MEASURE_WITH_UNIT ( LENGTH_MEASURE( 0.02539999999999999897 ), #145 );
#142 = FILL_AREA_STYLE_COLOUR ( '', #192 ) ;
#143 =( CONVERSION_BASED_UNIT ( 'INCH', #243 ) LENGTH_UNIT ( ) NAMED_UNIT ( #168 ) );
#144 = EDGE_CURVE ( 'NONE', #233, #177, #165, .T. ) ;
#145 =( LENGTH_UNIT ( ) NAMED_UNIT ( * ) SI_UNIT ( $, .METRE. ) );
#146 = PLANE ( 'NONE',  #47 ) ;
#147 = CARTESIAN_POINT ( 'NONE',  ( 0.000000000000000000, 39.37007874015748143, 0.000000000000000000 ) ) ;
#148 =( CONVERSION_BASED_UNIT ( 'INCH', #6 ) LENGTH_UNIT ( ) NAMED_UNIT ( #208 ) );
#149 = STYLED_ITEM ( 'NONE', ( #241 ), #190 ) ;
#150 = EDGE_CURVE ( 'NONE', #200, #56, #115, .T. ) ;
#151 = DIRECTION ( 'NONE',  ( 1.000000000000000000, 0.000000000000000000, 0.000000000000000000 ) ) ;
#152 = DIRECTION ( 'NONE',  ( -1.215897659961753384E-16, 1.000000000000000000, -0.000000000000000000 ) ) ;
#153 = CIRCLE ( 'NONE', #42, 0.09374999999999998612 ) ;
#154 = CARTESIAN_POINT ( 'NONE',  ( 1.622034746238156224E-16, 0.1623797632095817234, 0.000000000000000000 ) ) ;
#155 = EDGE_LOOP ( 'NONE', ( #139, #136 ) ) ;
#156 = LINE ( 'NONE', #19, #180 ) ;
#157 = ORIENTED_EDGE ( 'NONE', *, *, #45, .F. ) ;
#158 = ADVANCED_FACE ( 'NONE', ( #95 ), #91, .F. ) ;
#159 = DIRECTION ( 'NONE',  ( -1.000000000000000000, 0.000000000000000000, 0.000000000000000000 ) ) ;
#160 = STYLED_ITEM ( 'NONE', ( #201 ), #43 ) ;
#161 = ORIENTED_EDGE ( 'NONE', *, *, #210, .F. ) ;
#162 = FILL_AREA_STYLE_COLOUR ( '', #37 ) ;
#163 = DIRECTION ( 'NONE',  ( -1.000000000000000000, -1.215897659961753384E-16, 0.000000000000000000 ) ) ;
#164 = DIRECTION ( 'NONE',  ( 0.000000000000000000, -0.000000000000000000, 1.000000000000000000 ) ) ;
#165 = CIRCLE ( 'NONE', #253, 0.09374999999999998612 ) ;
#166 =( NAMED_UNIT ( * ) SI_UNIT ( $, .STERADIAN. ) SOLID_ANGLE_UNIT ( ) );
#167 = LENGTH_MEASURE_WITH_UNIT ( LENGTH_MEASURE( 0.02539999999999999897 ), #246 );
#168 = DIMENSIONAL_EXPONENTS ( 1.000000000000000000, 0.000000000000000000, 0.000000000000000000, 0.000000000000000000, 0.000000000000000000, 0.000000000000000000, 0.000000000000000000 ) ;
#169 = APPLICATION_PROTOCOL_DEFINITION ( 'draft international standard', 'automotive_design', 1998, #207 ) ;
#170 = PRODUCT_DEFINITION_FORMATION_WITH_SPECIFIED_SOURCE ( 'ANY', '', #109, .NOT_KNOWN. ) ;
#171 = PRODUCT_DEFINITION_SHAPE ( 'NONE', 'NONE',  #103 ) ;
#172 = DIRECTION ( 'NONE',  ( -1.215897659961753384E-16, 1.000000000000000000, -0.000000000000000000 ) ) ;
#173 = FACE_OUTER_BOUND ( 'NONE', #118, .T. ) ;
#174 = LINE ( 'NONE', #257, #27 ) ;
#175 = EDGE_CURVE ( 'NONE', #177, #233, #153, .T. ) ;
#176 = CARTESIAN_POINT ( 'NONE',  ( -6.123233995736763571E-17, 2.000000000000000000, 0.000000000000000000 ) ) ;
#177 = VERTEX_POINT ( 'NONE', #10 ) ;
#178 = MECHANICAL_DESIGN_GEOMETRIC_PRESENTATION_REPRESENTATION (  '', ( #160 ), #86 ) ;
#179 = CIRCLE ( 'NONE', #231, 0.09374999999999984734 ) ;
#180 = VECTOR ( 'NONE', #225, 39.37007874015748143 ) ;
#181 = ORIENTED_EDGE ( 'NONE', *, *, #144, .F. ) ;
#182 = CARTESIAN_POINT ( 'NONE',  ( 1.622034746238156224E-16, 0.1623797632095817789, 0.000000000000000000 ) ) ;
#183 =( NAMED_UNIT ( * ) SI_UNIT ( $, .STERADIAN. ) SOLID_ANGLE_UNIT ( ) );
#184 = FILL_AREA_STYLE ('',( #18 ) ) ;
#185 = SURFACE_STYLE_USAGE ( .BOTH. , #98 ) ;
#186 = ADVANCED_BREP_SHAPE_REPRESENTATION ( '83782', ( #190, #5, #206 ), #96 ) ;
#187 =( NAMED_UNIT ( * ) PLANE_ANGLE_UNIT ( ) SI_UNIT ( $, .RADIAN. ) );
#188 = LENGTH_MEASURE_WITH_UNIT ( LENGTH_MEASURE( 0.02539999999999999897 ), #189 );
#189 =( LENGTH_UNIT ( ) NAMED_UNIT ( * ) SI_UNIT ( $, .METRE. ) );
#190 = MANIFOLD_SOLID_BREP ( 'Revolve - Cutting Edge', #77 ) ;
#191 =( NAMED_UNIT ( * ) SI_UNIT ( $, .STERADIAN. ) SOLID_ANGLE_UNIT ( ) );
#192 = COLOUR_RGB ( '',1.000000000000000000, 0.000000000000000000, 0.000000000000000000 ) ;
#193 = CARTESIAN_POINT ( 'NONE',  ( 0.09374999999999998612, 2.000000000000000000, 0.000000000000000000 ) ) ;
#194 = ORIENTED_EDGE ( 'NONE', *, *, #75, .T. ) ;
#195 = DIRECTION ( 'NONE',  ( 0.000000000000000000, 0.000000000000000000, -1.000000000000000000 ) ) ;
#196 = COLOUR_RGB ( '',1.000000000000000000, 0.000000000000000000, 0.000000000000000000 ) ;
#197 = AXIS2_PLACEMENT_3D ( 'NONE', #176, #76, #199 ) ;
#198 = ORIENTED_EDGE ( 'NONE', *, *, #150, .T. ) ;
#199 = DIRECTION ( 'NONE',  ( -1.000000000000000000, 0.000000000000000000, 0.000000000000000000 ) ) ;
#200 = VERTEX_POINT ( 'NONE', #36 ) ;
#201 = PRESENTATION_STYLE_ASSIGNMENT (( #126 ) ) ;
#202 = DIRECTION ( 'NONE',  ( -1.215897659961753384E-16, 1.000000000000000000, -0.000000000000000000 ) ) ;
#203 = SURFACE_STYLE_USAGE ( .BOTH. , #55 ) ;
#204 =( LENGTH_UNIT ( ) NAMED_UNIT ( * ) SI_UNIT ( $, .METRE. ) );
#205 =( CONVERSION_BASED_UNIT ( 'INCH', #141 ) LENGTH_UNIT ( ) NAMED_UNIT ( #226 ) );
#206 = AXIS2_PLACEMENT_3D ( 'NONE', #107, #85, #151 ) ;
#207 = APPLICATION_CONTEXT ( 'automotive_design' ) ;
#208 = DIMENSIONAL_EXPONENTS ( 1.000000000000000000, 0.000000000000000000, 0.000000000000000000, 0.000000000000000000, 0.000000000000000000, 0.000000000000000000, 0.000000000000000000 ) ;
#209 =( CONVERSION_BASED_UNIT ( 'INCH', #188 ) LENGTH_UNIT ( ) NAMED_UNIT ( #62 ) );
#210 = EDGE_CURVE ( 'NONE', #120, #236, #156, .T. ) ;
#211 = VECTOR ( 'NONE', #134, 39.37007874015748143 ) ;
#212 = CONICAL_SURFACE ( 'NONE', #238, 22.73032555864674364, 0.5235987755983000369 ) ;
#213 = DIRECTION ( 'NONE',  ( 0.000000000000000000, 0.000000000000000000, -1.000000000000000000 ) ) ;
#214 = CARTESIAN_POINT ( 'NONE',  ( -6.123233995736763571E-17, 2.000000000000000000, 0.000000000000000000 ) ) ;
#215 = ORIENTED_EDGE ( 'NONE', *, *, #144, .T. ) ;
#216 = DIRECTION ( 'NONE',  ( 1.000000000000000000, 1.215897659961753384E-16, 0.000000000000000000 ) ) ;
#217 = ORIENTED_EDGE ( 'NONE', *, *, #67, .F. ) ;
#218 = DIRECTION ( 'NONE',  ( -1.000000000000000000, 0.000000000000000000, 0.000000000000000000 ) ) ;
#219 = EDGE_LOOP ( 'NONE', ( #29, #79, #51 ) ) ;
#220 = CARTESIAN_POINT ( 'NONE',  ( 0.09374999999999998612, 2.000000000000000000, 1.148106374200643555E-17 ) ) ;
#221 = FILL_AREA_STYLE_COLOUR ( '', #112 ) ;
#222 = UNCERTAINTY_MEASURE_WITH_UNIT (LENGTH_MEASURE( 1.000000000000000082E-05 ), #68, 'distance_accuracy_value', 'NONE');
#223 = PRESENTATION_LAYER_ASSIGNMENT (  '', '', ( #11 ) ) ;
#224 = AXIS2_PLACEMENT_3D ( 'NONE', #154, #254, #49 ) ;
#225 = DIRECTION ( 'NONE',  ( -1.215897659961753384E-16, 1.000000000000000000, -0.000000000000000000 ) ) ;
#226 = DIMENSIONAL_EXPONENTS ( 1.000000000000000000, 0.000000000000000000, 0.000000000000000000, 0.000000000000000000, 0.000000000000000000, 0.000000000000000000, 0.000000000000000000 ) ;
#227 =( CONVERSION_BASED_UNIT ( 'INCH', #167 ) LENGTH_UNIT ( ) NAMED_UNIT ( #230 ) );
#228 = CLOSED_SHELL ( 'NONE', ( #60, #20, #110, #158 ) ) ;
#229 =( NAMED_UNIT ( * ) PLANE_ANGLE_UNIT ( ) SI_UNIT ( $, .RADIAN. ) );
#230 = DIMENSIONAL_EXPONENTS ( 1.000000000000000000, 0.000000000000000000, 0.000000000000000000, 0.000000000000000000, 0.000000000000000000, 0.000000000000000000, 0.000000000000000000 ) ;
#231 = AXIS2_PLACEMENT_3D ( 'NONE', #84, #202, #239 ) ;
#232 = CARTESIAN_POINT ( 'NONE',  ( -0.09374999999999968081, 0.1623797632095817234, 0.000000000000000000 ) ) ;
#233 = VERTEX_POINT ( 'NONE', #24 ) ;
#234 = DIRECTION ( 'NONE',  ( -1.215897659961753384E-16, 1.000000000000000000, -0.000000000000000000 ) ) ;
#235 = FILL_AREA_STYLE_COLOUR ( '', #133 ) ;
#236 = VERTEX_POINT ( 'NONE', #58 ) ;
#237 = CYLINDRICAL_SURFACE ( 'NONE', #125, 0.09374999999999994449 ) ;
#238 = AXIS2_PLACEMENT_3D ( 'NONE', #147, #106, #57 ) ;
#239 = DIRECTION ( 'NONE',  ( -1.000000000000000000, 0.000000000000000000, 0.000000000000000000 ) ) ;
#240 = ORIENTED_EDGE ( 'NONE', *, *, #129, .F. ) ;
#241 = PRESENTATION_STYLE_ASSIGNMENT (( #102 ) ) ;
#242 =( NAMED_UNIT ( * ) PLANE_ANGLE_UNIT ( ) SI_UNIT ( $, .RADIAN. ) );
#243 = LENGTH_MEASURE_WITH_UNIT ( LENGTH_MEASURE( 0.02539999999999999897 ), #100 );
#244 =( NAMED_UNIT ( * ) SI_UNIT ( $, .STERADIAN. ) SOLID_ANGLE_UNIT ( ) );
#245 = CIRCLE ( 'NONE', #197, 0.09375000000000005551 ) ;
#246 =( LENGTH_UNIT ( ) NAMED_UNIT ( * ) SI_UNIT ( $, .METRE. ) );
#247 = PRESENTATION_STYLE_ASSIGNMENT (( #128 ) ) ;
#248 = EDGE_CURVE ( 'NONE', #120, #200, #179, .T. ) ;
#249 = SURFACE_SIDE_STYLE ('',( #21 ) ) ;
#250 = DIMENSIONAL_EXPONENTS ( 1.000000000000000000, 0.000000000000000000, 0.000000000000000000, 0.000000000000000000, 0.000000000000000000, 0.000000000000000000, 0.000000000000000000 ) ;
#251 = SURFACE_STYLE_FILL_AREA ( #41 ) ;
#252 = PRESENTATION_LAYER_ASSIGNMENT (  '', '', ( #64 ) ) ;
#253 = AXIS2_PLACEMENT_3D ( 'NONE', #46, #28, #213 ) ;
#254 = DIRECTION ( 'NONE',  ( -1.215897659961753384E-16, 1.000000000000000000, -0.000000000000000000 ) ) ;
#255 = CYLINDRICAL_SURFACE ( 'NONE', #78, 0.09374999999999994449 ) ;
#256 =( NAMED_UNIT ( * ) SI_UNIT ( $, .STERADIAN. ) SOLID_ANGLE_UNIT ( ) );
#257 = CARTESIAN_POINT ( 'NONE',  ( 0.000000000000000000, 0.000000000000000000, 0.000000000000000000 ) ) ;
#258 = UNCERTAINTY_MEASURE_WITH_UNIT (LENGTH_MEASURE( 1.000000000000000082E-05 ), #148, 'distance_accuracy_value', 'NONE');
#259 = ORIENTED_EDGE ( 'NONE', *, *, #150, .F. ) ;
#260 = AXIS2_PLACEMENT_3D ( 'NONE', #193, #8, #216 ) ;
#261 = FILL_AREA_STYLE ('',( #162 ) ) ;
#262 = DIRECTION ( 'NONE',  ( -1.215897659961753384E-16, 1.000000000000000000, 0.000000000000000000 ) ) ;
#263 = PRESENTATION_STYLE_ASSIGNMENT (( #203 ) ) ;
#264 = ADVANCED_FACE ( 'NONE', ( #123 ), #146, .T. ) ;
#265 =( LENGTH_UNIT ( ) NAMED_UNIT ( * ) SI_UNIT ( $, .METRE. ) );
ENDSEC;
END-ISO-10303-21;
