ISO-10303-21;
HEADER;
FILE_DESCRIPTION (( 'STEP AP214' ),
    '1' );
FILE_NAME ('48726.STEP',
    '2023-06-22T22:03:11',
    ( '' ),
    ( '' ),
    'SwSTEP 2.0',
    'SolidWorks 2023',
    '' );
FILE_SCHEMA (( 'AUTOMOTIVE_DESIGN' ));
ENDSEC;

DATA;
#1 = EDGE_CURVE ( 'NONE', #191, #222, #277, .T. ) ;
#2 = PRESENTATION_LAYER_ASSIGNMENT (  '', '', ( #274 ) ) ;
#3 = SURFACE_STYLE_USAGE ( .BOTH. , #224 ) ;
#4 = COLOUR_RGB ( '',1.000000000000000000, 0.000000000000000000, 0.000000000000000000 ) ;
#5 = FILL_AREA_STYLE_COLOUR ( '', #4 ) ;
#6 = CARTESIAN_POINT ( 'NONE',  ( -0.5000000000000002220, 5.000000000000000000, 0.000000000000000000 ) ) ;
#7 = COLOUR_RGB ( '',0.7921568627450980005, 0.8196078431372548767, 0.9333333333333333481 ) ;
#8 = CIRCLE ( 'NONE', #302, 0.5000000000000001110 ) ;
#9 = LENGTH_MEASURE_WITH_UNIT ( LENGTH_MEASURE( 0.02539999999999999897 ), #28 );
#10 = UNCERTAINTY_MEASURE_WITH_UNIT (LENGTH_MEASURE( 1.000000000000000082E-05 ), #65, 'distance_accuracy_value', 'NONE');
#11 = MANIFOLD_SOLID_BREP ( 'Revolve - Cutting Edge', #54 ) ;
#12 = EDGE_LOOP ( 'NONE', ( #239, #197, #172, #69 ) ) ;
#13 = ORIENTED_EDGE ( 'NONE', *, *, #108, .T. ) ;
#14 =( NAMED_UNIT ( * ) PLANE_ANGLE_UNIT ( ) SI_UNIT ( $, .RADIAN. ) );
#15 = SURFACE_STYLE_FILL_AREA ( #92 ) ;
#16 = PRESENTATION_STYLE_ASSIGNMENT (( #3 ) ) ;
#17 = ORIENTED_EDGE ( 'NONE', *, *, #299, .F. ) ;
#18 = DIRECTION ( 'NONE',  ( -4.082155997157843818E-17, 1.000000000000000000, -0.000000000000000000 ) ) ;
#19 = DIMENSIONAL_EXPONENTS ( 1.000000000000000000, 0.000000000000000000, 0.000000000000000000, 0.000000000000000000, 0.000000000000000000, 0.000000000000000000, 0.000000000000000000 ) ;
#20 = VERTEX_POINT ( 'NONE', #193 ) ;
#21 = DIRECTION ( 'NONE',  ( 0.000000000000000000, 0.000000000000000000, -1.000000000000000000 ) ) ;
#22 = COLOUR_RGB ( '',1.000000000000000000, 0.000000000000000000, 0.000000000000000000 ) ;
#23 = ORIENTED_EDGE ( 'NONE', *, *, #57, .T. ) ;
#24 = APPLICATION_CONTEXT ( 'automotive_design' ) ;
#25 = ADVANCED_BREP_SHAPE_REPRESENTATION ( '48726', ( #11, #118, #141 ), #120 ) ;
#26 =( GEOMETRIC_REPRESENTATION_CONTEXT ( 3 ) GLOBAL_UNCERTAINTY_ASSIGNED_CONTEXT ( ( #10 ) ) GLOBAL_UNIT_ASSIGNED_CONTEXT ( ( #65, #112, #158 ) ) REPRESENTATION_CONTEXT ( 'NONE', 'WORKASPACE' ) );
#27 = DIRECTION ( 'NONE',  ( 0.000000000000000000, -0.000000000000000000, 1.000000000000000000 ) ) ;
#28 =( LENGTH_UNIT ( ) NAMED_UNIT ( * ) SI_UNIT ( $, .METRE. ) );
#29 = ADVANCED_FACE ( 'NONE', ( #45 ), #284, .F. ) ;
#30 = PRODUCT_DEFINITION_CONTEXT ( 'detailed design', #24, 'design' ) ;
#31 = DIRECTION ( 'NONE',  ( -0.000000000000000000, -1.000000000000000000, -0.000000000000000000 ) ) ;
#32 = COLOUR_RGB ( '',0.7921568627450980005, 0.8196078431372548767, 0.9333333333333333481 ) ;
#33 = DIMENSIONAL_EXPONENTS ( 1.000000000000000000, 0.000000000000000000, 0.000000000000000000, 0.000000000000000000, 0.000000000000000000, 0.000000000000000000, 0.000000000000000000 ) ;
#34 = PRESENTATION_STYLE_ASSIGNMENT (( #280 ) ) ;
#35 = ORIENTED_EDGE ( 'NONE', *, *, #182, .T. ) ;
#36 = DIRECTION ( 'NONE',  ( -0.000000000000000000, -1.000000000000000000, -0.000000000000000000 ) ) ;
#37 = AXIS2_PLACEMENT_3D ( 'NONE', #174, #265, #62 ) ;
#38 = SURFACE_STYLE_USAGE ( .BOTH. , #257 ) ;
#39 = DIMENSIONAL_EXPONENTS ( 1.000000000000000000, 0.000000000000000000, 0.000000000000000000, 0.000000000000000000, 0.000000000000000000, 0.000000000000000000, 0.000000000000000000 ) ;
#40 = CARTESIAN_POINT ( 'NONE',  ( 4.165999396282937514E-34, 2.000000000000000000, 0.000000000000000000 ) ) ;
#41 = ORIENTED_EDGE ( 'NONE', *, *, #135, .T. ) ;
#42 = DIRECTION ( 'NONE',  ( -1.000000000000000000, 0.000000000000000000, 0.000000000000000000 ) ) ;
#43 = DIRECTION ( 'NONE',  ( -1.000000000000000000, 0.000000000000000000, 0.000000000000000000 ) ) ;
#44 = ADVANCED_FACE ( 'NONE', ( #76 ), #123, .T. ) ;
#45 = FACE_OUTER_BOUND ( 'NONE', #263, .T. ) ;
#46 = AXIS2_PLACEMENT_3D ( 'NONE', #256, #264, #106 ) ;
#47 = LINE ( 'NONE', #279, #181 ) ;
#48 = ORIENTED_EDGE ( 'NONE', *, *, #135, .F. ) ;
#49 =( NAMED_UNIT ( * ) PLANE_ANGLE_UNIT ( ) SI_UNIT ( $, .RADIAN. ) );
#50 = CARTESIAN_POINT ( 'NONE',  ( 0.000000000000000000, 0.000000000000000000, 0.000000000000000000 ) ) ;
#51 = FACE_OUTER_BOUND ( 'NONE', #12, .T. ) ;
#52 = CARTESIAN_POINT ( 'NONE',  ( 0.000000000000000000, 2.000000000000000000, 0.000000000000000000 ) ) ;
#53 = DIRECTION ( 'NONE',  ( 1.000000000000000000, 0.000000000000000000, 0.000000000000000000 ) ) ;
#54 = CLOSED_SHELL ( 'NONE', ( #254, #126, #251, #145 ) ) ;
#55 = PRESENTATION_LAYER_ASSIGNMENT (  '', '', ( #178 ) ) ;
#56 = PLANE ( 'NONE',  #168 ) ;
#57 = EDGE_CURVE ( 'NONE', #152, #309, #47, .T. ) ;
#58 = AXIS2_PLACEMENT_3D ( 'NONE', #100, #83, #250 ) ;
#59 = PLANE ( 'NONE',  #226 ) ;
#60 =( NAMED_UNIT ( * ) PLANE_ANGLE_UNIT ( ) SI_UNIT ( $, .RADIAN. ) );
#61 = DIRECTION ( 'NONE',  ( 0.000000000000000000, 0.000000000000000000, -1.000000000000000000 ) ) ;
#62 = DIRECTION ( 'NONE',  ( -1.000000000000000000, 0.000000000000000000, 0.000000000000000000 ) ) ;
#63 = CARTESIAN_POINT ( 'NONE',  ( 0.000000000000000000, 0.000000000000000000, 0.000000000000000000 ) ) ;
#64 = SURFACE_SIDE_STYLE ('',( #157 ) ) ;
#65 =( CONVERSION_BASED_UNIT ( 'INCH', #86 ) LENGTH_UNIT ( ) NAMED_UNIT ( #33 ) );
#66 =( NAMED_UNIT ( * ) SI_UNIT ( $, .STERADIAN. ) SOLID_ANGLE_UNIT ( ) );
#67 = DIMENSIONAL_EXPONENTS ( 1.000000000000000000, 0.000000000000000000, 0.000000000000000000, 0.000000000000000000, 0.000000000000000000, 0.000000000000000000, 0.000000000000000000 ) ;
#68 = PLANE ( 'NONE',  #270 ) ;
#69 = ORIENTED_EDGE ( 'NONE', *, *, #271, .F. ) ;
#70 =( LENGTH_UNIT ( ) NAMED_UNIT ( * ) SI_UNIT ( $, .METRE. ) );
#71 = CARTESIAN_POINT ( 'NONE',  ( 6.123233995736766036E-17, 0.000000000000000000, 0.5000000000000000000 ) ) ;
#72 = AXIS2_PLACEMENT_3D ( 'NONE', #225, #90, #167 ) ;
#73 = ORIENTED_EDGE ( 'NONE', *, *, #271, .T. ) ;
#74 = ORIENTED_EDGE ( 'NONE', *, *, #57, .F. ) ;
#75 = DIRECTION ( 'NONE',  ( 0.000000000000000000, 0.000000000000000000, -1.000000000000000000 ) ) ;
#76 = FACE_OUTER_BOUND ( 'NONE', #165, .T. ) ;
#77 =( NAMED_UNIT ( * ) PLANE_ANGLE_UNIT ( ) SI_UNIT ( $, .RADIAN. ) );
#78 = SHAPE_DEFINITION_REPRESENTATION ( #297, #25 ) ;
#79 = CARTESIAN_POINT ( 'NONE',  ( -1.224646799147353207E-16, 5.000000000000000000, 0.000000000000000000 ) ) ;
#80 = UNCERTAINTY_MEASURE_WITH_UNIT (LENGTH_MEASURE( 1.000000000000000082E-05 ), #107, 'distance_accuracy_value', 'NONE');
#81 = PRESENTATION_LAYER_ASSIGNMENT (  '', '', ( #128 ) ) ;
#82 = UNCERTAINTY_MEASURE_WITH_UNIT (LENGTH_MEASURE( 1.000000000000000082E-05 ), #134, 'distance_accuracy_value', 'NONE');
#83 = DIRECTION ( 'NONE',  ( -0.000000000000000000, -1.000000000000000000, -0.000000000000000000 ) ) ;
#84 = VECTOR ( 'NONE', #227, 39.37007874015748143 ) ;
#85 = MECHANICAL_DESIGN_GEOMETRIC_PRESENTATION_REPRESENTATION (  '', ( #233 ), #119 ) ;
#86 = LENGTH_MEASURE_WITH_UNIT ( LENGTH_MEASURE( 0.02539999999999999897 ), #235 );
#87 = LENGTH_MEASURE_WITH_UNIT ( LENGTH_MEASURE( 0.02539999999999999897 ), #202 );
#88 = PRESENTATION_STYLE_ASSIGNMENT (( #136 ) ) ;
#89 = SURFACE_STYLE_FILL_AREA ( #253 ) ;
#90 = DIRECTION ( 'NONE',  ( -4.082155997157843818E-17, 1.000000000000000000, -0.000000000000000000 ) ) ;
#91 = ORIENTED_EDGE ( 'NONE', *, *, #204, .F. ) ;
#92 = FILL_AREA_STYLE ('',( #307 ) ) ;
#93 = EDGE_LOOP ( 'NONE', ( #96, #275 ) ) ;
#94 = AXIS2_PLACEMENT_3D ( 'NONE', #117, #194, #218 ) ;
#95 = CIRCLE ( 'NONE', #46, 0.5000000000000000000 ) ;
#96 = ORIENTED_EDGE ( 'NONE', *, *, #1, .F. ) ;
#97 =( GEOMETRIC_REPRESENTATION_CONTEXT ( 3 ) GLOBAL_UNCERTAINTY_ASSIGNED_CONTEXT ( ( #82 ) ) GLOBAL_UNIT_ASSIGNED_CONTEXT ( ( #134, #60, #186 ) ) REPRESENTATION_CONTEXT ( 'NONE', 'WORKASPACE' ) );
#98 =( LENGTH_UNIT ( ) NAMED_UNIT ( * ) SI_UNIT ( $, .METRE. ) );
#99 = ADVANCED_FACE ( 'NONE', ( #305 ), #68, .F. ) ;
#100 = CARTESIAN_POINT ( 'NONE',  ( 0.000000000000000000, 2.000000000000000000, 0.000000000000000000 ) ) ;
#101 = SURFACE_STYLE_USAGE ( .BOTH. , #295 ) ;
#102 = CLOSED_SHELL ( 'NONE', ( #278, #99, #44, #29 ) ) ;
#103 =( CONVERSION_BASED_UNIT ( 'INCH', #154 ) LENGTH_UNIT ( ) NAMED_UNIT ( #303 ) );
#104 = FILL_AREA_STYLE ('',( #203 ) ) ;
#105 = MECHANICAL_DESIGN_GEOMETRIC_PRESENTATION_REPRESENTATION (  '', ( #178 ), #140 ) ;
#106 = DIRECTION ( 'NONE',  ( 0.000000000000000000, 0.000000000000000000, -1.000000000000000000 ) ) ;
#107 =( CONVERSION_BASED_UNIT ( 'INCH', #300 ) LENGTH_UNIT ( ) NAMED_UNIT ( #234 ) );
#108 = EDGE_CURVE ( 'NONE', #222, #191, #249, .T. ) ;
#109 =( GEOMETRIC_REPRESENTATION_CONTEXT ( 3 ) GLOBAL_UNCERTAINTY_ASSIGNED_CONTEXT ( ( #127 ) ) GLOBAL_UNIT_ASSIGNED_CONTEXT ( ( #116, #259, #144 ) ) REPRESENTATION_CONTEXT ( 'NONE', 'WORKASPACE' ) );
#110 = DIMENSIONAL_EXPONENTS ( 1.000000000000000000, 0.000000000000000000, 0.000000000000000000, 0.000000000000000000, 0.000000000000000000, 0.000000000000000000, 0.000000000000000000 ) ;
#111 = DIRECTION ( 'NONE',  ( -0.000000000000000000, -1.000000000000000000, -0.000000000000000000 ) ) ;
#112 =( NAMED_UNIT ( * ) PLANE_ANGLE_UNIT ( ) SI_UNIT ( $, .RADIAN. ) );
#113 = DIRECTION ( 'NONE',  ( -4.082155997157843818E-17, 1.000000000000000000, -0.000000000000000000 ) ) ;
#114 = FACE_OUTER_BOUND ( 'NONE', #281, .T. ) ;
#115 = LINE ( 'NONE', #171, #160 ) ;
#116 =( CONVERSION_BASED_UNIT ( 'INCH', #289 ) LENGTH_UNIT ( ) NAMED_UNIT ( #39 ) );
#117 = CARTESIAN_POINT ( 'NONE',  ( 0.000000000000000000, 2.000000000000000000, 0.000000000000000000 ) ) ;
#118 = MANIFOLD_SOLID_BREP ( 'Revolve - Tool Body (Straight Shanked)', #102 ) ;
#119 =( GEOMETRIC_REPRESENTATION_CONTEXT ( 3 ) GLOBAL_UNCERTAINTY_ASSIGNED_CONTEXT ( ( #143 ) ) GLOBAL_UNIT_ASSIGNED_CONTEXT ( ( #212, #49, #183 ) ) REPRESENTATION_CONTEXT ( 'NONE', 'WORKASPACE' ) );
#120 =( GEOMETRIC_REPRESENTATION_CONTEXT ( 3 ) GLOBAL_UNCERTAINTY_ASSIGNED_CONTEXT ( ( #230 ) ) GLOBAL_UNIT_ASSIGNED_CONTEXT ( ( #103, #77, #175 ) ) REPRESENTATION_CONTEXT ( 'NONE', 'WORKASPACE' ) );
#121 = EDGE_LOOP ( 'NONE', ( #243, #241 ) ) ;
#122 = CARTESIAN_POINT ( 'NONE',  ( 0.4999999999999999445, 5.000000000000000000, 6.123233995736767268E-17 ) ) ;
#123 = CYLINDRICAL_SURFACE ( 'NONE', #37, 0.5000000000000001110 ) ;
#124 = CIRCLE ( 'NONE', #298, 0.5000000000000000000 ) ;
#125 = APPLICATION_PROTOCOL_DEFINITION ( 'draft international standard', 'automotive_design', 1998, #24 ) ;
#126 = ADVANCED_FACE ( 'NONE', ( #114 ), #56, .T. ) ;
#127 = UNCERTAINTY_MEASURE_WITH_UNIT (LENGTH_MEASURE( 1.000000000000000082E-05 ), #116, 'distance_accuracy_value', 'NONE');
#128 = STYLED_ITEM ( 'NONE', ( #34 ), #126 ) ;
#129 = DIRECTION ( 'NONE',  ( 0.000000000000000000, -1.000000000000000000, -0.000000000000000000 ) ) ;
#130 = VERTEX_POINT ( 'NONE', #6 ) ;
#131 = COLOUR_RGB ( '',1.000000000000000000, 0.000000000000000000, 0.000000000000000000 ) ;
#132 = PRESENTATION_STYLE_ASSIGNMENT (( #38 ) ) ;
#133 = ORIENTED_EDGE ( 'NONE', *, *, #267, .T. ) ;
#134 =( CONVERSION_BASED_UNIT ( 'INCH', #87 ) LENGTH_UNIT ( ) NAMED_UNIT ( #19 ) );
#135 = EDGE_CURVE ( 'NONE', #152, #188, #244, .T. ) ;
#136 = SURFACE_STYLE_USAGE ( .BOTH. , #64 ) ;
#137 = LENGTH_MEASURE_WITH_UNIT ( LENGTH_MEASURE( 0.02539999999999999897 ), #70 );
#138 = ORIENTED_EDGE ( 'NONE', *, *, #155, .T. ) ;
#139 = DIRECTION ( 'NONE',  ( 0.000000000000000000, 0.000000000000000000, -1.000000000000000000 ) ) ;
#140 =( GEOMETRIC_REPRESENTATION_CONTEXT ( 3 ) GLOBAL_UNCERTAINTY_ASSIGNED_CONTEXT ( ( #80 ) ) GLOBAL_UNIT_ASSIGNED_CONTEXT ( ( #107, #14, #66 ) ) REPRESENTATION_CONTEXT ( 'NONE', 'WORKASPACE' ) );
#141 = AXIS2_PLACEMENT_3D ( 'NONE', #50, #153, #53 ) ;
#142 = DIRECTION ( 'NONE',  ( -4.082155997157843818E-17, 1.000000000000000000, 0.000000000000000000 ) ) ;
#143 = UNCERTAINTY_MEASURE_WITH_UNIT (LENGTH_MEASURE( 1.000000000000000082E-05 ), #212, 'distance_accuracy_value', 'NONE');
#144 =( NAMED_UNIT ( * ) SI_UNIT ( $, .STERADIAN. ) SOLID_ANGLE_UNIT ( ) );
#145 = ADVANCED_FACE ( 'NONE', ( #228 ), #59, .T. ) ;
#146 = CARTESIAN_POINT ( 'NONE',  ( 0.000000000000000000, 0.000000000000000000, 0.000000000000000000 ) ) ;
#147 = DIRECTION ( 'NONE',  ( 1.000000000000000000, 4.082155997157843818E-17, 0.000000000000000000 ) ) ;
#148 = SURFACE_STYLE_FILL_AREA ( #170 ) ;
#149 = AXIS2_PLACEMENT_3D ( 'NONE', #52, #196, #42 ) ;
#150 = CARTESIAN_POINT ( 'NONE',  ( 6.123233995736766036E-17, 0.000000000000000000, 0.5000000000000000000 ) ) ;
#151 = CARTESIAN_POINT ( 'NONE',  ( 0.5000000000000000000, 5.000000000000000000, 0.000000000000000000 ) ) ;
#152 = VERTEX_POINT ( 'NONE', #236 ) ;
#153 = DIRECTION ( 'NONE',  ( 0.000000000000000000, 0.000000000000000000, 1.000000000000000000 ) ) ;
#154 = LENGTH_MEASURE_WITH_UNIT ( LENGTH_MEASURE( 0.02539999999999999897 ), #98 );
#155 = EDGE_CURVE ( 'NONE', #188, #286, #308, .T. ) ;
#156 = CARTESIAN_POINT ( 'NONE',  ( 0.000000000000000000, 2.000000000000000000, 0.000000000000000000 ) ) ;
#157 = SURFACE_STYLE_FILL_AREA ( #269 ) ;
#158 =( NAMED_UNIT ( * ) SI_UNIT ( $, .STERADIAN. ) SOLID_ANGLE_UNIT ( ) );
#159 = PRESENTATION_LAYER_ASSIGNMENT (  '', '', ( #252 ) ) ;
#160 = VECTOR ( 'NONE', #18, 39.37007874015748143 ) ;
#161 = PRODUCT_DEFINITION_FORMATION_WITH_SPECIFIED_SOURCE ( 'ANY', '', #304, .NOT_KNOWN. ) ;
#162 = PRESENTATION_STYLE_ASSIGNMENT (( #101 ) ) ;
#163 = MECHANICAL_DESIGN_GEOMETRIC_PRESENTATION_REPRESENTATION (  '', ( #252 ), #258 ) ;
#164 = FILL_AREA_STYLE_COLOUR ( '', #22 ) ;
#165 = EDGE_LOOP ( 'NONE', ( #17, #13, #73, #306 ) ) ;
#166 = ORIENTED_EDGE ( 'NONE', *, *, #190, .F. ) ;
#167 = DIRECTION ( 'NONE',  ( -1.000000000000000000, 0.000000000000000000, 0.000000000000000000 ) ) ;
#168 = AXIS2_PLACEMENT_3D ( 'NONE', #231, #229, #27 ) ;
#169 = EDGE_CURVE ( 'NONE', #20, #130, #8, .T. ) ;
#170 = FILL_AREA_STYLE ('',( #285 ) ) ;
#171 = CARTESIAN_POINT ( 'NONE',  ( -0.5000000000000002220, 5.000000000000000000, 0.000000000000000000 ) ) ;
#172 = ORIENTED_EDGE ( 'NONE', *, *, #182, .F. ) ;
#173 = COLOUR_RGB ( '',1.000000000000000000, 0.000000000000000000, 0.000000000000000000 ) ;
#174 = CARTESIAN_POINT ( 'NONE',  ( -1.224646799147353207E-16, 5.000000000000000000, 0.000000000000000000 ) ) ;
#175 =( NAMED_UNIT ( * ) SI_UNIT ( $, .STERADIAN. ) SOLID_ANGLE_UNIT ( ) );
#176 = CARTESIAN_POINT ( 'NONE',  ( 0.000000000000000000, 0.000000000000000000, 0.000000000000000000 ) ) ;
#177 = PRODUCT_CONTEXT ( 'NONE', #209, 'mechanical' ) ;
#178 = STYLED_ITEM ( 'NONE', ( #88 ), #251 ) ;
#179 = AXIS2_PLACEMENT_3D ( 'NONE', #79, #261, #43 ) ;
#180 = PRODUCT_DEFINITION ( 'UNKNOWN', '', #161, #30 ) ;
#181 = VECTOR ( 'NONE', #111, 39.37007874015748143 ) ;
#182 = EDGE_CURVE ( 'NONE', #130, #20, #208, .T. ) ;
#183 =( NAMED_UNIT ( * ) SI_UNIT ( $, .STERADIAN. ) SOLID_ANGLE_UNIT ( ) );
#184 = STYLED_ITEM ( 'NONE', ( #16 ), #11 ) ;
#185 = CIRCLE ( 'NONE', #192, 0.5000000000000000000 ) ;
#186 =( NAMED_UNIT ( * ) SI_UNIT ( $, .STERADIAN. ) SOLID_ANGLE_UNIT ( ) );
#187 = CYLINDRICAL_SURFACE ( 'NONE', #296, 0.5000000000000000000 ) ;
#188 = VERTEX_POINT ( 'NONE', #240 ) ;
#189 = FILL_AREA_STYLE ('',( #220 ) ) ;
#190 = EDGE_CURVE ( 'NONE', #286, #309, #185, .T. ) ;
#191 = VERTEX_POINT ( 'NONE', #211 ) ;
#192 = AXIS2_PLACEMENT_3D ( 'NONE', #176, #31, #61 ) ;
#193 = CARTESIAN_POINT ( 'NONE',  ( 0.5000000000000000000, 5.000000000000000000, 6.123233995736767268E-17 ) ) ;
#194 = DIRECTION ( 'NONE',  ( -4.082155997157843818E-17, 1.000000000000000000, -0.000000000000000000 ) ) ;
#195 = EDGE_LOOP ( 'NONE', ( #41, #138, #91, #74 ) ) ;
#196 = DIRECTION ( 'NONE',  ( -4.082155997157843818E-17, 1.000000000000000000, -0.000000000000000000 ) ) ;
#197 = ORIENTED_EDGE ( 'NONE', *, *, #299, .T. ) ;
#198 = DIRECTION ( 'NONE',  ( -0.000000000000000000, -1.000000000000000000, -0.000000000000000000 ) ) ;
#199 = SURFACE_STYLE_FILL_AREA ( #189 ) ;
#200 = PRESENTATION_LAYER_ASSIGNMENT (  '', '', ( #233 ) ) ;
#201 = CYLINDRICAL_SURFACE ( 'NONE', #179, 0.5000000000000001110 ) ;
#202 =( LENGTH_UNIT ( ) NAMED_UNIT ( * ) SI_UNIT ( $, .METRE. ) );
#203 = FILL_AREA_STYLE_COLOUR ( '', #131 ) ;
#204 = EDGE_CURVE ( 'NONE', #309, #286, #95, .T. ) ;
#205 = SURFACE_STYLE_USAGE ( .BOTH. , #268 ) ;
#206 = SURFACE_STYLE_FILL_AREA ( #104 ) ;
#207 = CARTESIAN_POINT ( 'NONE',  ( 0.5000000000000000000, 2.000000000000000000, 6.123233995736767268E-17 ) ) ;
#208 = CIRCLE ( 'NONE', #72, 0.5000000000000001110 ) ;
#209 = APPLICATION_CONTEXT ( 'automotive_design' ) ;
#210 =( NAMED_UNIT ( * ) PLANE_ANGLE_UNIT ( ) SI_UNIT ( $, .RADIAN. ) );
#211 = CARTESIAN_POINT ( 'NONE',  ( -0.5000000000000000000, 2.000000000000000000, 0.000000000000000000 ) ) ;
#212 =( CONVERSION_BASED_UNIT ( 'INCH', #9 ) LENGTH_UNIT ( ) NAMED_UNIT ( #110 ) );
#213 = VECTOR ( 'NONE', #247, 39.37007874015748143 ) ;
#214 =( CONVERSION_BASED_UNIT ( 'INCH', #137 ) LENGTH_UNIT ( ) NAMED_UNIT ( #67 ) );
#215 = ORIENTED_EDGE ( 'NONE', *, *, #169, .T. ) ;
#216 = CYLINDRICAL_SURFACE ( 'NONE', #293, 0.5000000000000000000 ) ;
#217 =( LENGTH_UNIT ( ) NAMED_UNIT ( * ) SI_UNIT ( $, .METRE. ) );
#218 = DIRECTION ( 'NONE',  ( -1.000000000000000000, 0.000000000000000000, 0.000000000000000000 ) ) ;
#219 = MECHANICAL_DESIGN_GEOMETRIC_PRESENTATION_REPRESENTATION (  '', ( #274 ), #97 ) ;
#220 = FILL_AREA_STYLE_COLOUR ( '', #7 ) ;
#221 = PRODUCT_RELATED_PRODUCT_CATEGORY ( 'part', '', ( #304 ) ) ;
#222 = VERTEX_POINT ( 'NONE', #207 ) ;
#223 = CARTESIAN_POINT ( 'NONE',  ( 0.000000000000000000, 0.000000000000000000, -0.5000000000000000000 ) ) ;
#224 = SURFACE_SIDE_STYLE ('',( #199 ) ) ;
#225 = CARTESIAN_POINT ( 'NONE',  ( -1.224646799147353207E-16, 5.000000000000000000, 0.000000000000000000 ) ) ;
#226 = AXIS2_PLACEMENT_3D ( 'NONE', #63, #129, #232 ) ;
#227 = DIRECTION ( 'NONE',  ( -4.082155997157843818E-17, 1.000000000000000000, -0.000000000000000000 ) ) ;
#228 = FACE_OUTER_BOUND ( 'NONE', #121, .T. ) ;
#229 = DIRECTION ( 'NONE',  ( 0.000000000000000000, 1.000000000000000000, 0.000000000000000000 ) ) ;
#230 = UNCERTAINTY_MEASURE_WITH_UNIT (LENGTH_MEASURE( 1.000000000000000082E-05 ), #103, 'distance_accuracy_value', 'NONE');
#231 = CARTESIAN_POINT ( 'NONE',  ( 0.000000000000000000, 2.000000000000000000, 0.000000000000000000 ) ) ;
#232 = DIRECTION ( 'NONE',  ( 0.000000000000000000, 0.000000000000000000, -1.000000000000000000 ) ) ;
#233 = STYLED_ITEM ( 'NONE', ( #294 ), #118 ) ;
#234 = DIMENSIONAL_EXPONENTS ( 1.000000000000000000, 0.000000000000000000, 0.000000000000000000, 0.000000000000000000, 0.000000000000000000, 0.000000000000000000, 0.000000000000000000 ) ;
#235 =( LENGTH_UNIT ( ) NAMED_UNIT ( * ) SI_UNIT ( $, .METRE. ) );
#236 = CARTESIAN_POINT ( 'NONE',  ( 0.000000000000000000, 2.000000000000000000, -0.5000000000000000000 ) ) ;
#237 = MECHANICAL_DESIGN_GEOMETRIC_PRESENTATION_REPRESENTATION (  '', ( #184 ), #109 ) ;
#238 = MECHANICAL_DESIGN_GEOMETRIC_PRESENTATION_REPRESENTATION (  '', ( #128 ), #26 ) ;
#239 = ORIENTED_EDGE ( 'NONE', *, *, #1, .T. ) ;
#240 = CARTESIAN_POINT ( 'NONE',  ( 6.123233995736766036E-17, 2.000000000000000000, 0.5000000000000000000 ) ) ;
#241 = ORIENTED_EDGE ( 'NONE', *, *, #190, .T. ) ;
#242 = DIRECTION ( 'NONE',  ( -1.000000000000000000, -4.082155997157843818E-17, 0.000000000000000000 ) ) ;
#243 = ORIENTED_EDGE ( 'NONE', *, *, #204, .T. ) ;
#244 = CIRCLE ( 'NONE', #58, 0.5000000000000000000 ) ;
#245 = LINE ( 'NONE', #122, #84 ) ;
#246 = APPLICATION_PROTOCOL_DEFINITION ( 'draft international standard', 'automotive_design', 1998, #209 ) ;
#247 = DIRECTION ( 'NONE',  ( -0.000000000000000000, -1.000000000000000000, -0.000000000000000000 ) ) ;
#248 = FACE_OUTER_BOUND ( 'NONE', #260, .T. ) ;
#249 = CIRCLE ( 'NONE', #94, 0.5000000000000000000 ) ;
#250 = DIRECTION ( 'NONE',  ( 0.000000000000000000, 0.000000000000000000, -1.000000000000000000 ) ) ;
#251 = ADVANCED_FACE ( 'NONE', ( #248 ), #187, .T. ) ;
#252 = STYLED_ITEM ( 'NONE', ( #132 ), #254 ) ;
#253 = FILL_AREA_STYLE ('',( #164 ) ) ;
#254 = ADVANCED_FACE ( 'NONE', ( #282 ), #216, .T. ) ;
#255 = CARTESIAN_POINT ( 'NONE',  ( 0.000000000000000000, 0.000000000000000000, 0.000000000000000000 ) ) ;
#256 = CARTESIAN_POINT ( 'NONE',  ( 0.000000000000000000, 0.000000000000000000, 0.000000000000000000 ) ) ;
#257 = SURFACE_SIDE_STYLE ('',( #15 ) ) ;
#258 =( GEOMETRIC_REPRESENTATION_CONTEXT ( 3 ) GLOBAL_UNCERTAINTY_ASSIGNED_CONTEXT ( ( #272 ) ) GLOBAL_UNIT_ASSIGNED_CONTEXT ( ( #214, #210, #288 ) ) REPRESENTATION_CONTEXT ( 'NONE', 'WORKASPACE' ) );
#259 =( NAMED_UNIT ( * ) PLANE_ANGLE_UNIT ( ) SI_UNIT ( $, .RADIAN. ) );
#260 = EDGE_LOOP ( 'NONE', ( #283, #133, #23, #166 ) ) ;
#261 = DIRECTION ( 'NONE',  ( -4.082155997157843818E-17, 1.000000000000000000, -0.000000000000000000 ) ) ;
#262 = PRESENTATION_LAYER_ASSIGNMENT (  '', '', ( #184 ) ) ;
#263 = EDGE_LOOP ( 'NONE', ( #35, #215 ) ) ;
#264 = DIRECTION ( 'NONE',  ( -0.000000000000000000, -1.000000000000000000, -0.000000000000000000 ) ) ;
#265 = DIRECTION ( 'NONE',  ( -4.082155997157843818E-17, 1.000000000000000000, -0.000000000000000000 ) ) ;
#266 = DIRECTION ( 'NONE',  ( -0.000000000000000000, -1.000000000000000000, -0.000000000000000000 ) ) ;
#267 = EDGE_CURVE ( 'NONE', #188, #152, #124, .T. ) ;
#268 = SURFACE_SIDE_STYLE ('',( #148 ) ) ;
#269 = FILL_AREA_STYLE ('',( #5 ) ) ;
#270 = AXIS2_PLACEMENT_3D ( 'NONE', #40, #142, #242 ) ;
#271 = EDGE_CURVE ( 'NONE', #191, #130, #115, .T. ) ;
#272 = UNCERTAINTY_MEASURE_WITH_UNIT (LENGTH_MEASURE( 1.000000000000000082E-05 ), #214, 'distance_accuracy_value', 'NONE');
#273 = DIRECTION ( 'NONE',  ( -1.000000000000000000, 0.000000000000000000, 0.000000000000000000 ) ) ;
#274 = STYLED_ITEM ( 'NONE', ( #162 ), #145 ) ;
#275 = ORIENTED_EDGE ( 'NONE', *, *, #108, .F. ) ;
#276 = CARTESIAN_POINT ( 'NONE',  ( -1.224646799147353207E-16, 5.000000000000000000, 0.000000000000000000 ) ) ;
#277 = CIRCLE ( 'NONE', #149, 0.5000000000000000000 ) ;
#278 = ADVANCED_FACE ( 'NONE', ( #51 ), #201, .T. ) ;
#279 = CARTESIAN_POINT ( 'NONE',  ( 0.000000000000000000, 0.000000000000000000, -0.5000000000000000000 ) ) ;
#280 = SURFACE_STYLE_USAGE ( .BOTH. , #301 ) ;
#281 = EDGE_LOOP ( 'NONE', ( #48, #290 ) ) ;
#282 = FACE_OUTER_BOUND ( 'NONE', #195, .T. ) ;
#283 = ORIENTED_EDGE ( 'NONE', *, *, #155, .F. ) ;
#284 = PLANE ( 'NONE',  #292 ) ;
#285 = FILL_AREA_STYLE_COLOUR ( '', #32 ) ;
#286 = VERTEX_POINT ( 'NONE', #150 ) ;
#287 =( LENGTH_UNIT ( ) NAMED_UNIT ( * ) SI_UNIT ( $, .METRE. ) );
#288 =( NAMED_UNIT ( * ) SI_UNIT ( $, .STERADIAN. ) SOLID_ANGLE_UNIT ( ) );
#289 = LENGTH_MEASURE_WITH_UNIT ( LENGTH_MEASURE( 0.02539999999999999897 ), #217 );
#290 = ORIENTED_EDGE ( 'NONE', *, *, #267, .F. ) ;
#291 = DIRECTION ( 'NONE',  ( 4.082155997157843818E-17, -1.000000000000000000, 0.000000000000000000 ) ) ;
#292 = AXIS2_PLACEMENT_3D ( 'NONE', #151, #291, #147 ) ;
#293 = AXIS2_PLACEMENT_3D ( 'NONE', #146, #266, #21 ) ;
#294 = PRESENTATION_STYLE_ASSIGNMENT (( #205 ) ) ;
#295 = SURFACE_SIDE_STYLE ('',( #206 ) ) ;
#296 = AXIS2_PLACEMENT_3D ( 'NONE', #255, #36, #139 ) ;
#297 = PRODUCT_DEFINITION_SHAPE ( 'NONE', 'NONE',  #180 ) ;
#298 = AXIS2_PLACEMENT_3D ( 'NONE', #156, #198, #75 ) ;
#299 = EDGE_CURVE ( 'NONE', #222, #20, #245, .T. ) ;
#300 = LENGTH_MEASURE_WITH_UNIT ( LENGTH_MEASURE( 0.02539999999999999897 ), #287 );
#301 = SURFACE_SIDE_STYLE ('',( #89 ) ) ;
#302 = AXIS2_PLACEMENT_3D ( 'NONE', #276, #113, #273 ) ;
#303 = DIMENSIONAL_EXPONENTS ( 1.000000000000000000, 0.000000000000000000, 0.000000000000000000, 0.000000000000000000, 0.000000000000000000, 0.000000000000000000, 0.000000000000000000 ) ;
#304 = PRODUCT ( '48726', '48726', '', ( #177 ) ) ;
#305 = FACE_OUTER_BOUND ( 'NONE', #93, .T. ) ;
#306 = ORIENTED_EDGE ( 'NONE', *, *, #169, .F. ) ;
#307 = FILL_AREA_STYLE_COLOUR ( '', #173 ) ;
#308 = LINE ( 'NONE', #71, #213 ) ;
#309 = VERTEX_POINT ( 'NONE', #223 ) ;
ENDSEC;
END-ISO-10303-21;
