ISO-10303-21;
HEADER;
FILE_DESCRIPTION (( 'STEP AP214' ),
    '1' );
FILE_NAME ('Micro_AMRM-004-2.STEP',
    '2021-09-01T17:09:39',
    ( '' ),
    ( '' ),
    'SwSTEP 2.0',
    'SolidWorks 2020',
    '' );
FILE_SCHEMA (( 'AUTOMOTIVE_DESIGN' ));
ENDSEC;

DATA;
#1 = FACE_OUTER_BOUND ( 'NONE', #55, .T. ) ;
#2 = DIRECTION ( 'NONE',  ( 0.0000000000000000000, 0.0000000000000000000, 1.000000000000000000 ) ) ;
#3 = FACE_OUTER_BOUND ( 'NONE', #10, .T. ) ;
#4 = DIRECTION ( 'NONE',  ( -1.000000000000000000, 0.0000000000000000000, 0.0000000000000000000 ) ) ;
#5 = PRESENTATION_LAYER_ASSIGNMENT (  '', '', ( #132 ) ) ;
#6 = DIRECTION ( 'NONE',  ( 0.1736481776669313859, 0.0000000000000000000, 0.9848077530122077983 ) ) ;
#7 = FACE_OUTER_BOUND ( 'NONE', #199, .T. ) ;
#8 =( CONVERSION_BASED_UNIT ( 'INCH', #173 ) LENGTH_UNIT ( ) NAMED_UNIT ( #147 ) );
#9 = CARTESIAN_POINT ( 'NONE',  ( 0.0000000000000000000, 0.0000000000000000000, 1.968503999999999809 ) ) ;
#10 = EDGE_LOOP ( 'NONE', ( #88, #152, #220, #131 ) ) ;
#11 = MECHANICAL_DESIGN_GEOMETRIC_PRESENTATION_REPRESENTATION (  '', ( #132 ), #32 ) ;
#12 = ORIENTED_EDGE ( 'NONE', *, *, #207, .F. ) ;
#13 = DIRECTION ( 'NONE',  ( -1.000000000000000000, 0.0000000000000000000, 0.0000000000000000000 ) ) ;
#14 = EDGE_CURVE ( 'NONE', #128, #245, #243, .T. ) ;
#15 = ORIENTED_EDGE ( 'NONE', *, *, #278, .F. ) ;
#16 = CARTESIAN_POINT ( 'NONE',  ( -0.06374000000000018540, 0.0000000000000000000, 1.968503999999999809 ) ) ;
#17 = EDGE_LOOP ( 'NONE', ( #149, #223, #182, #219 ) ) ;
#18 =( GEOMETRIC_REPRESENTATION_CONTEXT ( 3 ) GLOBAL_UNCERTAINTY_ASSIGNED_CONTEXT ( ( #27 ) ) GLOBAL_UNIT_ASSIGNED_CONTEXT ( ( #249, #181, #89 ) ) REPRESENTATION_CONTEXT ( 'NONE', 'WORKASPACE' ) );
#19 = VERTEX_POINT ( 'NONE', #250 ) ;
#20 =( LENGTH_UNIT ( ) NAMED_UNIT ( * ) SI_UNIT ( $, .METRE. ) );
#21 = LINE ( 'NONE', #227, #160 ) ;
#22 = EDGE_CURVE ( 'NONE', #19, #238, #42, .T. ) ;
#23 = DIRECTION ( 'NONE',  ( -1.000000000000000000, 0.0000000000000000000, 1.224646799147353207E-16 ) ) ;
#24 =( NAMED_UNIT ( * ) PLANE_ANGLE_UNIT ( ) SI_UNIT ( $, .RADIAN. ) );
#25 = EDGE_CURVE ( 'NONE', #266, #61, #211, .T. ) ;
#26 = VECTOR ( 'NONE', #109, 39.37007874015748143 ) ;
#27 = UNCERTAINTY_MEASURE_WITH_UNIT (LENGTH_MEASURE( 1.000000000000000082E-05 ), #249, 'distance_accuracy_value', 'NONE');
#28 = EDGE_CURVE ( 'NONE', #57, #266, #45, .T. ) ;
#29 = SURFACE_STYLE_FILL_AREA ( #33 ) ;
#30 = CARTESIAN_POINT ( 'NONE',  ( 0.0000000000000000000, 0.0000000000000000000, 1.968503999999999809 ) ) ;
#31 = ORIENTED_EDGE ( 'NONE', *, *, #86, .F. ) ;
#32 =( GEOMETRIC_REPRESENTATION_CONTEXT ( 3 ) GLOBAL_UNCERTAINTY_ASSIGNED_CONTEXT ( ( #169 ) ) GLOBAL_UNIT_ASSIGNED_CONTEXT ( ( #8, #192, #216 ) ) REPRESENTATION_CONTEXT ( 'NONE', 'WORKASPACE' ) );
#33 = FILL_AREA_STYLE ('',( #191 ) ) ;
#34 = ADVANCED_FACE ( 'NONE', ( #231 ), #119, .T. ) ;
#35 = ORIENTED_EDGE ( 'NONE', *, *, #14, .F. ) ;
#36 = SURFACE_STYLE_USAGE ( .BOTH. , #157 ) ;
#37 = CIRCLE ( 'NONE', #209, 0.007866125999999999327 ) ;
#38 = LENGTH_MEASURE_WITH_UNIT ( LENGTH_MEASURE( 0.02539999999999999897 ), #20 );
#39 = EDGE_CURVE ( 'NONE', #128, #57, #121, .T. ) ;
#40 = CARTESIAN_POINT ( 'NONE',  ( 5.785721337891755876E-18, 0.0000000000000000000, 0.04724400000000000127 ) ) ;
#41 = CARTESIAN_POINT ( 'NONE',  ( 0.0000000000000000000, 0.0000000000000000000, 0.0000000000000000000 ) ) ;
#42 = LINE ( 'NONE', #114, #115 ) ;
#43 = DIRECTION ( 'NONE',  ( 1.224646799147353207E-16, 0.0000000000000000000, 1.000000000000000000 ) ) ;
#44 = CIRCLE ( 'NONE', #215, 0.06374000000000018540 ) ;
#45 = LINE ( 'NONE', #257, #204 ) ;
#46 = DIRECTION ( 'NONE',  ( 0.0000000000000000000, 0.0000000000000000000, -1.000000000000000000 ) ) ;
#47 = CARTESIAN_POINT ( 'NONE',  ( 0.0000000000000000000, 0.0000000000000000000, 1.953504000000000129 ) ) ;
#48 = STYLED_ITEM ( 'NONE', ( #297 ), #52 ) ;
#49 = CARTESIAN_POINT ( 'NONE',  ( 0.0000000000000000000, 0.0000000000000000000, 1.968503999999999809 ) ) ;
#50 = CARTESIAN_POINT ( 'NONE',  ( -0.07874000000000001831, 0.0000000000000000000, 1.953504000000000129 ) ) ;
#51 = ADVANCED_FACE ( 'NONE', ( #171 ), #236, .T. ) ;
#52 = MANIFOLD_SOLID_BREP ( 'Cut-Revolve1', #259 ) ;
#53 = AXIS2_PLACEMENT_3D ( 'NONE', #136, #167, #4 ) ;
#54 = PRODUCT_DEFINITION_CONTEXT ( 'detailed design', #142, 'design' ) ;
#55 = EDGE_LOOP ( 'NONE', ( #239, #129 ) ) ;
#56 = DIRECTION ( 'NONE',  ( 1.000000000000000000, 0.0000000000000000000, 0.0000000000000000000 ) ) ;
#57 = VERTEX_POINT ( 'NONE', #153 ) ;
#58 = AXIS2_PLACEMENT_3D ( 'NONE', #140, #74, #56 ) ;
#59 = EDGE_LOOP ( 'NONE', ( #201, #221, #144, #174 ) ) ;
#60 = DIRECTION ( 'NONE',  ( 0.0000000000000000000, 0.0000000000000000000, 1.000000000000000000 ) ) ;
#61 = VERTEX_POINT ( 'NONE', #184 ) ;
#62 = ADVANCED_FACE ( 'NONE', ( #87 ), #273, .T. ) ;
#63 = DIRECTION ( 'NONE',  ( 1.000000000000000000, 0.0000000000000000000, 0.0000000000000000000 ) ) ;
#64 = AXIS2_PLACEMENT_3D ( 'NONE', #47, #276, #262 ) ;
#65 = PLANE ( 'NONE',  #294 ) ;
#66 = DIRECTION ( 'NONE',  ( -1.000000000000000000, 0.0000000000000000000, 0.0000000000000000000 ) ) ;
#67 = CIRCLE ( 'NONE', #237, 0.007866125999999999327 ) ;
#68 =( LENGTH_UNIT ( ) NAMED_UNIT ( * ) SI_UNIT ( $, .METRE. ) );
#69 = DIRECTION ( 'NONE',  ( 1.000000000000000000, 0.0000000000000000000, 0.0000000000000000000 ) ) ;
#70 = AXIS2_PLACEMENT_3D ( 'NONE', #282, #162, #213 ) ;
#71 = CYLINDRICAL_SURFACE ( 'NONE', #165, 0.07874000000000001831 ) ;
#72 = EDGE_CURVE ( 'NONE', #245, #82, #21, .T. ) ;
#73 = UNCERTAINTY_MEASURE_WITH_UNIT (LENGTH_MEASURE( 1.000000000000000082E-05 ), #164, 'distance_accuracy_value', 'NONE');
#74 = DIRECTION ( 'NONE',  ( 0.0000000000000000000, 0.0000000000000000000, 1.000000000000000000 ) ) ;
#75 = VECTOR ( 'NONE', #271, 39.37007874015748143 ) ;
#76 = VECTOR ( 'NONE', #6, 39.37007874015748143 ) ;
#77 = APPLICATION_PROTOCOL_DEFINITION ( 'draft international standard', 'automotive_design', 1998, #142 ) ;
#78 = ORIENTED_EDGE ( 'NONE', *, *, #111, .T. ) ;
#79 = ADVANCED_FACE ( 'NONE', ( #1 ), #65, .T. ) ;
#80 = DIMENSIONAL_EXPONENTS ( 1.000000000000000000, 0.0000000000000000000, 0.0000000000000000000, 0.0000000000000000000, 0.0000000000000000000, 0.0000000000000000000, 0.0000000000000000000 ) ;
#81 = ORIENTED_EDGE ( 'NONE', *, *, #28, .F. ) ;
#82 = VERTEX_POINT ( 'NONE', #134 ) ;
#83 = CONICAL_SURFACE ( 'NONE', #138, 0.007866125999999999327, 0.1745329251994338915 ) ;
#84 = DIRECTION ( 'NONE',  ( -1.000000000000000000, 0.0000000000000000000, 1.224646799147353207E-16 ) ) ;
#85 = CARTESIAN_POINT ( 'NONE',  ( -0.06374000000000018540, 0.0000000000000000000, 1.968503999999999809 ) ) ;
#86 = EDGE_CURVE ( 'NONE', #290, #238, #67, .T. ) ;
#87 = FACE_OUTER_BOUND ( 'NONE', #17, .T. ) ;
#88 = ORIENTED_EDGE ( 'NONE', *, *, #278, .T. ) ;
#89 =( NAMED_UNIT ( * ) SI_UNIT ( $, .STERADIAN. ) SOLID_ANGLE_UNIT ( ) );
#90 = AXIS2_PLACEMENT_3D ( 'NONE', #120, #279, #188 ) ;
#91 = DIRECTION ( 'NONE',  ( 1.000000000000000000, 0.0000000000000000000, 0.0000000000000000000 ) ) ;
#92 = DIRECTION ( 'NONE',  ( -1.000000000000000000, 0.0000000000000000000, 1.224646799147353207E-16 ) ) ;
#93 = CARTESIAN_POINT ( 'NONE',  ( 5.785721337891755876E-18, 0.0000000000000000000, 0.04724400000000000127 ) ) ;
#94 = LINE ( 'NONE', #232, #76 ) ;
#95 = EDGE_CURVE ( 'NONE', #57, #128, #44, .T. ) ;
#96 = DIRECTION ( 'NONE',  ( -1.000000000000000000, 0.0000000000000000000, 0.0000000000000000000 ) ) ;
#97 = CARTESIAN_POINT ( 'NONE',  ( 0.0000000000000000000, 0.0000000000000000000, 1.953504000000000129 ) ) ;
#98 = PRODUCT_RELATED_PRODUCT_CATEGORY ( 'part', '', ( #229 ) ) ;
#99 = PRESENTATION_STYLE_ASSIGNMENT (( #287 ) ) ;
#100 = ORIENTED_EDGE ( 'NONE', *, *, #251, .T. ) ;
#101 = CIRCLE ( 'NONE', #70, 0.07874000000000001831 ) ;
#102 = ORIENTED_EDGE ( 'NONE', *, *, #240, .T. ) ;
#103 = ORIENTED_EDGE ( 'NONE', *, *, #159, .F. ) ;
#104 = LINE ( 'NONE', #130, #26 ) ;
#105 = PRODUCT_DEFINITION ( 'UNKNOWN', '', #205, #54 ) ;
#106 = ORIENTED_EDGE ( 'NONE', *, *, #240, .F. ) ;
#107 = DIRECTION ( 'NONE',  ( 1.000000000000000000, 0.0000000000000000000, -0.0000000000000000000 ) ) ;
#108 = ORIENTED_EDGE ( 'NONE', *, *, #95, .F. ) ;
#109 = DIRECTION ( 'NONE',  ( -1.224646799147353207E-16, -0.0000000000000000000, -1.000000000000000000 ) ) ;
#110 = DIRECTION ( 'NONE',  ( -1.224646799147353207E-16, -0.0000000000000000000, -1.000000000000000000 ) ) ;
#111 = EDGE_CURVE ( 'NONE', #238, #290, #37, .T. ) ;
#112 = CARTESIAN_POINT ( 'NONE',  ( 1.179729942015078535E-34, 0.0000000000000000000, 9.633226027589772019E-19 ) ) ;
#113 =( NAMED_UNIT ( * ) SI_UNIT ( $, .STERADIAN. ) SOLID_ANGLE_UNIT ( ) );
#114 = CARTESIAN_POINT ( 'NONE',  ( -0.007866125999999999327, 0.0000000000000000000, 9.633226027589772019E-19 ) ) ;
#115 = VECTOR ( 'NONE', #225, 39.37007874015748143 ) ;
#116 = DIRECTION ( 'NONE',  ( -0.1736481776669311916, 2.126576849575783316E-17, 0.9848077530122080203 ) ) ;
#117 = CONICAL_SURFACE ( 'NONE', #277, 0.007866125999999999327, 0.1745329251994338915 ) ;
#118 = APPLICATION_PROTOCOL_DEFINITION ( 'draft international standard', 'automotive_design', 1998, #255 ) ;
#119 = CYLINDRICAL_SURFACE ( 'NONE', #293, 0.07874000000000001831 ) ;
#120 = CARTESIAN_POINT ( 'NONE',  ( 5.500987443603729625E-17, 0.0000000000000000000, 0.4491897131020741729 ) ) ;
#121 = CIRCLE ( 'NONE', #158, 0.06374000000000018540 ) ;
#122 = CIRCLE ( 'NONE', #283, 0.007866125999999999327 ) ;
#123 = ORIENTED_EDGE ( 'NONE', *, *, #207, .T. ) ;
#124 = ADVANCED_FACE ( 'NONE', ( #252 ), #274, .F. ) ;
#125 = VECTOR ( 'NONE', #163, 39.37007874015748143 ) ;
#126 = VERTEX_POINT ( 'NONE', #200 ) ;
#127 = DIMENSIONAL_EXPONENTS ( 1.000000000000000000, 0.0000000000000000000, 0.0000000000000000000, 0.0000000000000000000, 0.0000000000000000000, 0.0000000000000000000, 0.0000000000000000000 ) ;
#128 = VERTEX_POINT ( 'NONE', #16 ) ;
#129 = ORIENTED_EDGE ( 'NONE', *, *, #95, .T. ) ;
#130 = CARTESIAN_POINT ( 'NONE',  ( 0.007866125999999999327, 9.633226027589772019E-19, -9.633226027589772019E-19 ) ) ;
#131 = ORIENTED_EDGE ( 'NONE', *, *, #72, .F. ) ;
#132 = STYLED_ITEM ( 'NONE', ( #99 ), #264 ) ;
#133 = DIRECTION ( 'NONE',  ( -1.224646799147353207E-16, -0.0000000000000000000, -1.000000000000000000 ) ) ;
#134 = CARTESIAN_POINT ( 'NONE',  ( -0.07873999999999996280, 0.0000000000000000000, 0.4491897131020741729 ) ) ;
#135 = DIRECTION ( 'NONE',  ( -1.000000000000000000, 0.0000000000000000000, 0.0000000000000000000 ) ) ;
#136 = CARTESIAN_POINT ( 'NONE',  ( 0.0000000000000000000, 0.0000000000000000000, 1.968503999999999809 ) ) ;
#137 = CYLINDRICAL_SURFACE ( 'NONE', #218, 0.007866125999999999327 ) ;
#138 = AXIS2_PLACEMENT_3D ( 'NONE', #244, #43, #63 ) ;
#139 = DIRECTION ( 'NONE',  ( 1.000000000000000000, 0.0000000000000000000, 0.0000000000000000000 ) ) ;
#140 = CARTESIAN_POINT ( 'NONE',  ( 0.0000000000000000000, 0.0000000000000000000, 0.0000000000000000000 ) ) ;
#141 = AXIS2_PLACEMENT_3D ( 'NONE', #30, #178, #13 ) ;
#142 = APPLICATION_CONTEXT ( 'automotive_design' ) ;
#143 = ADVANCED_FACE ( 'NONE', ( #185 ), #83, .T. ) ;
#144 = ORIENTED_EDGE ( 'NONE', *, *, #256, .T. ) ;
#145 = ORIENTED_EDGE ( 'NONE', *, *, #28, .T. ) ;
#146 =( LENGTH_UNIT ( ) NAMED_UNIT ( * ) SI_UNIT ( $, .METRE. ) );
#147 = DIMENSIONAL_EXPONENTS ( 1.000000000000000000, 0.0000000000000000000, 0.0000000000000000000, 0.0000000000000000000, 0.0000000000000000000, 0.0000000000000000000, 0.0000000000000000000 ) ;
#148 = AXIS2_PLACEMENT_3D ( 'NONE', #97, #46, #69 ) ;
#149 = ORIENTED_EDGE ( 'NONE', *, *, #269, .T. ) ;
#150 = ORIENTED_EDGE ( 'NONE', *, *, #25, .F. ) ;
#151 = DIRECTION ( 'NONE',  ( -1.000000000000000000, 0.0000000000000000000, 1.224646799147353207E-16 ) ) ;
#152 = ORIENTED_EDGE ( 'NONE', *, *, #25, .T. ) ;
#153 = CARTESIAN_POINT ( 'NONE',  ( 0.06374000000000018540, 8.724383797125754882E-18, 1.968503999999999809 ) ) ;
#154 = AXIS2_PLACEMENT_3D ( 'NONE', #41, #133, #84 ) ;
#155 = EDGE_CURVE ( 'NONE', #126, #19, #122, .T. ) ;
#156 = DIRECTION ( 'NONE',  ( 0.0000000000000000000, 0.0000000000000000000, 1.000000000000000000 ) ) ;
#157 = SURFACE_SIDE_STYLE ('',( #224 ) ) ;
#158 = AXIS2_PLACEMENT_3D ( 'NONE', #49, #286, #284 ) ;
#159 = EDGE_CURVE ( 'NONE', #126, #290, #104, .T. ) ;
#160 = VECTOR ( 'NONE', #203, 39.37007874015748143 ) ;
#161 = DIRECTION ( 'NONE',  ( -1.224646799147353207E-16, -0.0000000000000000000, -1.000000000000000000 ) ) ;
#162 = DIRECTION ( 'NONE',  ( -1.224646799147353207E-16, -0.0000000000000000000, -1.000000000000000000 ) ) ;
#163 = DIRECTION ( 'NONE',  ( -0.0000000000000000000, -0.0000000000000000000, -1.000000000000000000 ) ) ;
#164 =( CONVERSION_BASED_UNIT ( 'INCH', #234 ) LENGTH_UNIT ( ) NAMED_UNIT ( #127 ) );
#165 = AXIS2_PLACEMENT_3D ( 'NONE', #208, #261, #210 ) ;
#166 = EDGE_CURVE ( 'NONE', #19, #82, #299, .T. ) ;
#167 = DIRECTION ( 'NONE',  ( 0.0000000000000000000, 0.0000000000000000000, -1.000000000000000000 ) ) ;
#168 = SHAPE_DEFINITION_REPRESENTATION ( #189, #264 ) ;
#169 = UNCERTAINTY_MEASURE_WITH_UNIT (LENGTH_MEASURE( 1.000000000000000082E-05 ), #8, 'distance_accuracy_value', 'NONE');
#170 = PRESENTATION_LAYER_ASSIGNMENT (  '', '', ( #48 ) ) ;
#171 = FACE_OUTER_BOUND ( 'NONE', #292, .T. ) ;
#172 = ORIENTED_EDGE ( 'NONE', *, *, #86, .T. ) ;
#173 = LENGTH_MEASURE_WITH_UNIT ( LENGTH_MEASURE( 0.02539999999999999897 ), #146 );
#174 = ORIENTED_EDGE ( 'NONE', *, *, #251, .F. ) ;
#175 = PRODUCT_CONTEXT ( 'NONE', #255, 'mechanical' ) ;
#176 = AXIS2_PLACEMENT_3D ( 'NONE', #248, #2, #107 ) ;
#177 = ORIENTED_EDGE ( 'NONE', *, *, #155, .F. ) ;
#178 = DIRECTION ( 'NONE',  ( 0.0000000000000000000, 0.0000000000000000000, -1.000000000000000000 ) ) ;
#179 = DIRECTION ( 'NONE',  ( 1.000000000000000000, 0.0000000000000000000, -0.0000000000000000000 ) ) ;
#180 = EDGE_LOOP ( 'NONE', ( #265, #177, #100, #123 ) ) ;
#181 =( NAMED_UNIT ( * ) PLANE_ANGLE_UNIT ( ) SI_UNIT ( $, .RADIAN. ) );
#182 = ORIENTED_EDGE ( 'NONE', *, *, #111, .F. ) ;
#183 = ADVANCED_FACE ( 'NONE', ( #3 ), #71, .T. ) ;
#184 = CARTESIAN_POINT ( 'NONE',  ( 0.07874000000000007382, 9.642868896486266213E-18, 0.4491897131020741729 ) ) ;
#185 = FACE_OUTER_BOUND ( 'NONE', #59, .T. ) ;
#186 = CARTESIAN_POINT ( 'NONE',  ( 0.07874000000000001831, 9.642868896486260050E-18, 1.953504000000000129 ) ) ;
#187 = CIRCLE ( 'NONE', #64, 0.07874000000000001831 ) ;
#188 = DIRECTION ( 'NONE',  ( 1.000000000000000000, 0.0000000000000000000, 0.0000000000000000000 ) ) ;
#189 = PRODUCT_DEFINITION_SHAPE ( 'NONE', 'NONE',  #105 ) ;
#190 = CARTESIAN_POINT ( 'NONE',  ( 0.07874000000000001831, 9.642868896486260050E-18, 1.968503999999999809 ) ) ;
#191 = FILL_AREA_STYLE_COLOUR ( '', #263 ) ;
#192 =( NAMED_UNIT ( * ) PLANE_ANGLE_UNIT ( ) SI_UNIT ( $, .RADIAN. ) );
#193 = SURFACE_SIDE_STYLE ('',( #29 ) ) ;
#194 = DIRECTION ( 'NONE',  ( -0.0000000000000000000, -0.0000000000000000000, -1.000000000000000000 ) ) ;
#195 = VECTOR ( 'NONE', #116, 39.37007874015747433 ) ;
#196 = ORIENTED_EDGE ( 'NONE', *, *, #22, .T. ) ;
#197 = CARTESIAN_POINT ( 'NONE',  ( 0.0000000000000000000, 0.0000000000000000000, 1.968503999999999809 ) ) ;
#198 = COLOUR_RGB ( '',0.7921568627450980005, 0.8196078431372548767, 0.9333333333333333481 ) ;
#199 = EDGE_LOOP ( 'NONE', ( #108, #145, #15, #35 ) ) ;
#200 = CARTESIAN_POINT ( 'NONE',  ( 0.007866126000000004531, 0.0000000000000000000, 0.04724400000000000127 ) ) ;
#201 = ORIENTED_EDGE ( 'NONE', *, *, #269, .F. ) ;
#202 = ADVANCED_FACE ( 'NONE', ( #280 ), #117, .T. ) ;
#203 = DIRECTION ( 'NONE',  ( -0.0000000000000000000, -0.0000000000000000000, -1.000000000000000000 ) ) ;
#204 = VECTOR ( 'NONE', #281, 39.37007874015748143 ) ;
#205 = PRODUCT_DEFINITION_FORMATION_WITH_SPECIFIED_SOURCE ( 'ANY', '', #229, .NOT_KNOWN. ) ;
#206 = CARTESIAN_POINT ( 'NONE',  ( 1.179729942015078535E-34, 0.0000000000000000000, 9.633226027589772019E-19 ) ) ;
#207 = EDGE_CURVE ( 'NONE', #61, #82, #101, .T. ) ;
#208 = CARTESIAN_POINT ( 'NONE',  ( 0.0000000000000000000, 0.0000000000000000000, 1.968503999999999809 ) ) ;
#209 = AXIS2_PLACEMENT_3D ( 'NONE', #206, #246, #151 ) ;
#210 = DIRECTION ( 'NONE',  ( -1.000000000000000000, 0.0000000000000000000, 0.0000000000000000000 ) ) ;
#211 = LINE ( 'NONE', #190, #125 ) ;
#212 = ADVANCED_FACE ( 'NONE', ( #7 ), #233, .T. ) ;
#213 = DIRECTION ( 'NONE',  ( 1.000000000000000000, 0.0000000000000000000, 0.0000000000000000000 ) ) ;
#214 = CARTESIAN_POINT ( 'NONE',  ( 5.785721337891755876E-18, 0.0000000000000000000, 0.04724400000000000127 ) ) ;
#215 = AXIS2_PLACEMENT_3D ( 'NONE', #197, #60, #91 ) ;
#216 =( NAMED_UNIT ( * ) SI_UNIT ( $, .STERADIAN. ) SOLID_ANGLE_UNIT ( ) );
#217 = ORIENTED_EDGE ( 'NONE', *, *, #155, .T. ) ;
#218 = AXIS2_PLACEMENT_3D ( 'NONE', #228, #161, #23 ) ;
#219 = ORIENTED_EDGE ( 'NONE', *, *, #22, .F. ) ;
#220 = ORIENTED_EDGE ( 'NONE', *, *, #256, .F. ) ;
#221 = ORIENTED_EDGE ( 'NONE', *, *, #166, .T. ) ;
#222 = CIRCLE ( 'NONE', #90, 0.07874000000000001831 ) ;
#223 = ORIENTED_EDGE ( 'NONE', *, *, #159, .T. ) ;
#224 = SURFACE_STYLE_FILL_AREA ( #295 ) ;
#225 = DIRECTION ( 'NONE',  ( -1.224646799147353207E-16, -0.0000000000000000000, -1.000000000000000000 ) ) ;
#226 = FILL_AREA_STYLE_COLOUR ( '', #198 ) ;
#227 = CARTESIAN_POINT ( 'NONE',  ( -0.07874000000000001831, 0.0000000000000000000, 1.968503999999999809 ) ) ;
#228 = CARTESIAN_POINT ( 'NONE',  ( 0.0000000000000000000, 0.0000000000000000000, 0.0000000000000000000 ) ) ;
#229 = PRODUCT ( 'Micro_AMRM-004-2', 'Micro_AMRM-004-2', '', ( #175 ) ) ;
#230 = DIRECTION ( 'NONE',  ( 1.224646799147353207E-16, 0.0000000000000000000, 1.000000000000000000 ) ) ;
#231 = FACE_OUTER_BOUND ( 'NONE', #296, .T. ) ;
#232 = CARTESIAN_POINT ( 'NONE',  ( 0.007866126000000004531, 0.0000000000000000000, 0.04724400000000000127 ) ) ;
#233 = CONICAL_SURFACE ( 'NONE', #53, 0.06374000000000018540, 0.7853981633974528309 ) ;
#234 = LENGTH_MEASURE_WITH_UNIT ( LENGTH_MEASURE( 0.02539999999999999897 ), #68 );
#235 = FACE_OUTER_BOUND ( 'NONE', #291, .T. ) ;
#236 = CONICAL_SURFACE ( 'NONE', #141, 0.06374000000000018540, 0.7853981633974528309 ) ;
#237 = AXIS2_PLACEMENT_3D ( 'NONE', #112, #110, #92 ) ;
#238 = VERTEX_POINT ( 'NONE', #285 ) ;
#239 = ORIENTED_EDGE ( 'NONE', *, *, #39, .T. ) ;
#240 = EDGE_CURVE ( 'NONE', #266, #245, #187, .T. ) ;
#241 = CIRCLE ( 'NONE', #148, 0.07874000000000001831 ) ;
#242 = ORIENTED_EDGE ( 'NONE', *, *, #39, .F. ) ;
#243 = LINE ( 'NONE', #85, #75 ) ;
#244 = CARTESIAN_POINT ( 'NONE',  ( 5.785721337891755876E-18, 0.0000000000000000000, 0.04724400000000000127 ) ) ;
#245 = VERTEX_POINT ( 'NONE', #50 ) ;
#246 = DIRECTION ( 'NONE',  ( -1.224646799147353207E-16, -0.0000000000000000000, -1.000000000000000000 ) ) ;
#247 = CIRCLE ( 'NONE', #289, 0.007866125999999999327 ) ;
#248 = CARTESIAN_POINT ( 'NONE',  ( 0.0000000000000000000, 0.0000000000000000000, 0.0000000000000000000 ) ) ;
#249 =( CONVERSION_BASED_UNIT ( 'INCH', #38 ) LENGTH_UNIT ( ) NAMED_UNIT ( #80 ) );
#250 = CARTESIAN_POINT ( 'NONE',  ( -0.007866125999999994123, 5.303095749622619492E-18, 0.04724400000000000127 ) ) ;
#251 = EDGE_CURVE ( 'NONE', #126, #61, #94, .T. ) ;
#252 = FACE_OUTER_BOUND ( 'NONE', #268, .T. ) ;
#253 = CARTESIAN_POINT ( 'NONE',  ( 0.007866125999999999327, 9.633226027589772019E-19, 0.0000000000000000000 ) ) ;
#254 = DIRECTION ( 'NONE',  ( -1.224646799147353207E-16, -0.0000000000000000000, -1.000000000000000000 ) ) ;
#255 = APPLICATION_CONTEXT ( 'automotive_design' ) ;
#256 = EDGE_CURVE ( 'NONE', #82, #61, #222, .T. ) ;
#257 = CARTESIAN_POINT ( 'NONE',  ( 0.06374000000000018540, 7.805898697765251255E-18, 1.968503999999999809 ) ) ;
#258 = CARTESIAN_POINT ( 'NONE',  ( -0.007866125999999994123, 9.633226027589772019E-19, 0.04724400000000000127 ) ) ;
#259 = CLOSED_SHELL ( 'NONE', ( #62, #143, #212, #183, #34, #79, #51, #202, #288, #124 ) ) ;
#260 =( GEOMETRIC_REPRESENTATION_CONTEXT ( 3 ) GLOBAL_UNCERTAINTY_ASSIGNED_CONTEXT ( ( #73 ) ) GLOBAL_UNIT_ASSIGNED_CONTEXT ( ( #164, #24, #113 ) ) REPRESENTATION_CONTEXT ( 'NONE', 'WORKASPACE' ) );
#261 = DIRECTION ( 'NONE',  ( -0.0000000000000000000, -0.0000000000000000000, -1.000000000000000000 ) ) ;
#262 = DIRECTION ( 'NONE',  ( 1.000000000000000000, 0.0000000000000000000, 0.0000000000000000000 ) ) ;
#263 = COLOUR_RGB ( '',0.7921568627450980005, 0.8196078431372548767, 0.9333333333333333481 ) ;
#264 = ADVANCED_BREP_SHAPE_REPRESENTATION ( 'Micro_AMRM-004-2', ( #52, #58 ), #260 ) ;
#265 = ORIENTED_EDGE ( 'NONE', *, *, #166, .F. ) ;
#266 = VERTEX_POINT ( 'NONE', #186 ) ;
#267 = MECHANICAL_DESIGN_GEOMETRIC_PRESENTATION_REPRESENTATION (  '', ( #48 ), #18 ) ;
#268 = EDGE_LOOP ( 'NONE', ( #78, #172 ) ) ;
#269 = EDGE_CURVE ( 'NONE', #19, #126, #247, .T. ) ;
#270 = CARTESIAN_POINT ( 'NONE',  ( 0.0000000000000000000, 0.0000000000000000000, 1.968503999999999809 ) ) ;
#271 = DIRECTION ( 'NONE',  ( -0.7071067811865507924, 0.0000000000000000000, -0.7071067811865443531 ) ) ;
#272 = ORIENTED_EDGE ( 'NONE', *, *, #72, .T. ) ;
#273 = CYLINDRICAL_SURFACE ( 'NONE', #154, 0.007866125999999999327 ) ;
#274 = PLANE ( 'NONE',  #176 ) ;
#275 = DIRECTION ( 'NONE',  ( -1.224646799147353207E-16, -0.0000000000000000000, -1.000000000000000000 ) ) ;
#276 = DIRECTION ( 'NONE',  ( 0.0000000000000000000, 0.0000000000000000000, -1.000000000000000000 ) ) ;
#277 = AXIS2_PLACEMENT_3D ( 'NONE', #93, #230, #139 ) ;
#278 = EDGE_CURVE ( 'NONE', #245, #266, #241, .T. ) ;
#279 = DIRECTION ( 'NONE',  ( -1.224646799147353207E-16, -0.0000000000000000000, -1.000000000000000000 ) ) ;
#280 = FACE_OUTER_BOUND ( 'NONE', #180, .T. ) ;
#281 = DIRECTION ( 'NONE',  ( 0.7071067811865507924, 8.659560562354973534E-17, -0.7071067811865443531 ) ) ;
#282 = CARTESIAN_POINT ( 'NONE',  ( 5.500987443603729625E-17, 0.0000000000000000000, 0.4491897131020741729 ) ) ;
#283 = AXIS2_PLACEMENT_3D ( 'NONE', #40, #275, #135 ) ;
#284 = DIRECTION ( 'NONE',  ( 1.000000000000000000, 0.0000000000000000000, 0.0000000000000000000 ) ) ;
#285 = CARTESIAN_POINT ( 'NONE',  ( -0.007866125999999999327, 0.0000000000000000000, 1.926645205517954404E-18 ) ) ;
#286 = DIRECTION ( 'NONE',  ( 0.0000000000000000000, 0.0000000000000000000, 1.000000000000000000 ) ) ;
#287 = SURFACE_STYLE_USAGE ( .BOTH. , #193 ) ;
#288 = ADVANCED_FACE ( 'NONE', ( #235 ), #137, .T. ) ;
#289 = AXIS2_PLACEMENT_3D ( 'NONE', #214, #254, #66 ) ;
#290 = VERTEX_POINT ( 'NONE', #253 ) ;
#291 = EDGE_LOOP ( 'NONE', ( #103, #217, #196, #31 ) ) ;
#292 = EDGE_LOOP ( 'NONE', ( #81, #242, #298, #106 ) ) ;
#293 = AXIS2_PLACEMENT_3D ( 'NONE', #9, #194, #96 ) ;
#294 = AXIS2_PLACEMENT_3D ( 'NONE', #270, #156, #179 ) ;
#295 = FILL_AREA_STYLE ('',( #226 ) ) ;
#296 = EDGE_LOOP ( 'NONE', ( #150, #102, #272, #12 ) ) ;
#297 = PRESENTATION_STYLE_ASSIGNMENT (( #36 ) ) ;
#298 = ORIENTED_EDGE ( 'NONE', *, *, #14, .T. ) ;
#299 = LINE ( 'NONE', #258, #195 ) ;
ENDSEC;
END-ISO-10303-21;
