ISO-10303-21;
HEADER;
FILE_DESCRIPTION (( 'STEP AP214' ),
    '1' );
FILE_NAME ('Micro_SBMM-040-212X.STEP',
    '2021-09-02T17:08:51',
    ( '' ),
    ( '' ),
    'SwSTEP 2.0',
    'SolidWorks 2020',
    '' );
FILE_SCHEMA (( 'AUTOMOTIVE_DESIGN' ));
ENDSEC;

DATA;
#1 = VERTEX_POINT ( 'NONE', #328 ) ;
#2 = AXIS2_PLACEMENT_3D ( 'NONE', #238, #167, #20 ) ;
#3 = PRESENTATION_LAYER_ASSIGNMENT (  '', '', ( #166 ) ) ;
#4 = ORIENTED_EDGE ( 'NONE', *, *, #97, .F. ) ;
#5 = DIRECTION ( 'NONE',  ( 0.09128382184643858699, 0.0000000000000000000, 0.9958249162724878145 ) ) ;
#6 = CARTESIAN_POINT ( 'NONE',  ( 0.0000000000000000000, 0.0000000000000000000, 2.952755999999999936 ) ) ;
#7 = VERTEX_POINT ( 'NONE', #88 ) ;
#8 = DIRECTION ( 'NONE',  ( 0.0000000000000000000, 0.0000000000000000000, 1.000000000000000000 ) ) ;
#9 = VERTEX_POINT ( 'NONE', #222 ) ;
#10 = CARTESIAN_POINT ( 'NONE',  ( -0.1181100000000000344, 0.0000000000000000000, 2.952755999999999936 ) ) ;
#11 = SURFACE_STYLE_FILL_AREA ( #213 ) ;
#12 = DIRECTION ( 'NONE',  ( 0.0000000000000000000, 1.000000000000000000, 0.0000000000000000000 ) ) ;
#13 = ORIENTED_EDGE ( 'NONE', *, *, #255, .F. ) ;
#14 = DIRECTION ( 'NONE',  ( 1.000000000000000000, 0.0000000000000000000, 0.0000000000000000000 ) ) ;
#15 = ORIENTED_EDGE ( 'NONE', *, *, #49, .F. ) ;
#16 = COLOUR_RGB ( '',0.7921568627450980005, 0.8196078431372548767, 0.9333333333333333481 ) ;
#17 = AXIS2_PLACEMENT_3D ( 'NONE', #106, #137, #12 ) ;
#18 = VECTOR ( 'NONE', #220, 39.37007874015748143 ) ;
#19 = EDGE_LOOP ( 'NONE', ( #13, #93, #103, #133 ) ) ;
#20 = DIRECTION ( 'NONE',  ( -1.000000000000000000, 0.0000000000000000000, 0.0000000000000000000 ) ) ;
#21 = FILL_AREA_STYLE ('',( #305 ) ) ;
#22 = EDGE_CURVE ( 'NONE', #282, #40, #36, .T. ) ;
#23 =( GEOMETRIC_REPRESENTATION_CONTEXT ( 3 ) GLOBAL_UNCERTAINTY_ASSIGNED_CONTEXT ( ( #259 ) ) GLOBAL_UNIT_ASSIGNED_CONTEXT ( ( #303, #72, #330 ) ) REPRESENTATION_CONTEXT ( 'NONE', 'WORKASPACE' ) );
#24 = MANIFOLD_SOLID_BREP ( 'Cut-Revolve3', #98 ) ;
#25 = AXIS2_PLACEMENT_3D ( 'NONE', #246, #116, #63 ) ;
#26 = ORIENTED_EDGE ( 'NONE', *, *, #48, .T. ) ;
#27 = CARTESIAN_POINT ( 'NONE',  ( 0.0000000000000000000, 0.0000000000000000000, 0.07874000000000000443 ) ) ;
#28 = DIRECTION ( 'NONE',  ( 0.0000000000000000000, 0.0000000000000000000, 1.000000000000000000 ) ) ;
#29 = DIRECTION ( 'NONE',  ( 0.0000000000000000000, 0.0000000000000000000, -1.000000000000000000 ) ) ;
#30 = AXIS2_PLACEMENT_3D ( 'NONE', #127, #181, #344 ) ;
#31 = CARTESIAN_POINT ( 'NONE',  ( -0.1181100000000000344, 0.0000000000000000000, 2.937755999999999368 ) ) ;
#32 = EDGE_CURVE ( 'NONE', #163, #154, #267, .T. ) ;
#33 = DIRECTION ( 'NONE',  ( -1.000000000000000000, 0.0000000000000000000, 0.0000000000000000000 ) ) ;
#34 = ORIENTED_EDGE ( 'NONE', *, *, #202, .F. ) ;
#35 = CARTESIAN_POINT ( 'NONE',  ( 0.0000000000000000000, 0.0000000000000000000, 2.952755999999999936 ) ) ;
#36 = CIRCLE ( 'NONE', #125, 0.05314949999999995373 ) ;
#37 = DIRECTION ( 'NONE',  ( -1.000000000000000000, 0.0000000000000000000, 0.0000000000000000000 ) ) ;
#38 = AXIS2_PLACEMENT_3D ( 'NONE', #83, #184, #39 ) ;
#39 = DIRECTION ( 'NONE',  ( -1.000000000000000000, 0.0000000000000000000, 0.0000000000000000000 ) ) ;
#40 = VERTEX_POINT ( 'NONE', #279 ) ;
#41 = LINE ( 'NONE', #86, #300 ) ;
#42 = ADVANCED_FACE ( 'NONE', ( #200 ), #143, .T. ) ;
#43 = ORIENTED_EDGE ( 'NONE', *, *, #32, .T. ) ;
#44 = ORIENTED_EDGE ( 'NONE', *, *, #183, .T. ) ;
#45 = CONICAL_SURFACE ( 'NONE', #102, 0.1299209999999997867, 0.09141107358620993717 ) ;
#46 = EDGE_CURVE ( 'NONE', #193, #1, #307, .T. ) ;
#47 = AXIS2_PLACEMENT_3D ( 'NONE', #6, #8, #107 ) ;
#48 = EDGE_CURVE ( 'NONE', #108, #7, #334, .T. ) ;
#49 = EDGE_CURVE ( 'NONE', #54, #141, #147, .T. ) ;
#50 = CIRCLE ( 'NONE', #179, 0.07873999999999999055 ) ;
#51 = ORIENTED_EDGE ( 'NONE', *, *, #32, .F. ) ;
#52 = FACE_OUTER_BOUND ( 'NONE', #290, .T. ) ;
#53 = AXIS2_PLACEMENT_3D ( 'NONE', #119, #229, #96 ) ;
#54 = VERTEX_POINT ( 'NONE', #100 ) ;
#55 = DIRECTION ( 'NONE',  ( 0.0000000000000000000, 0.0000000000000000000, -1.000000000000000000 ) ) ;
#56 = CARTESIAN_POINT ( 'NONE',  ( -0.05314949999999996760, 0.0000000000000000000, 0.0000000000000000000 ) ) ;
#57 = PRESENTATION_STYLE_ASSIGNMENT (( #272 ) ) ;
#58 = CARTESIAN_POINT ( 'NONE',  ( 0.0000000000000000000, 0.0000000000000000000, 0.07874000000000000443 ) ) ;
#59 = EDGE_CURVE ( 'NONE', #154, #9, #74, .T. ) ;
#60 = CONICAL_SURFACE ( 'NONE', #286, 0.1299209999999997867, 0.09141107358620993717 ) ;
#61 = ORIENTED_EDGE ( 'NONE', *, *, #104, .F. ) ;
#62 = CYLINDRICAL_SURFACE ( 'NONE', #240, 0.1181100000000000344 ) ;
#63 = DIRECTION ( 'NONE',  ( 1.000000000000000000, 0.0000000000000000000, 0.0000000000000000000 ) ) ;
#64 = EDGE_CURVE ( 'NONE', #163, #136, #50, .T. ) ;
#65 = CARTESIAN_POINT ( 'NONE',  ( 0.0000000000000000000, 0.0000000000000000000, 2.937755999999999368 ) ) ;
#66 =( NAMED_UNIT ( * ) SI_UNIT ( $, .STERADIAN. ) SOLID_ANGLE_UNIT ( ) );
#67 = SURFACE_SIDE_STYLE ('',( #11 ) ) ;
#68 = DIRECTION ( 'NONE',  ( -1.000000000000000000, 0.0000000000000000000, 0.0000000000000000000 ) ) ;
#69 = DIRECTION ( 'NONE',  ( -0.0000000000000000000, -0.0000000000000000000, -1.000000000000000000 ) ) ;
#70 = AXIS2_PLACEMENT_3D ( 'NONE', #58, #14, #115 ) ;
#71 = DIRECTION ( 'NONE',  ( 0.0000000000000000000, 0.0000000000000000000, 1.000000000000000000 ) ) ;
#72 =( NAMED_UNIT ( * ) PLANE_ANGLE_UNIT ( ) SI_UNIT ( $, .RADIAN. ) );
#73 = EDGE_CURVE ( 'NONE', #40, #345, #235, .T. ) ;
#74 = CIRCLE ( 'NONE', #117, 0.05314949999999998842 ) ;
#75 = ORIENTED_EDGE ( 'NONE', *, *, #76, .T. ) ;
#76 = EDGE_CURVE ( 'NONE', #1, #193, #172, .T. ) ;
#77 = EDGE_LOOP ( 'NONE', ( #4, #326, #318, #333 ) ) ;
#78 = CARTESIAN_POINT ( 'NONE',  ( 0.0000000000000000000, 0.0000000000000000000, 0.1368357679160022988 ) ) ;
#79 = FACE_OUTER_BOUND ( 'NONE', #296, .T. ) ;
#80 = CIRCLE ( 'NONE', #185, 0.1181100000000000344 ) ;
#81 = PRODUCT_DEFINITION_CONTEXT ( 'detailed design', #171, 'design' ) ;
#82 = DIRECTION ( 'NONE',  ( -0.0000000000000000000, -0.0000000000000000000, -1.000000000000000000 ) ) ;
#83 = CARTESIAN_POINT ( 'NONE',  ( 0.0000000000000000000, 0.0000000000000000000, 0.4724409999999999998 ) ) ;
#84 = AXIS2_PLACEMENT_3D ( 'NONE', #313, #29, #188 ) ;
#85 = ORIENTED_EDGE ( 'NONE', *, *, #202, .T. ) ;
#86 = CARTESIAN_POINT ( 'NONE',  ( -0.1299209999999997867, 1.591073367920230035E-17, 1.309949454545451752 ) ) ;
#87 = EDGE_CURVE ( 'NONE', #40, #1, #197, .T. ) ;
#88 = CARTESIAN_POINT ( 'NONE',  ( -0.1031099999999991745, 0.0000000000000000000, 2.952755999999999936 ) ) ;
#89 = SPHERICAL_SURFACE ( 'NONE', #17, 0.07873999999999999055 ) ;
#90 = CARTESIAN_POINT ( 'NONE',  ( 0.0000000000000000000, 0.0000000000000000000, 2.952755999999999936 ) ) ;
#91 = AXIS2_PLACEMENT_3D ( 'NONE', #90, #322, #134 ) ;
#92 = DIRECTION ( 'NONE',  ( -0.0000000000000000000, -0.0000000000000000000, -1.000000000000000000 ) ) ;
#93 = ORIENTED_EDGE ( 'NONE', *, *, #49, .T. ) ;
#94 = ADVANCED_FACE ( 'NONE', ( #302 ), #62, .T. ) ;
#95 = VECTOR ( 'NONE', #265, 39.37007874015748143 ) ;
#96 = DIRECTION ( 'NONE',  ( -1.000000000000000000, 0.0000000000000000000, 0.0000000000000000000 ) ) ;
#97 = EDGE_CURVE ( 'NONE', #282, #193, #41, .T. ) ;
#98 = CLOSED_SHELL ( 'NONE', ( #42, #101, #289, #293, #144, #94, #340, #260, #271, #187, #251 ) ) ;
#99 = CONICAL_SURFACE ( 'NONE', #227, 0.1031099999999991745, 0.7853981633974500554 ) ;
#100 = CARTESIAN_POINT ( 'NONE',  ( 0.1181100000000000344, 1.446430334472939084E-17, 2.937755999999999368 ) ) ;
#101 = ADVANCED_FACE ( 'NONE', ( #294 ), #327, .T. ) ;
#102 = AXIS2_PLACEMENT_3D ( 'NONE', #204, #231, #177 ) ;
#103 = ORIENTED_EDGE ( 'NONE', *, *, #135, .T. ) ;
#104 = EDGE_CURVE ( 'NONE', #141, #54, #80, .T. ) ;
#105 = FACE_OUTER_BOUND ( 'NONE', #292, .T. ) ;
#106 = CARTESIAN_POINT ( 'NONE',  ( 0.0000000000000000000, 0.0000000000000000000, 0.07874000000000000443 ) ) ;
#107 = DIRECTION ( 'NONE',  ( 1.000000000000000000, 0.0000000000000000000, -0.0000000000000000000 ) ) ;
#108 = VERTEX_POINT ( 'NONE', #291 ) ;
#109 = DIRECTION ( 'NONE',  ( -1.000000000000000000, 0.0000000000000000000, 0.0000000000000000000 ) ) ;
#110 = EDGE_CURVE ( 'NONE', #282, #154, #261, .T. ) ;
#111 = ORIENTED_EDGE ( 'NONE', *, *, #110, .F. ) ;
#112 = CARTESIAN_POINT ( 'NONE',  ( 0.0000000000000000000, 0.0000000000000000000, 0.07874000000000000443 ) ) ;
#113 = DIRECTION ( 'NONE',  ( 1.000000000000000000, 0.0000000000000000000, 0.0000000000000000000 ) ) ;
#114 = ORIENTED_EDGE ( 'NONE', *, *, #132, .F. ) ;
#115 = DIRECTION ( 'NONE',  ( 0.0000000000000000000, 1.000000000000000000, 0.0000000000000000000 ) ) ;
#116 = DIRECTION ( 'NONE',  ( 0.0000000000000000000, 0.0000000000000000000, 1.000000000000000000 ) ) ;
#117 = AXIS2_PLACEMENT_3D ( 'NONE', #78, #312, #149 ) ;
#118 = ORIENTED_EDGE ( 'NONE', *, *, #97, .T. ) ;
#119 = CARTESIAN_POINT ( 'NONE',  ( 0.0000000000000000000, 0.0000000000000000000, 0.0000000000000000000 ) ) ;
#120 = LENGTH_MEASURE_WITH_UNIT ( LENGTH_MEASURE( 0.02539999999999999897 ), #295 );
#121 = STYLED_ITEM ( 'NONE', ( #57 ), #24 ) ;
#122 = AXIS2_PLACEMENT_3D ( 'NONE', #285, #82, #37 ) ;
#123 = DIRECTION ( 'NONE',  ( -0.7071067811865486830, 0.0000000000000000000, -0.7071067811865462405 ) ) ;
#124 = CARTESIAN_POINT ( 'NONE',  ( 0.0000000000000000000, 0.0000000000000000000, 2.952755999999999936 ) ) ;
#125 = AXIS2_PLACEMENT_3D ( 'NONE', #198, #92, #304 ) ;
#126 = COLOUR_RGB ( '',0.7921568627450980005, 0.8196078431372548767, 0.9333333333333333481 ) ;
#127 = CARTESIAN_POINT ( 'NONE',  ( 0.0000000000000000000, 0.0000000000000000000, 2.937755999999999368 ) ) ;
#128 = PLANE ( 'NONE',  #47 ) ;
#129 = CYLINDRICAL_SURFACE ( 'NONE', #152, 0.1181100000000000344 ) ;
#130 =( LENGTH_UNIT ( ) NAMED_UNIT ( * ) SI_UNIT ( $, .METRE. ) );
#131 = CARTESIAN_POINT ( 'NONE',  ( 0.0000000000000000000, 4.821434448243128484E-18, 1.707404996040164512E-17 ) ) ;
#132 = EDGE_CURVE ( 'NONE', #9, #345, #153, .T. ) ;
#133 = ORIENTED_EDGE ( 'NONE', *, *, #46, .T. ) ;
#134 = DIRECTION ( 'NONE',  ( 1.000000000000000000, 0.0000000000000000000, 0.0000000000000000000 ) ) ;
#135 = EDGE_CURVE ( 'NONE', #141, #193, #157, .T. ) ;
#136 = VERTEX_POINT ( 'NONE', #131 ) ;
#137 = DIRECTION ( 'NONE',  ( 1.000000000000000000, 0.0000000000000000000, 0.0000000000000000000 ) ) ;
#138 = ORIENTED_EDGE ( 'NONE', *, *, #311, .T. ) ;
#139 = DIRECTION ( 'NONE',  ( -0.09128382184643858699, 1.117904402381782355E-17, 0.9958249162724878145 ) ) ;
#140 = APPLICATION_CONTEXT ( 'automotive_design' ) ;
#141 = VERTEX_POINT ( 'NONE', #31 ) ;
#142 = LENGTH_MEASURE_WITH_UNIT ( LENGTH_MEASURE( 0.02539999999999999897 ), #196 );
#143 = CYLINDRICAL_SURFACE ( 'NONE', #316, 0.05314949999999996760 ) ;
#144 = ADVANCED_FACE ( 'NONE', ( #105 ), #129, .T. ) ;
#145 = FACE_OUTER_BOUND ( 'NONE', #301, .T. ) ;
#146 = DIMENSIONAL_EXPONENTS ( 1.000000000000000000, 0.0000000000000000000, 0.0000000000000000000, 0.0000000000000000000, 0.0000000000000000000, 0.0000000000000000000, 0.0000000000000000000 ) ;
#147 = CIRCLE ( 'NONE', #30, 0.1181100000000000344 ) ;
#148 = ORIENTED_EDGE ( 'NONE', *, *, #76, .F. ) ;
#149 = DIRECTION ( 'NONE',  ( -1.000000000000000000, 0.0000000000000000000, 0.0000000000000000000 ) ) ;
#150 = ORIENTED_EDGE ( 'NONE', *, *, #22, .T. ) ;
#151 = ORIENTED_EDGE ( 'NONE', *, *, #59, .F. ) ;
#152 = AXIS2_PLACEMENT_3D ( 'NONE', #35, #209, #109 ) ;
#153 = CIRCLE ( 'NONE', #343, 0.05314949999999998842 ) ;
#154 = VERTEX_POINT ( 'NONE', #214 ) ;
#155 = DIRECTION ( 'NONE',  ( -0.0000000000000000000, -0.0000000000000000000, -1.000000000000000000 ) ) ;
#156 =( CONVERSION_BASED_UNIT ( 'INCH', #142 ) LENGTH_UNIT ( ) NAMED_UNIT ( #146 ) );
#157 = LINE ( 'NONE', #10, #95 ) ;
#158 = ORIENTED_EDGE ( 'NONE', *, *, #168, .T. ) ;
#159 = DIRECTION ( 'NONE',  ( 1.000000000000000000, 0.0000000000000000000, 0.0000000000000000000 ) ) ;
#160 =( NAMED_UNIT ( * ) PLANE_ANGLE_UNIT ( ) SI_UNIT ( $, .RADIAN. ) );
#161 = CARTESIAN_POINT ( 'NONE',  ( 0.0000000000000000000, 0.0000000000000000000, 2.952755999999999936 ) ) ;
#162 = SHAPE_DEFINITION_REPRESENTATION ( #230, #319 ) ;
#163 = VERTEX_POINT ( 'NONE', #237 ) ;
#164 = SURFACE_STYLE_FILL_AREA ( #21 ) ;
#165 = ORIENTED_EDGE ( 'NONE', *, *, #110, .T. ) ;
#166 = STYLED_ITEM ( 'NONE', ( #299 ), #319 ) ;
#167 = DIRECTION ( 'NONE',  ( -0.0000000000000000000, -0.0000000000000000000, -1.000000000000000000 ) ) ;
#168 = EDGE_CURVE ( 'NONE', #7, #108, #270, .T. ) ;
#169 = PRODUCT ( 'Micro_SBMM-040-212X', 'Micro_SBMM-040-212X', '', ( #223 ) ) ;
#170 = AXIS2_PLACEMENT_3D ( 'NONE', #297, #71, #113 ) ;
#171 = APPLICATION_CONTEXT ( 'automotive_design' ) ;
#172 = CIRCLE ( 'NONE', #317, 0.1181100000000000344 ) ;
#173 = DIMENSIONAL_EXPONENTS ( 1.000000000000000000, 0.0000000000000000000, 0.0000000000000000000, 0.0000000000000000000, 0.0000000000000000000, 0.0000000000000000000, 0.0000000000000000000 ) ;
#174 = FACE_OUTER_BOUND ( 'NONE', #175, .T. ) ;
#175 = EDGE_LOOP ( 'NONE', ( #233, #247, #61, #178 ) ) ;
#176 = DIRECTION ( 'NONE',  ( 1.000000000000000000, 0.0000000000000000000, 0.0000000000000000000 ) ) ;
#177 = DIRECTION ( 'NONE',  ( 1.000000000000000000, 0.0000000000000000000, 0.0000000000000000000 ) ) ;
#178 = ORIENTED_EDGE ( 'NONE', *, *, #228, .F. ) ;
#179 = AXIS2_PLACEMENT_3D ( 'NONE', #27, #205, #315 ) ;
#180 = ORIENTED_EDGE ( 'NONE', *, *, #228, .T. ) ;
#181 = DIRECTION ( 'NONE',  ( 0.0000000000000000000, 0.0000000000000000000, -1.000000000000000000 ) ) ;
#182 = EDGE_LOOP ( 'NONE', ( #284, #138, #274, #34 ) ) ;
#183 = EDGE_CURVE ( 'NONE', #40, #282, #278, .T. ) ;
#184 = DIRECTION ( 'NONE',  ( -0.0000000000000000000, -0.0000000000000000000, -1.000000000000000000 ) ) ;
#185 = AXIS2_PLACEMENT_3D ( 'NONE', #65, #55, #190 ) ;
#186 = UNCERTAINTY_MEASURE_WITH_UNIT (LENGTH_MEASURE( 1.000000000000000082E-05 ), #337, 'distance_accuracy_value', 'NONE');
#187 = ADVANCED_FACE ( 'NONE', ( #192 ), #89, .T. ) ;
#188 = DIRECTION ( 'NONE',  ( -1.000000000000000000, 0.0000000000000000000, 0.0000000000000000000 ) ) ;
#189 = FACE_OUTER_BOUND ( 'NONE', #250, .T. ) ;
#190 = DIRECTION ( 'NONE',  ( 1.000000000000000000, 0.0000000000000000000, 0.0000000000000000000 ) ) ;
#191 = ORIENTED_EDGE ( 'NONE', *, *, #22, .F. ) ;
#192 = FACE_OUTER_BOUND ( 'NONE', #314, .T. ) ;
#193 = VERTEX_POINT ( 'NONE', #329 ) ;
#194 = DIRECTION ( 'NONE',  ( -0.0000000000000000000, -0.0000000000000000000, -1.000000000000000000 ) ) ;
#195 = MECHANICAL_DESIGN_GEOMETRIC_PRESENTATION_REPRESENTATION (  '', ( #166 ), #23 ) ;
#196 =( LENGTH_UNIT ( ) NAMED_UNIT ( * ) SI_UNIT ( $, .METRE. ) );
#197 = LINE ( 'NONE', #239, #335 ) ;
#198 = CARTESIAN_POINT ( 'NONE',  ( 0.0000000000000000000, 0.0000000000000000000, 0.4724409999999999998 ) ) ;
#199 =( NAMED_UNIT ( * ) PLANE_ANGLE_UNIT ( ) SI_UNIT ( $, .RADIAN. ) );
#200 = FACE_OUTER_BOUND ( 'NONE', #266, .T. ) ;
#201 = DIRECTION ( 'NONE',  ( 0.7071067811865486830, 8.659560562354947649E-17, -0.7071067811865462405 ) ) ;
#202 = EDGE_CURVE ( 'NONE', #9, #136, #254, .T. ) ;
#203 = VECTOR ( 'NONE', #201, 39.37007874015748854 ) ;
#204 = CARTESIAN_POINT ( 'NONE',  ( 0.0000000000000000000, 0.0000000000000000000, 1.309949454545451752 ) ) ;
#205 = DIRECTION ( 'NONE',  ( 1.000000000000000000, 1.224646799147353207E-16, -0.0000000000000000000 ) ) ;
#206 = PRODUCT_DEFINITION ( 'UNKNOWN', '', #308, #81 ) ;
#207 = ORIENTED_EDGE ( 'NONE', *, *, #135, .F. ) ;
#208 = LINE ( 'NONE', #287, #211 ) ;
#209 = DIRECTION ( 'NONE',  ( -0.0000000000000000000, -0.0000000000000000000, -1.000000000000000000 ) ) ;
#210 = PRESENTATION_LAYER_ASSIGNMENT (  '', '', ( #121 ) ) ;
#211 = VECTOR ( 'NONE', #263, 39.37007874015748143 ) ;
#212 = CARTESIAN_POINT ( 'NONE',  ( 0.05314949999999997454, 6.508936505128222953E-18, 0.1368357679160022988 ) ) ;
#213 = FILL_AREA_STYLE ('',( #241 ) ) ;
#214 = CARTESIAN_POINT ( 'NONE',  ( -0.05314949999999997454, 0.0000000000000000000, 0.1368357679160022988 ) ) ;
#215 = SURFACE_SIDE_STYLE ('',( #164 ) ) ;
#216 = DIMENSIONAL_EXPONENTS ( 1.000000000000000000, 0.0000000000000000000, 0.0000000000000000000, 0.0000000000000000000, 0.0000000000000000000, 0.0000000000000000000, 0.0000000000000000000 ) ;
#217 =( NAMED_UNIT ( * ) SI_UNIT ( $, .STERADIAN. ) SOLID_ANGLE_UNIT ( ) );
#218 = DIRECTION ( 'NONE',  ( -1.000000000000000000, 0.0000000000000000000, 0.0000000000000000000 ) ) ;
#219 = ORIENTED_EDGE ( 'NONE', *, *, #104, .T. ) ;
#220 = DIRECTION ( 'NONE',  ( -0.0000000000000000000, -0.0000000000000000000, -1.000000000000000000 ) ) ;
#221 = FACE_OUTER_BOUND ( 'NONE', #77, .T. ) ;
#222 = CARTESIAN_POINT ( 'NONE',  ( 0.0000000000000000000, 0.05314949999999997454, 0.1368357679160022988 ) ) ;
#223 = PRODUCT_CONTEXT ( 'NONE', #140, 'mechanical' ) ;
#224 = DIRECTION ( 'NONE',  ( 0.0000000000000000000, 0.0000000000000000000, -1.000000000000000000 ) ) ;
#225 = DIRECTION ( 'NONE',  ( -1.000000000000000000, 0.0000000000000000000, 0.0000000000000000000 ) ) ;
#226 = CARTESIAN_POINT ( 'NONE',  ( -0.1031099999999991745, 0.0000000000000000000, 2.952755999999999936 ) ) ;
#227 = AXIS2_PLACEMENT_3D ( 'NONE', #124, #224, #68 ) ;
#228 = EDGE_CURVE ( 'NONE', #7, #141, #298, .T. ) ;
#229 = DIRECTION ( 'NONE',  ( -0.0000000000000000000, -0.0000000000000000000, -1.000000000000000000 ) ) ;
#230 = PRODUCT_DEFINITION_SHAPE ( 'NONE', 'NONE',  #206 ) ;
#231 = DIRECTION ( 'NONE',  ( 0.0000000000000000000, 0.0000000000000000000, 1.000000000000000000 ) ) ;
#232 = AXIS2_PLACEMENT_3D ( 'NONE', #306, #338, #176 ) ;
#233 = ORIENTED_EDGE ( 'NONE', *, *, #48, .F. ) ;
#234 = VECTOR ( 'NONE', #194, 39.37007874015748143 ) ;
#235 = LINE ( 'NONE', #264, #18 ) ;
#236 = ORIENTED_EDGE ( 'NONE', *, *, #59, .T. ) ;
#237 = CARTESIAN_POINT ( 'NONE',  ( 6.508936505128221412E-18, -0.05314949999999997454, 0.1368357679160022988 ) ) ;
#238 = CARTESIAN_POINT ( 'NONE',  ( 0.0000000000000000000, 0.0000000000000000000, 0.1368357679160022988 ) ) ;
#239 = CARTESIAN_POINT ( 'NONE',  ( 0.1299209999999997867, 0.0000000000000000000, 1.309949454545451752 ) ) ;
#240 = AXIS2_PLACEMENT_3D ( 'NONE', #161, #155, #273 ) ;
#241 = FILL_AREA_STYLE_COLOUR ( '', #16 ) ;
#242 = CARTESIAN_POINT ( 'NONE',  ( 0.0000000000000000000, 0.0000000000000000000, 0.1368357679160022988 ) ) ;
#243 = EDGE_CURVE ( 'NONE', #108, #54, #280, .T. ) ;
#244 = ORIENTED_EDGE ( 'NONE', *, *, #311, .F. ) ;
#245 = CARTESIAN_POINT ( 'NONE',  ( 0.0000000000000000000, 0.0000000000000000000, 1.181102000000000318 ) ) ;
#246 = CARTESIAN_POINT ( 'NONE',  ( 0.0000000000000000000, 0.0000000000000000000, 0.0000000000000000000 ) ) ;
#247 = ORIENTED_EDGE ( 'NONE', *, *, #243, .T. ) ;
#248 = APPLICATION_PROTOCOL_DEFINITION ( 'draft international standard', 'automotive_design', 1998, #140 ) ;
#249 = VECTOR ( 'NONE', #123, 39.37007874015748854 ) ;
#250 = EDGE_LOOP ( 'NONE', ( #283, #336, #180, #15 ) ) ;
#251 = ADVANCED_FACE ( 'NONE', ( #145 ), #309, .T. ) ;
#252 = CARTESIAN_POINT ( 'NONE',  ( 0.0000000000000000000, 0.0000000000000000000, 0.0000000000000000000 ) ) ;
#253 =( GEOMETRIC_REPRESENTATION_CONTEXT ( 3 ) GLOBAL_UNCERTAINTY_ASSIGNED_CONTEXT ( ( #186 ) ) GLOBAL_UNIT_ASSIGNED_CONTEXT ( ( #337, #199, #66 ) ) REPRESENTATION_CONTEXT ( 'NONE', 'WORKASPACE' ) );
#254 = CIRCLE ( 'NONE', #310, 0.07873999999999996280 ) ;
#255 = EDGE_CURVE ( 'NONE', #54, #1, #208, .T. ) ;
#256 = CARTESIAN_POINT ( 'NONE',  ( 0.0000000000000000000, 0.0000000000000000000, 1.309949454545451752 ) ) ;
#257 = ORIENTED_EDGE ( 'NONE', *, *, #87, .F. ) ;
#258 = ORIENTED_EDGE ( 'NONE', *, *, #73, .F. ) ;
#259 = UNCERTAINTY_MEASURE_WITH_UNIT (LENGTH_MEASURE( 1.000000000000000082E-05 ), #303, 'distance_accuracy_value', 'NONE');
#260 = ADVANCED_FACE ( 'NONE', ( #189 ), #99, .T. ) ;
#261 = LINE ( 'NONE', #56, #234 ) ;
#262 = ORIENTED_EDGE ( 'NONE', *, *, #73, .T. ) ;
#263 = DIRECTION ( 'NONE',  ( -0.0000000000000000000, -0.0000000000000000000, -1.000000000000000000 ) ) ;
#264 = CARTESIAN_POINT ( 'NONE',  ( 0.05314949999999996760, 6.508936505128221412E-18, 0.0000000000000000000 ) ) ;
#265 = DIRECTION ( 'NONE',  ( -0.0000000000000000000, -0.0000000000000000000, -1.000000000000000000 ) ) ;
#266 = EDGE_LOOP ( 'NONE', ( #150, #262, #114, #151, #111 ) ) ;
#267 = CIRCLE ( 'NONE', #2, 0.05314949999999998842 ) ;
#268 = DIRECTION ( 'NONE',  ( -0.0000000000000000000, -0.0000000000000000000, -1.000000000000000000 ) ) ;
#269 = SURFACE_STYLE_USAGE ( .BOTH. , #215 ) ;
#270 = CIRCLE ( 'NONE', #91, 0.1031099999999991745 ) ;
#271 = ADVANCED_FACE ( 'NONE', ( #221 ), #45, .T. ) ;
#272 = SURFACE_STYLE_USAGE ( .BOTH. , #67 ) ;
#273 = DIRECTION ( 'NONE',  ( -1.000000000000000000, 0.0000000000000000000, 0.0000000000000000000 ) ) ;
#274 = ORIENTED_EDGE ( 'NONE', *, *, #64, .T. ) ;
#275 = CARTESIAN_POINT ( 'NONE',  ( 0.1031099999999991745, 1.262733314600825725E-17, 2.952755999999999936 ) ) ;
#276 = APPLICATION_PROTOCOL_DEFINITION ( 'draft international standard', 'automotive_design', 1998, #171 ) ;
#277 = PRODUCT_RELATED_PRODUCT_CATEGORY ( 'part', '', ( #169 ) ) ;
#278 = CIRCLE ( 'NONE', #38, 0.05314949999999995373 ) ;
#279 = CARTESIAN_POINT ( 'NONE',  ( 0.05314949999999995373, 0.0000000000000000000, 0.4724409999999999998 ) ) ;
#280 = LINE ( 'NONE', #275, #203 ) ;
#281 = CIRCLE ( 'NONE', #122, 0.05314949999999998842 ) ;
#282 = VERTEX_POINT ( 'NONE', #339 ) ;
#283 = ORIENTED_EDGE ( 'NONE', *, *, #243, .F. ) ;
#284 = ORIENTED_EDGE ( 'NONE', *, *, #132, .T. ) ;
#285 = CARTESIAN_POINT ( 'NONE',  ( 0.0000000000000000000, 0.0000000000000000000, 0.1368357679160022988 ) ) ;
#286 = AXIS2_PLACEMENT_3D ( 'NONE', #256, #28, #341 ) ;
#287 = CARTESIAN_POINT ( 'NONE',  ( 0.1181100000000000344, 1.446430334472939084E-17, 2.952755999999999936 ) ) ;
#288 = DIRECTION ( 'NONE',  ( 0.0000000000000000000, 0.0000000000000000000, 1.000000000000000000 ) ) ;
#289 = ADVANCED_FACE ( 'NONE', ( #79 ), #60, .T. ) ;
#290 = EDGE_LOOP ( 'NONE', ( #158, #26 ) ) ;
#291 = CARTESIAN_POINT ( 'NONE',  ( 0.1031099999999991745, 1.354581824536882559E-17, 2.952755999999999936 ) ) ;
#292 = EDGE_LOOP ( 'NONE', ( #219, #320, #75, #207 ) ) ;
#293 = ADVANCED_FACE ( 'NONE', ( #174 ), #325, .T. ) ;
#294 = FACE_OUTER_BOUND ( 'NONE', #182, .T. ) ;
#295 =( LENGTH_UNIT ( ) NAMED_UNIT ( * ) SI_UNIT ( $, .METRE. ) );
#296 = EDGE_LOOP ( 'NONE', ( #191, #118, #148, #257 ) ) ;
#297 = CARTESIAN_POINT ( 'NONE',  ( 0.0000000000000000000, 0.0000000000000000000, 2.952755999999999936 ) ) ;
#298 = LINE ( 'NONE', #226, #249 ) ;
#299 = PRESENTATION_STYLE_ASSIGNMENT (( #269 ) ) ;
#300 = VECTOR ( 'NONE', #139, 39.37007874015748854 ) ;
#301 = EDGE_LOOP ( 'NONE', ( #258, #44, #165, #51, #244 ) ) ;
#302 = FACE_OUTER_BOUND ( 'NONE', #19, .T. ) ;
#303 =( CONVERSION_BASED_UNIT ( 'INCH', #120 ) LENGTH_UNIT ( ) NAMED_UNIT ( #173 ) );
#304 = DIRECTION ( 'NONE',  ( -1.000000000000000000, 0.0000000000000000000, 0.0000000000000000000 ) ) ;
#305 = FILL_AREA_STYLE_COLOUR ( '', #126 ) ;
#306 = CARTESIAN_POINT ( 'NONE',  ( 0.0000000000000000000, 0.0000000000000000000, 1.181102000000000318 ) ) ;
#307 = CIRCLE ( 'NONE', #232, 0.1181100000000000344 ) ;
#308 = PRODUCT_DEFINITION_FORMATION_WITH_SPECIFIED_SOURCE ( 'ANY', '', #169, .NOT_KNOWN. ) ;
#309 = CYLINDRICAL_SURFACE ( 'NONE', #53, 0.05314949999999996760 ) ;
#310 = AXIS2_PLACEMENT_3D ( 'NONE', #112, #218, #331 ) ;
#311 = EDGE_CURVE ( 'NONE', #345, #163, #281, .T. ) ;
#312 = DIRECTION ( 'NONE',  ( -0.0000000000000000000, -0.0000000000000000000, -1.000000000000000000 ) ) ;
#313 = CARTESIAN_POINT ( 'NONE',  ( 0.0000000000000000000, 0.0000000000000000000, 2.952755999999999936 ) ) ;
#314 = EDGE_LOOP ( 'NONE', ( #321, #43, #236, #85 ) ) ;
#315 = DIRECTION ( 'NONE',  ( -1.224646799147352961E-16, 1.000000000000000000, 0.0000000000000000000 ) ) ;
#316 = AXIS2_PLACEMENT_3D ( 'NONE', #252, #69, #225 ) ;
#317 = AXIS2_PLACEMENT_3D ( 'NONE', #245, #288, #159 ) ;
#318 = ORIENTED_EDGE ( 'NONE', *, *, #87, .T. ) ;
#319 = ADVANCED_BREP_SHAPE_REPRESENTATION ( 'Micro_SBMM-040-212X', ( #24, #25 ), #253 ) ;
#320 = ORIENTED_EDGE ( 'NONE', *, *, #255, .T. ) ;
#321 = ORIENTED_EDGE ( 'NONE', *, *, #64, .F. ) ;
#322 = DIRECTION ( 'NONE',  ( 0.0000000000000000000, 0.0000000000000000000, 1.000000000000000000 ) ) ;
#323 = UNCERTAINTY_MEASURE_WITH_UNIT (LENGTH_MEASURE( 1.000000000000000082E-05 ), #156, 'distance_accuracy_value', 'NONE');
#324 =( GEOMETRIC_REPRESENTATION_CONTEXT ( 3 ) GLOBAL_UNCERTAINTY_ASSIGNED_CONTEXT ( ( #323 ) ) GLOBAL_UNIT_ASSIGNED_CONTEXT ( ( #156, #160, #217 ) ) REPRESENTATION_CONTEXT ( 'NONE', 'WORKASPACE' ) );
#325 = CONICAL_SURFACE ( 'NONE', #84, 0.1031099999999991745, 0.7853981633974500554 ) ;
#326 = ORIENTED_EDGE ( 'NONE', *, *, #183, .F. ) ;
#327 = SPHERICAL_SURFACE ( 'NONE', #70, 0.07873999999999999055 ) ;
#328 = CARTESIAN_POINT ( 'NONE',  ( 0.1181100000000000344, 1.446430334472939084E-17, 1.181102000000000318 ) ) ;
#329 = CARTESIAN_POINT ( 'NONE',  ( -0.1181100000000000344, 0.0000000000000000000, 1.181102000000000318 ) ) ;
#330 =( NAMED_UNIT ( * ) SI_UNIT ( $, .STERADIAN. ) SOLID_ANGLE_UNIT ( ) );
#331 = DIRECTION ( 'NONE',  ( 0.0000000000000000000, 0.0000000000000000000, 1.000000000000000000 ) ) ;
#332 = LENGTH_MEASURE_WITH_UNIT ( LENGTH_MEASURE( 0.02539999999999999897 ), #130 );
#333 = ORIENTED_EDGE ( 'NONE', *, *, #46, .F. ) ;
#334 = CIRCLE ( 'NONE', #170, 0.1031099999999991745 ) ;
#335 = VECTOR ( 'NONE', #5, 39.37007874015748854 ) ;
#336 = ORIENTED_EDGE ( 'NONE', *, *, #168, .F. ) ;
#337 =( CONVERSION_BASED_UNIT ( 'INCH', #332 ) LENGTH_UNIT ( ) NAMED_UNIT ( #216 ) );
#338 = DIRECTION ( 'NONE',  ( 0.0000000000000000000, 0.0000000000000000000, 1.000000000000000000 ) ) ;
#339 = CARTESIAN_POINT ( 'NONE',  ( -0.05314949999999995373, 1.048661992492880574E-17, 0.4724409999999999998 ) ) ;
#340 = ADVANCED_FACE ( 'NONE', ( #52 ), #128, .T. ) ;
#341 = DIRECTION ( 'NONE',  ( 1.000000000000000000, 0.0000000000000000000, 0.0000000000000000000 ) ) ;
#342 = MECHANICAL_DESIGN_GEOMETRIC_PRESENTATION_REPRESENTATION (  '', ( #121 ), #324 ) ;
#343 = AXIS2_PLACEMENT_3D ( 'NONE', #242, #268, #33 ) ;
#344 = DIRECTION ( 'NONE',  ( 1.000000000000000000, 0.0000000000000000000, 0.0000000000000000000 ) ) ;
#345 = VERTEX_POINT ( 'NONE', #212 ) ;
ENDSEC;
END-ISO-10303-21;
