ISO-10303-21;
HEADER;
FILE_DESCRIPTION (( 'STEP AP214' ),
    '1' );
FILE_NAME ('30512.STEP',
    '2023-06-22T18:34:10',
    ( '' ),
    ( '' ),
    'SwSTEP 2.0',
    'SolidWorks 2023',
    '' );
FILE_SCHEMA (( 'AUTOMOTIVE_DESIGN' ));
ENDSEC;

DATA;
#1 = CIRCLE ( 'NONE', #286, 0.2500000000000000000 ) ;
#2 = EDGE_CURVE ( 'NONE', #288, #22, #240, .T. ) ;
#3 = DIRECTION ( 'NONE',  ( -3.061616997868386099E-17, 1.000000000000000000, -0.000000000000000000 ) ) ;
#4 = CARTESIAN_POINT ( 'NONE',  ( 0.000000000000000000, 0.000000000000000000, 0.000000000000000000 ) ) ;
#5 = APPLICATION_CONTEXT ( 'automotive_design' ) ;
#6 = FACE_OUTER_BOUND ( 'NONE', #305, .T. ) ;
#7 = DIMENSIONAL_EXPONENTS ( 1.000000000000000000, 0.000000000000000000, 0.000000000000000000, 0.000000000000000000, 0.000000000000000000, 0.000000000000000000, 0.000000000000000000 ) ;
#8 = LINE ( 'NONE', #29, #302 ) ;
#9 = EDGE_CURVE ( 'NONE', #288, #212, #45, .T. ) ;
#10 =( NAMED_UNIT ( * ) PLANE_ANGLE_UNIT ( ) SI_UNIT ( $, .RADIAN. ) );
#11 =( NAMED_UNIT ( * ) PLANE_ANGLE_UNIT ( ) SI_UNIT ( $, .RADIAN. ) );
#12 = PRODUCT_DEFINITION_CONTEXT ( 'detailed design', #5, 'design' ) ;
#13 =( LENGTH_UNIT ( ) NAMED_UNIT ( * ) SI_UNIT ( $, .METRE. ) );
#14 = SURFACE_STYLE_USAGE ( .BOTH. , #183 ) ;
#15 = AXIS2_PLACEMENT_3D ( 'NONE', #27, #117, #225 ) ;
#16 =( GEOMETRIC_REPRESENTATION_CONTEXT ( 3 ) GLOBAL_UNCERTAINTY_ASSIGNED_CONTEXT ( ( #224 ) ) GLOBAL_UNIT_ASSIGNED_CONTEXT ( ( #38, #211, #282 ) ) REPRESENTATION_CONTEXT ( 'NONE', 'WORKASPACE' ) );
#17 = ORIENTED_EDGE ( 'NONE', *, *, #2, .F. ) ;
#18 = VERTEX_POINT ( 'NONE', #228 ) ;
#19 = AXIS2_PLACEMENT_3D ( 'NONE', #4, #41, #196 ) ;
#20 =( GEOMETRIC_REPRESENTATION_CONTEXT ( 3 ) GLOBAL_UNCERTAINTY_ASSIGNED_CONTEXT ( ( #285 ) ) GLOBAL_UNIT_ASSIGNED_CONTEXT ( ( #116, #24, #112 ) ) REPRESENTATION_CONTEXT ( 'NONE', 'WORKASPACE' ) );
#21 = PRODUCT_CONTEXT ( 'NONE', #230, 'mechanical' ) ;
#22 = VERTEX_POINT ( 'NONE', #164 ) ;
#23 = SURFACE_STYLE_FILL_AREA ( #43 ) ;
#24 =( NAMED_UNIT ( * ) PLANE_ANGLE_UNIT ( ) SI_UNIT ( $, .RADIAN. ) );
#25 = DIRECTION ( 'NONE',  ( -0.000000000000000000, -1.000000000000000000, -0.000000000000000000 ) ) ;
#26 = STYLED_ITEM ( 'NONE', ( #107 ), #194 ) ;
#27 = CARTESIAN_POINT ( 'NONE',  ( 0.2500000000000000000, 3.000000000000000444, 0.000000000000000000 ) ) ;
#28 = DIRECTION ( 'NONE',  ( -0.000000000000000000, -1.000000000000000000, -0.000000000000000000 ) ) ;
#29 = CARTESIAN_POINT ( 'NONE',  ( 3.061616997868383018E-17, 0.000000000000000000, 0.2500000000000000000 ) ) ;
#30 = DIMENSIONAL_EXPONENTS ( 1.000000000000000000, 0.000000000000000000, 0.000000000000000000, 0.000000000000000000, 0.000000000000000000, 0.000000000000000000, 0.000000000000000000 ) ;
#31 = DIRECTION ( 'NONE',  ( 0.000000000000000000, 0.000000000000000000, -1.000000000000000000 ) ) ;
#32 = CARTESIAN_POINT ( 'NONE',  ( 0.000000000000000000, 0.000000000000000000, 0.000000000000000000 ) ) ;
#33 = COLOUR_RGB ( '',0.7921568627450980005, 0.8196078431372548767, 0.9333333333333333481 ) ;
#34 = SURFACE_STYLE_FILL_AREA ( #101 ) ;
#35 = MECHANICAL_DESIGN_GEOMETRIC_PRESENTATION_REPRESENTATION (  '', ( #37 ), #180 ) ;
#36 = DIRECTION ( 'NONE',  ( -0.000000000000000000, -1.000000000000000000, -0.000000000000000000 ) ) ;
#37 = STYLED_ITEM ( 'NONE', ( #253 ), #184 ) ;
#38 =( CONVERSION_BASED_UNIT ( 'INCH', #191 ) LENGTH_UNIT ( ) NAMED_UNIT ( #120 ) );
#39 = EDGE_LOOP ( 'NONE', ( #306, #165, #103, #204 ) ) ;
#40 = CARTESIAN_POINT ( 'NONE',  ( 0.000000000000000000, 1.000000000000000000, 0.000000000000000000 ) ) ;
#41 = DIRECTION ( 'NONE',  ( -0.000000000000000000, -1.000000000000000000, -0.000000000000000000 ) ) ;
#42 = SURFACE_SIDE_STYLE ('',( #223 ) ) ;
#43 = FILL_AREA_STYLE ('',( #66 ) ) ;
#44 = STYLED_ITEM ( 'NONE', ( #309 ), #187 ) ;
#45 = LINE ( 'NONE', #287, #114 ) ;
#46 = EDGE_CURVE ( 'NONE', #22, #144, #173, .T. ) ;
#47 = DIRECTION ( 'NONE',  ( -3.061616997868386099E-17, 1.000000000000000000, 0.000000000000000000 ) ) ;
#48 = CARTESIAN_POINT ( 'NONE',  ( 0.000000000000000000, 0.000000000000000000, -0.2500000000000000000 ) ) ;
#49 = COLOUR_RGB ( '',1.000000000000000000, 0.000000000000000000, 0.000000000000000000 ) ;
#50 = LENGTH_MEASURE_WITH_UNIT ( LENGTH_MEASURE( 0.02539999999999999897 ), #13 );
#51 = FILL_AREA_STYLE_COLOUR ( '', #157 ) ;
#52 = STYLED_ITEM ( 'NONE', ( #82 ), #271 ) ;
#53 = PRODUCT_DEFINITION_FORMATION_WITH_SPECIFIED_SOURCE ( 'ANY', '', #206, .NOT_KNOWN. ) ;
#54 = COLOUR_RGB ( '',0.7921568627450980005, 0.8196078431372548767, 0.9333333333333333481 ) ;
#55 = ADVANCED_BREP_SHAPE_REPRESENTATION ( '30512', ( #186, #187, #158 ), #16 ) ;
#56 = DIRECTION ( 'NONE',  ( -3.061616997868386099E-17, 1.000000000000000000, -0.000000000000000000 ) ) ;
#57 = ADVANCED_FACE ( 'NONE', ( #171 ), #244, .T. ) ;
#58 =( NAMED_UNIT ( * ) SI_UNIT ( $, .STERADIAN. ) SOLID_ANGLE_UNIT ( ) );
#59 = MECHANICAL_DESIGN_GEOMETRIC_PRESENTATION_REPRESENTATION (  '', ( #151 ), #65 ) ;
#60 = EDGE_CURVE ( 'NONE', #123, #210, #297, .T. ) ;
#61 = DIRECTION ( 'NONE',  ( -3.061616997868386099E-17, 1.000000000000000000, -0.000000000000000000 ) ) ;
#62 = ORIENTED_EDGE ( 'NONE', *, *, #172, .F. ) ;
#63 = CARTESIAN_POINT ( 'NONE',  ( 3.061616997868383018E-17, 1.000000000000000000, 0.2500000000000000000 ) ) ;
#64 = UNCERTAINTY_MEASURE_WITH_UNIT (LENGTH_MEASURE( 1.000000000000000082E-05 ), #131, 'distance_accuracy_value', 'NONE');
#65 =( GEOMETRIC_REPRESENTATION_CONTEXT ( 3 ) GLOBAL_UNCERTAINTY_ASSIGNED_CONTEXT ( ( #247 ) ) GLOBAL_UNIT_ASSIGNED_CONTEXT ( ( #289, #166, #272 ) ) REPRESENTATION_CONTEXT ( 'NONE', 'WORKASPACE' ) );
#66 = FILL_AREA_STYLE_COLOUR ( '', #199 ) ;
#67 = LENGTH_MEASURE_WITH_UNIT ( LENGTH_MEASURE( 0.02539999999999999897 ), #195 );
#68 = DIMENSIONAL_EXPONENTS ( 1.000000000000000000, 0.000000000000000000, 0.000000000000000000, 0.000000000000000000, 0.000000000000000000, 0.000000000000000000, 0.000000000000000000 ) ;
#69 = PRESENTATION_STYLE_ASSIGNMENT (( #125 ) ) ;
#70 =( NAMED_UNIT ( * ) SI_UNIT ( $, .STERADIAN. ) SOLID_ANGLE_UNIT ( ) );
#71 = AXIS2_PLACEMENT_3D ( 'NONE', #80, #188, #292 ) ;
#72 = AXIS2_PLACEMENT_3D ( 'NONE', #295, #47, #149 ) ;
#73 = AXIS2_PLACEMENT_3D ( 'NONE', #40, #36, #162 ) ;
#74 = ADVANCED_FACE ( 'NONE', ( #113 ), #248, .T. ) ;
#75 = FILL_AREA_STYLE ('',( #205 ) ) ;
#76 = ORIENTED_EDGE ( 'NONE', *, *, #134, .F. ) ;
#77 = LENGTH_MEASURE_WITH_UNIT ( LENGTH_MEASURE( 0.02539999999999999897 ), #242 );
#78 = EDGE_CURVE ( 'NONE', #18, #185, #124, .T. ) ;
#79 = EDGE_LOOP ( 'NONE', ( #293, #97, #257, #217 ) ) ;
#80 = CARTESIAN_POINT ( 'NONE',  ( 7.582401355855259480E-33, 1.000000000000000000, 0.000000000000000000 ) ) ;
#81 = UNCERTAINTY_MEASURE_WITH_UNIT (LENGTH_MEASURE( 1.000000000000000082E-05 ), #135, 'distance_accuracy_value', 'NONE');
#82 = PRESENTATION_STYLE_ASSIGNMENT (( #219 ) ) ;
#83 = CARTESIAN_POINT ( 'NONE',  ( 0.000000000000000000, 1.000000000000000000, 0.000000000000000000 ) ) ;
#84 = VECTOR ( 'NONE', #150, 39.37007874015748143 ) ;
#85 = PRESENTATION_LAYER_ASSIGNMENT (  '', '', ( #151 ) ) ;
#86 = DIRECTION ( 'NONE',  ( -1.000000000000000000, 0.000000000000000000, 0.000000000000000000 ) ) ;
#87 = FILL_AREA_STYLE ('',( #250 ) ) ;
#88 = ORIENTED_EDGE ( 'NONE', *, *, #78, .T. ) ;
#89 = PLANE ( 'NONE',  #72 ) ;
#90 = ADVANCED_FACE ( 'NONE', ( #6 ), #198, .F. ) ;
#91 = MECHANICAL_DESIGN_GEOMETRIC_PRESENTATION_REPRESENTATION (  '', ( #52 ), #20 ) ;
#92 = DIRECTION ( 'NONE',  ( 0.000000000000000000, 0.000000000000000000, -1.000000000000000000 ) ) ;
#93 = SURFACE_STYLE_FILL_AREA ( #178 ) ;
#94 = CYLINDRICAL_SURFACE ( 'NONE', #221, 0.2500000000000000000 ) ;
#95 = MECHANICAL_DESIGN_GEOMETRIC_PRESENTATION_REPRESENTATION (  '', ( #44 ), #129 ) ;
#96 = SURFACE_STYLE_USAGE ( .BOTH. , #175 ) ;
#97 = ORIENTED_EDGE ( 'NONE', *, *, #172, .T. ) ;
#98 = DIMENSIONAL_EXPONENTS ( 1.000000000000000000, 0.000000000000000000, 0.000000000000000000, 0.000000000000000000, 0.000000000000000000, 0.000000000000000000, 0.000000000000000000 ) ;
#99 = CARTESIAN_POINT ( 'NONE',  ( 0.000000000000000000, 0.000000000000000000, -0.2500000000000000000 ) ) ;
#100 = PRESENTATION_LAYER_ASSIGNMENT (  '', '', ( #37 ) ) ;
#101 = FILL_AREA_STYLE ('',( #51 ) ) ;
#102 = DIRECTION ( 'NONE',  ( 0.000000000000000000, 0.000000000000000000, 1.000000000000000000 ) ) ;
#103 = ORIENTED_EDGE ( 'NONE', *, *, #231, .F. ) ;
#104 = CARTESIAN_POINT ( 'NONE',  ( -6.123233995736772199E-17, 3.000000000000000444, 0.000000000000000000 ) ) ;
#105 = PRESENTATION_LAYER_ASSIGNMENT (  '', '', ( #192 ) ) ;
#106 = ORIENTED_EDGE ( 'NONE', *, *, #60, .T. ) ;
#107 = PRESENTATION_STYLE_ASSIGNMENT (( #14 ) ) ;
#108 = APPLICATION_PROTOCOL_DEFINITION ( 'draft international standard', 'automotive_design', 1998, #5 ) ;
#109 = ORIENTED_EDGE ( 'NONE', *, *, #231, .T. ) ;
#110 = SURFACE_SIDE_STYLE ('',( #23 ) ) ;
#111 = ORIENTED_EDGE ( 'NONE', *, *, #143, .F. ) ;
#112 =( NAMED_UNIT ( * ) SI_UNIT ( $, .STERADIAN. ) SOLID_ANGLE_UNIT ( ) );
#113 = FACE_OUTER_BOUND ( 'NONE', #141, .T. ) ;
#114 = VECTOR ( 'NONE', #3, 39.37007874015748143 ) ;
#115 =( GEOMETRIC_REPRESENTATION_CONTEXT ( 3 ) GLOBAL_UNCERTAINTY_ASSIGNED_CONTEXT ( ( #64 ) ) GLOBAL_UNIT_ASSIGNED_CONTEXT ( ( #131, #11, #70 ) ) REPRESENTATION_CONTEXT ( 'NONE', 'WORKASPACE' ) );
#116 =( CONVERSION_BASED_UNIT ( 'INCH', #226 ) LENGTH_UNIT ( ) NAMED_UNIT ( #68 ) );
#117 = DIRECTION ( 'NONE',  ( 3.061616997868386099E-17, -1.000000000000000000, 0.000000000000000000 ) ) ;
#118 = CARTESIAN_POINT ( 'NONE',  ( 0.000000000000000000, 0.000000000000000000, 0.000000000000000000 ) ) ;
#119 = PRODUCT_DEFINITION_SHAPE ( 'NONE', 'NONE',  #259 ) ;
#120 = DIMENSIONAL_EXPONENTS ( 1.000000000000000000, 0.000000000000000000, 0.000000000000000000, 0.000000000000000000, 0.000000000000000000, 0.000000000000000000, 0.000000000000000000 ) ;
#121 = LINE ( 'NONE', #48, #84 ) ;
#122 = VECTOR ( 'NONE', #197, 39.37007874015748143 ) ;
#123 = VERTEX_POINT ( 'NONE', #63 ) ;
#124 = CIRCLE ( 'NONE', #207, 0.2500000000000000000 ) ;
#125 = SURFACE_STYLE_USAGE ( .BOTH. , #42 ) ;
#126 = ADVANCED_FACE ( 'NONE', ( #168 ), #89, .F. ) ;
#127 = CARTESIAN_POINT ( 'NONE',  ( 0.2500000000000000000, 3.000000000000000444, 3.061616997868383634E-17 ) ) ;
#128 = CARTESIAN_POINT ( 'NONE',  ( -6.123233995736772199E-17, 3.000000000000000444, 0.000000000000000000 ) ) ;
#129 =( GEOMETRIC_REPRESENTATION_CONTEXT ( 3 ) GLOBAL_UNCERTAINTY_ASSIGNED_CONTEXT ( ( #308 ) ) GLOBAL_UNIT_ASSIGNED_CONTEXT ( ( #161, #237, #58 ) ) REPRESENTATION_CONTEXT ( 'NONE', 'WORKASPACE' ) );
#130 = DIMENSIONAL_EXPONENTS ( 1.000000000000000000, 0.000000000000000000, 0.000000000000000000, 0.000000000000000000, 0.000000000000000000, 0.000000000000000000, 0.000000000000000000 ) ;
#131 =( CONVERSION_BASED_UNIT ( 'INCH', #50 ) LENGTH_UNIT ( ) NAMED_UNIT ( #30 ) );
#132 = UNCERTAINTY_MEASURE_WITH_UNIT (LENGTH_MEASURE( 1.000000000000000082E-05 ), #209, 'distance_accuracy_value', 'NONE');
#133 = FILL_AREA_STYLE_COLOUR ( '', #33 ) ;
#134 = EDGE_CURVE ( 'NONE', #123, #18, #8, .T. ) ;
#135 =( CONVERSION_BASED_UNIT ( 'INCH', #229 ) LENGTH_UNIT ( ) NAMED_UNIT ( #174 ) );
#136 = AXIS2_PLACEMENT_3D ( 'NONE', #273, #28, #270 ) ;
#137 = AXIS2_PLACEMENT_3D ( 'NONE', #208, #264, #243 ) ;
#138 = EDGE_LOOP ( 'NONE', ( #76, #106, #280, #190 ) ) ;
#139 = CARTESIAN_POINT ( 'NONE',  ( 0.000000000000000000, 0.000000000000000000, 0.000000000000000000 ) ) ;
#140 =( LENGTH_UNIT ( ) NAMED_UNIT ( * ) SI_UNIT ( $, .METRE. ) );
#141 = EDGE_LOOP ( 'NONE', ( #263, #245, #182, #111 ) ) ;
#142 = CARTESIAN_POINT ( 'NONE',  ( 0.000000000000000000, 1.000000000000000000, -0.2500000000000000000 ) ) ;
#143 = EDGE_CURVE ( 'NONE', #210, #185, #121, .T. ) ;
#144 = VERTEX_POINT ( 'NONE', #127 ) ;
#145 = DIRECTION ( 'NONE',  ( -3.061616997868386099E-17, 1.000000000000000000, -0.000000000000000000 ) ) ;
#146 = AXIS2_PLACEMENT_3D ( 'NONE', #83, #25, #92 ) ;
#147 = CARTESIAN_POINT ( 'NONE',  ( -6.123233995736772199E-17, 3.000000000000000444, 0.000000000000000000 ) ) ;
#148 = CARTESIAN_POINT ( 'NONE',  ( -6.123233995736772199E-17, 3.000000000000000444, 0.000000000000000000 ) ) ;
#149 = DIRECTION ( 'NONE',  ( -1.000000000000000000, -3.061616997868386099E-17, 0.000000000000000000 ) ) ;
#150 = DIRECTION ( 'NONE',  ( -0.000000000000000000, -1.000000000000000000, -0.000000000000000000 ) ) ;
#151 = STYLED_ITEM ( 'NONE', ( #69 ), #74 ) ;
#152 = CARTESIAN_POINT ( 'NONE',  ( 7.582401355855259480E-33, 1.000000000000000000, 0.000000000000000000 ) ) ;
#153 = CIRCLE ( 'NONE', #19, 0.2500000000000000000 ) ;
#154 = DIRECTION ( 'NONE',  ( -1.000000000000000000, 0.000000000000000000, 0.000000000000000000 ) ) ;
#155 =( LENGTH_UNIT ( ) NAMED_UNIT ( * ) SI_UNIT ( $, .METRE. ) );
#156 = DIRECTION ( 'NONE',  ( -1.000000000000000000, 0.000000000000000000, 0.000000000000000000 ) ) ;
#157 = COLOUR_RGB ( '',1.000000000000000000, 0.000000000000000000, 0.000000000000000000 ) ;
#158 = AXIS2_PLACEMENT_3D ( 'NONE', #160, #102, #238 ) ;
#159 = EDGE_LOOP ( 'NONE', ( #239, #88 ) ) ;
#160 = CARTESIAN_POINT ( 'NONE',  ( 0.000000000000000000, 0.000000000000000000, 0.000000000000000000 ) ) ;
#161 =( CONVERSION_BASED_UNIT ( 'INCH', #77 ) LENGTH_UNIT ( ) NAMED_UNIT ( #130 ) );
#162 = DIRECTION ( 'NONE',  ( 0.000000000000000000, 0.000000000000000000, -1.000000000000000000 ) ) ;
#163 = FACE_OUTER_BOUND ( 'NONE', #159, .T. ) ;
#164 = CARTESIAN_POINT ( 'NONE',  ( 0.2500000000000000000, 1.000000000000000000, 3.061616997868383634E-17 ) ) ;
#165 = ORIENTED_EDGE ( 'NONE', *, *, #46, .T. ) ;
#166 =( NAMED_UNIT ( * ) PLANE_ANGLE_UNIT ( ) SI_UNIT ( $, .RADIAN. ) );
#167 = EDGE_CURVE ( 'NONE', #144, #212, #176, .T. ) ;
#168 = FACE_OUTER_BOUND ( 'NONE', #170, .T. ) ;
#169 = CIRCLE ( 'NONE', #294, 0.2500000000000000555 ) ;
#170 = EDGE_LOOP ( 'NONE', ( #17, #62 ) ) ;
#171 = FACE_OUTER_BOUND ( 'NONE', #39, .T. ) ;
#172 = EDGE_CURVE ( 'NONE', #22, #288, #1, .T. ) ;
#173 = LINE ( 'NONE', #296, #122 ) ;
#174 = DIMENSIONAL_EXPONENTS ( 1.000000000000000000, 0.000000000000000000, 0.000000000000000000, 0.000000000000000000, 0.000000000000000000, 0.000000000000000000, 0.000000000000000000 ) ;
#175 = SURFACE_SIDE_STYLE ('',( #93 ) ) ;
#176 = CIRCLE ( 'NONE', #277, 0.2500000000000000555 ) ;
#177 = DIRECTION ( 'NONE',  ( -0.000000000000000000, -1.000000000000000000, -0.000000000000000000 ) ) ;
#178 = FILL_AREA_STYLE ('',( #255 ) ) ;
#179 = SURFACE_STYLE_FILL_AREA ( #75 ) ;
#180 =( GEOMETRIC_REPRESENTATION_CONTEXT ( 3 ) GLOBAL_UNCERTAINTY_ASSIGNED_CONTEXT ( ( #81 ) ) GLOBAL_UNIT_ASSIGNED_CONTEXT ( ( #135, #10, #232 ) ) REPRESENTATION_CONTEXT ( 'NONE', 'WORKASPACE' ) );
#181 = DIRECTION ( 'NONE',  ( -3.061616997868386099E-17, 1.000000000000000000, -0.000000000000000000 ) ) ;
#182 = ORIENTED_EDGE ( 'NONE', *, *, #235, .F. ) ;
#183 = SURFACE_SIDE_STYLE ('',( #34 ) ) ;
#184 = ADVANCED_FACE ( 'NONE', ( #234 ), #94, .T. ) ;
#185 = VERTEX_POINT ( 'NONE', #99 ) ;
#186 = MANIFOLD_SOLID_BREP ( 'Revolve - Cutting Edge', #220 ) ;
#187 = MANIFOLD_SOLID_BREP ( 'Revolve - Tool Body (Straight Shanked)', #213 ) ;
#188 = DIRECTION ( 'NONE',  ( -3.061616997868386099E-17, 1.000000000000000000, -0.000000000000000000 ) ) ;
#189 =( NAMED_UNIT ( * ) SI_UNIT ( $, .STERADIAN. ) SOLID_ANGLE_UNIT ( ) );
#190 = ORIENTED_EDGE ( 'NONE', *, *, #78, .F. ) ;
#191 = LENGTH_MEASURE_WITH_UNIT ( LENGTH_MEASURE( 0.02539999999999999897 ), #140 );
#192 = STYLED_ITEM ( 'NONE', ( #252 ), #186 ) ;
#193 = DIRECTION ( 'NONE',  ( -1.000000000000000000, 0.000000000000000000, 0.000000000000000000 ) ) ;
#194 = ADVANCED_FACE ( 'NONE', ( #163 ), #298, .T. ) ;
#195 =( LENGTH_UNIT ( ) NAMED_UNIT ( * ) SI_UNIT ( $, .METRE. ) );
#196 = DIRECTION ( 'NONE',  ( 0.000000000000000000, 0.000000000000000000, -1.000000000000000000 ) ) ;
#197 = DIRECTION ( 'NONE',  ( -3.061616997868386099E-17, 1.000000000000000000, -0.000000000000000000 ) ) ;
#198 = PLANE ( 'NONE',  #15 ) ;
#199 = COLOUR_RGB ( '',1.000000000000000000, 0.000000000000000000, 0.000000000000000000 ) ;
#200 = AXIS2_PLACEMENT_3D ( 'NONE', #148, #61, #193 ) ;
#201 = PRESENTATION_LAYER_ASSIGNMENT (  '', '', ( #26 ) ) ;
#202 = DIRECTION ( 'NONE',  ( -3.061616997868386099E-17, 1.000000000000000000, -0.000000000000000000 ) ) ;
#203 = PRODUCT_RELATED_PRODUCT_CATEGORY ( 'part', '', ( #206 ) ) ;
#204 = ORIENTED_EDGE ( 'NONE', *, *, #9, .F. ) ;
#205 = FILL_AREA_STYLE_COLOUR ( '', #54 ) ;
#206 = PRODUCT ( '30512', '30512', '', ( #21 ) ) ;
#207 = AXIS2_PLACEMENT_3D ( 'NONE', #118, #246, #227 ) ;
#208 = CARTESIAN_POINT ( 'NONE',  ( 0.000000000000000000, 1.000000000000000000, 0.000000000000000000 ) ) ;
#209 =( CONVERSION_BASED_UNIT ( 'INCH', #215 ) LENGTH_UNIT ( ) NAMED_UNIT ( #7 ) );
#210 = VERTEX_POINT ( 'NONE', #142 ) ;
#211 =( NAMED_UNIT ( * ) PLANE_ANGLE_UNIT ( ) SI_UNIT ( $, .RADIAN. ) );
#212 = VERTEX_POINT ( 'NONE', #218 ) ;
#213 = CLOSED_SHELL ( 'NONE', ( #57, #126, #301, #90 ) ) ;
#214 = COLOUR_RGB ( '',1.000000000000000000, 0.000000000000000000, 0.000000000000000000 ) ;
#215 = LENGTH_MEASURE_WITH_UNIT ( LENGTH_MEASURE( 0.02539999999999999897 ), #155 );
#216 = ORIENTED_EDGE ( 'NONE', *, *, #60, .F. ) ;
#217 = ORIENTED_EDGE ( 'NONE', *, *, #167, .F. ) ;
#218 = CARTESIAN_POINT ( 'NONE',  ( -0.2500000000000001110, 3.000000000000000444, 0.000000000000000000 ) ) ;
#219 = SURFACE_STYLE_USAGE ( .BOTH. , #110 ) ;
#220 = CLOSED_SHELL ( 'NONE', ( #74, #271, #184, #194 ) ) ;
#221 = AXIS2_PLACEMENT_3D ( 'NONE', #32, #177, #31 ) ;
#222 = AXIS2_PLACEMENT_3D ( 'NONE', #104, #56, #156 ) ;
#223 = SURFACE_STYLE_FILL_AREA ( #87 ) ;
#224 = UNCERTAINTY_MEASURE_WITH_UNIT (LENGTH_MEASURE( 1.000000000000000082E-05 ), #38, 'distance_accuracy_value', 'NONE');
#225 = DIRECTION ( 'NONE',  ( 1.000000000000000000, 3.061616997868386099E-17, 0.000000000000000000 ) ) ;
#226 = LENGTH_MEASURE_WITH_UNIT ( LENGTH_MEASURE( 0.02539999999999999897 ), #268 );
#227 = DIRECTION ( 'NONE',  ( 0.000000000000000000, 0.000000000000000000, -1.000000000000000000 ) ) ;
#228 = CARTESIAN_POINT ( 'NONE',  ( 3.061616997868383018E-17, 0.000000000000000000, 0.2500000000000000000 ) ) ;
#229 = LENGTH_MEASURE_WITH_UNIT ( LENGTH_MEASURE( 0.02539999999999999897 ), #251 );
#230 = APPLICATION_CONTEXT ( 'automotive_design' ) ;
#231 = EDGE_CURVE ( 'NONE', #212, #144, #169, .T. ) ;
#232 =( NAMED_UNIT ( * ) SI_UNIT ( $, .STERADIAN. ) SOLID_ANGLE_UNIT ( ) );
#233 = FILL_AREA_STYLE ('',( #133 ) ) ;
#234 = FACE_OUTER_BOUND ( 'NONE', #138, .T. ) ;
#235 = EDGE_CURVE ( 'NONE', #185, #18, #153, .T. ) ;
#236 = SURFACE_STYLE_USAGE ( .BOTH. , #300 ) ;
#237 =( NAMED_UNIT ( * ) PLANE_ANGLE_UNIT ( ) SI_UNIT ( $, .RADIAN. ) );
#238 = DIRECTION ( 'NONE',  ( 1.000000000000000000, 0.000000000000000000, 0.000000000000000000 ) ) ;
#239 = ORIENTED_EDGE ( 'NONE', *, *, #235, .T. ) ;
#240 = CIRCLE ( 'NONE', #71, 0.2500000000000000000 ) ;
#241 = PRESENTATION_LAYER_ASSIGNMENT (  '', '', ( #52 ) ) ;
#242 =( LENGTH_UNIT ( ) NAMED_UNIT ( * ) SI_UNIT ( $, .METRE. ) );
#243 = DIRECTION ( 'NONE',  ( 0.000000000000000000, -0.000000000000000000, 1.000000000000000000 ) ) ;
#244 = CYLINDRICAL_SURFACE ( 'NONE', #200, 0.2500000000000000555 ) ;
#245 = ORIENTED_EDGE ( 'NONE', *, *, #134, .T. ) ;
#246 = DIRECTION ( 'NONE',  ( -0.000000000000000000, -1.000000000000000000, -0.000000000000000000 ) ) ;
#247 = UNCERTAINTY_MEASURE_WITH_UNIT (LENGTH_MEASURE( 1.000000000000000082E-05 ), #289, 'distance_accuracy_value', 'NONE');
#248 = CYLINDRICAL_SURFACE ( 'NONE', #136, 0.2500000000000000000 ) ;
#249 = DIRECTION ( 'NONE',  ( -0.000000000000000000, -1.000000000000000000, -0.000000000000000000 ) ) ;
#250 = FILL_AREA_STYLE_COLOUR ( '', #214 ) ;
#251 =( LENGTH_UNIT ( ) NAMED_UNIT ( * ) SI_UNIT ( $, .METRE. ) );
#252 = PRESENTATION_STYLE_ASSIGNMENT (( #275 ) ) ;
#253 = PRESENTATION_STYLE_ASSIGNMENT (( #96 ) ) ;
#254 =( GEOMETRIC_REPRESENTATION_CONTEXT ( 3 ) GLOBAL_UNCERTAINTY_ASSIGNED_CONTEXT ( ( #132 ) ) GLOBAL_UNIT_ASSIGNED_CONTEXT ( ( #209, #260, #189 ) ) REPRESENTATION_CONTEXT ( 'NONE', 'WORKASPACE' ) );
#255 = FILL_AREA_STYLE_COLOUR ( '', #49 ) ;
#256 = SURFACE_SIDE_STYLE ('',( #274 ) ) ;
#257 = ORIENTED_EDGE ( 'NONE', *, *, #9, .T. ) ;
#258 = MECHANICAL_DESIGN_GEOMETRIC_PRESENTATION_REPRESENTATION (  '', ( #192 ), #115 ) ;
#259 = PRODUCT_DEFINITION ( 'UNKNOWN', '', #53, #12 ) ;
#260 =( NAMED_UNIT ( * ) PLANE_ANGLE_UNIT ( ) SI_UNIT ( $, .RADIAN. ) );
#261 = DIRECTION ( 'NONE',  ( 0.000000000000000000, -1.000000000000000000, -0.000000000000000000 ) ) ;
#262 = CARTESIAN_POINT ( 'NONE',  ( -0.2500000000000000000, 1.000000000000000000, 0.000000000000000000 ) ) ;
#263 = ORIENTED_EDGE ( 'NONE', *, *, #304, .T. ) ;
#264 = DIRECTION ( 'NONE',  ( 0.000000000000000000, 1.000000000000000000, 0.000000000000000000 ) ) ;
#265 = ORIENTED_EDGE ( 'NONE', *, *, #304, .F. ) ;
#266 = FACE_OUTER_BOUND ( 'NONE', #290, .T. ) ;
#267 = ORIENTED_EDGE ( 'NONE', *, *, #167, .T. ) ;
#268 =( LENGTH_UNIT ( ) NAMED_UNIT ( * ) SI_UNIT ( $, .METRE. ) );
#269 = AXIS2_PLACEMENT_3D ( 'NONE', #139, #261, #307 ) ;
#270 = DIRECTION ( 'NONE',  ( 0.000000000000000000, 0.000000000000000000, -1.000000000000000000 ) ) ;
#271 = ADVANCED_FACE ( 'NONE', ( #266 ), #291, .T. ) ;
#272 =( NAMED_UNIT ( * ) SI_UNIT ( $, .STERADIAN. ) SOLID_ANGLE_UNIT ( ) );
#273 = CARTESIAN_POINT ( 'NONE',  ( 0.000000000000000000, 0.000000000000000000, 0.000000000000000000 ) ) ;
#274 = SURFACE_STYLE_FILL_AREA ( #233 ) ;
#275 = SURFACE_STYLE_USAGE ( .BOTH. , #256 ) ;
#276 = DIRECTION ( 'NONE',  ( -1.000000000000000000, 0.000000000000000000, 0.000000000000000000 ) ) ;
#277 = AXIS2_PLACEMENT_3D ( 'NONE', #128, #202, #276 ) ;
#278 = CIRCLE ( 'NONE', #73, 0.2500000000000000000 ) ;
#279 = CYLINDRICAL_SURFACE ( 'NONE', #222, 0.2500000000000000555 ) ;
#280 = ORIENTED_EDGE ( 'NONE', *, *, #143, .T. ) ;
#281 = MECHANICAL_DESIGN_GEOMETRIC_PRESENTATION_REPRESENTATION (  '', ( #26 ), #254 ) ;
#282 =( NAMED_UNIT ( * ) SI_UNIT ( $, .STERADIAN. ) SOLID_ANGLE_UNIT ( ) );
#283 = APPLICATION_PROTOCOL_DEFINITION ( 'draft international standard', 'automotive_design', 1998, #230 ) ;
#284 = SHAPE_DEFINITION_REPRESENTATION ( #119, #55 ) ;
#285 = UNCERTAINTY_MEASURE_WITH_UNIT (LENGTH_MEASURE( 1.000000000000000082E-05 ), #116, 'distance_accuracy_value', 'NONE');
#286 = AXIS2_PLACEMENT_3D ( 'NONE', #152, #181, #154 ) ;
#287 = CARTESIAN_POINT ( 'NONE',  ( -0.2500000000000001110, 3.000000000000000444, 0.000000000000000000 ) ) ;
#288 = VERTEX_POINT ( 'NONE', #262 ) ;
#289 =( CONVERSION_BASED_UNIT ( 'INCH', #67 ) LENGTH_UNIT ( ) NAMED_UNIT ( #98 ) );
#290 = EDGE_LOOP ( 'NONE', ( #265, #216 ) ) ;
#291 = PLANE ( 'NONE',  #137 ) ;
#292 = DIRECTION ( 'NONE',  ( -1.000000000000000000, 0.000000000000000000, 0.000000000000000000 ) ) ;
#293 = ORIENTED_EDGE ( 'NONE', *, *, #46, .F. ) ;
#294 = AXIS2_PLACEMENT_3D ( 'NONE', #147, #145, #86 ) ;
#295 = CARTESIAN_POINT ( 'NONE',  ( 1.171687330204578608E-34, 1.000000000000000000, 0.000000000000000000 ) ) ;
#296 = CARTESIAN_POINT ( 'NONE',  ( 0.2499999999999999722, 3.000000000000000444, 3.061616997868383634E-17 ) ) ;
#297 = CIRCLE ( 'NONE', #146, 0.2500000000000000000 ) ;
#298 = PLANE ( 'NONE',  #269 ) ;
#299 = PRESENTATION_LAYER_ASSIGNMENT (  '', '', ( #44 ) ) ;
#300 = SURFACE_SIDE_STYLE ('',( #179 ) ) ;
#301 = ADVANCED_FACE ( 'NONE', ( #303 ), #279, .T. ) ;
#302 = VECTOR ( 'NONE', #249, 39.37007874015748143 ) ;
#303 = FACE_OUTER_BOUND ( 'NONE', #79, .T. ) ;
#304 = EDGE_CURVE ( 'NONE', #210, #123, #278, .T. ) ;
#305 = EDGE_LOOP ( 'NONE', ( #109, #267 ) ) ;
#306 = ORIENTED_EDGE ( 'NONE', *, *, #2, .T. ) ;
#307 = DIRECTION ( 'NONE',  ( 0.000000000000000000, 0.000000000000000000, -1.000000000000000000 ) ) ;
#308 = UNCERTAINTY_MEASURE_WITH_UNIT (LENGTH_MEASURE( 1.000000000000000082E-05 ), #161, 'distance_accuracy_value', 'NONE');
#309 = PRESENTATION_STYLE_ASSIGNMENT (( #236 ) ) ;
ENDSEC;
END-ISO-10303-21;
