ISO-10303-21;
HEADER;
FILE_DESCRIPTION (( 'STEP AP214' ),
    '1' );
FILE_NAME ('59798.STEP',
    '2023-07-24T15:41:16',
    ( '' ),
    ( '' ),
    'SwSTEP 2.0',
    'SolidWorks 2023',
    '' );
FILE_SCHEMA (( 'AUTOMOTIVE_DESIGN' ));
ENDSEC;

DATA;
#1 =( NAMED_UNIT ( * ) SI_UNIT ( $, .STERADIAN. ) SOLID_ANGLE_UNIT ( ) );
#2 = APPLICATION_CONTEXT ( 'automotive_design' ) ;
#3 = DIRECTION ( 'NONE',  ( -1.000000000000000000, -1.444848463910660280E-16, 0.000000000000000000 ) ) ;
#4 = CARTESIAN_POINT ( 'NONE',  ( 2.449293598294706414E-16, 1.000000000000000000, 2.000000000000000000 ) ) ;
#5 = CIRCLE ( 'NONE', #89, 1.000000000000000000 ) ;
#6 = ORIENTED_EDGE ( 'NONE', *, *, #111, .F. ) ;
#7 = FILL_AREA_STYLE ('',( #319 ) ) ;
#8 = DIRECTION ( 'NONE',  ( -1.444848463910660280E-16, 1.000000000000000000, -0.000000000000000000 ) ) ;
#9 = MANIFOLD_SOLID_BREP ( 'Revolve - Cutting Edge', #50 ) ;
#10 = PRESENTATION_LAYER_ASSIGNMENT (  '', '', ( #65 ) ) ;
#11 = PRESENTATION_LAYER_ASSIGNMENT (  '', '', ( #122 ) ) ;
#12 = ORIENTED_EDGE ( 'NONE', *, *, #79, .T. ) ;
#13 = CARTESIAN_POINT ( 'NONE',  ( 3.673940397442059375E-16, 0.000000000000000000, 2.999999999999999556 ) ) ;
#14 = LINE ( 'NONE', #359, #149 ) ;
#15 = SURFACE_SIDE_STYLE ('',( #40 ) ) ;
#16 = ORIENTED_EDGE ( 'NONE', *, *, #79, .F. ) ;
#17 = PRESENTATION_LAYER_ASSIGNMENT (  '', '', ( #323 ) ) ;
#18 = PRODUCT_DEFINITION ( 'UNKNOWN', '', #318, #302 ) ;
#19 = STYLED_ITEM ( 'NONE', ( #338 ), #322 ) ;
#20 = APPLICATION_PROTOCOL_DEFINITION ( 'draft international standard', 'automotive_design', 1998, #66 ) ;
#21 = SURFACE_STYLE_USAGE ( .BOTH. , #362 ) ;
#22 =( GEOMETRIC_REPRESENTATION_CONTEXT ( 3 ) GLOBAL_UNCERTAINTY_ASSIGNED_CONTEXT ( ( #365 ) ) GLOBAL_UNIT_ASSIGNED_CONTEXT ( ( #317, #123, #151 ) ) REPRESENTATION_CONTEXT ( 'NONE', 'WORKASPACE' ) );
#23 = PRESENTATION_STYLE_ASSIGNMENT (( #295 ) ) ;
#24 = EDGE_LOOP ( 'NONE', ( #96, #361 ) ) ;
#25 = FILL_AREA_STYLE ('',( #76 ) ) ;
#26 = ORIENTED_EDGE ( 'NONE', *, *, #111, .T. ) ;
#27 = PRESENTATION_LAYER_ASSIGNMENT (  '', '', ( #174 ) ) ;
#28 = EDGE_CURVE ( 'NONE', #49, #81, #360, .T. ) ;
#29 = SURFACE_STYLE_FILL_AREA ( #197 ) ;
#30 = AXIS2_PLACEMENT_3D ( 'NONE', #132, #325, #161 ) ;
#31 =( NAMED_UNIT ( * ) SI_UNIT ( $, .STERADIAN. ) SOLID_ANGLE_UNIT ( ) );
#32 = DIRECTION ( 'NONE',  ( 0.000000000000000000, 0.000000000000000000, -1.000000000000000000 ) ) ;
#33 = MECHANICAL_DESIGN_GEOMETRIC_PRESENTATION_REPRESENTATION (  '', ( #65 ), #304 ) ;
#34 = TOROIDAL_SURFACE ( 'NONE', #168, 2.000000000000000000, 1.000000000000000000 ) ;
#35 = ADVANCED_FACE ( 'NONE', ( #154 ), #216, .F. ) ;
#36 = DIRECTION ( 'NONE',  ( -1.000000000000000000, 0.000000000000000000, 0.000000000000000000 ) ) ;
#37 = PLANE ( 'NONE',  #217 ) ;
#38 = MECHANICAL_DESIGN_GEOMETRIC_PRESENTATION_REPRESENTATION (  '', ( #169 ), #200 ) ;
#39 = CARTESIAN_POINT ( 'NONE',  ( 7.592810154713587074E-15, 63.00000000000000000, 0.000000000000000000 ) ) ;
#40 = SURFACE_STYLE_FILL_AREA ( #67 ) ;
#41 = COLOUR_RGB ( '',1.000000000000000000, 0.000000000000000000, 0.000000000000000000 ) ;
#42 = DIRECTION ( 'NONE',  ( -1.000000000000000000, 0.000000000000000000, 0.000000000000000000 ) ) ;
#43 = SURFACE_STYLE_USAGE ( .BOTH. , #15 ) ;
#44 = CARTESIAN_POINT ( 'NONE',  ( 0.000000000000000000, 0.000000000000000000, 0.000000000000000000 ) ) ;
#45 =( NAMED_UNIT ( * ) PLANE_ANGLE_UNIT ( ) SI_UNIT ( $, .RADIAN. ) );
#46 = EDGE_CURVE ( 'NONE', #162, #81, #263, .T. ) ;
#47 = FILL_AREA_STYLE ('',( #214 ) ) ;
#48 = CARTESIAN_POINT ( 'NONE',  ( 7.592810154713587074E-15, 63.00000000000000000, 0.000000000000000000 ) ) ;
#49 = VERTEX_POINT ( 'NONE', #353 ) ;
#50 = CLOSED_SHELL ( 'NONE', ( #165, #310, #322, #94, #282, #178 ) ) ;
#51 = PRESENTATION_LAYER_ASSIGNMENT (  '', '', ( #134 ) ) ;
#52 = SURFACE_SIDE_STYLE ('',( #157 ) ) ;
#53 = CARTESIAN_POINT ( 'NONE',  ( 2.999999999999999112, 18.00000000000000355, 3.673940397442046556E-16 ) ) ;
#54 = DIRECTION ( 'NONE',  ( -0.000000000000000000, -1.000000000000000000, -0.000000000000000000 ) ) ;
#55 = ORIENTED_EDGE ( 'NONE', *, *, #146, .T. ) ;
#56 =( GEOMETRIC_REPRESENTATION_CONTEXT ( 3 ) GLOBAL_UNCERTAINTY_ASSIGNED_CONTEXT ( ( #190 ) ) GLOBAL_UNIT_ASSIGNED_CONTEXT ( ( #327, #100, #300 ) ) REPRESENTATION_CONTEXT ( 'NONE', 'WORKASPACE' ) );
#57 = COLOUR_RGB ( '',1.000000000000000000, 0.000000000000000000, 0.000000000000000000 ) ;
#58 = ORIENTED_EDGE ( 'NONE', *, *, #347, .T. ) ;
#59 = FILL_AREA_STYLE ('',( #202 ) ) ;
#60 = SURFACE_SIDE_STYLE ('',( #192 ) ) ;
#61 = PLANE ( 'NONE',  #367 ) ;
#62 =( GEOMETRIC_REPRESENTATION_CONTEXT ( 3 ) GLOBAL_UNCERTAINTY_ASSIGNED_CONTEXT ( ( #268 ) ) GLOBAL_UNIT_ASSIGNED_CONTEXT ( ( #272, #85, #31 ) ) REPRESENTATION_CONTEXT ( 'NONE', 'WORKASPACE' ) );
#63 = FILL_AREA_STYLE_COLOUR ( '', #41 ) ;
#64 = CYLINDRICAL_SURFACE ( 'NONE', #340, 2.999999999999999556 ) ;
#65 = STYLED_ITEM ( 'NONE', ( #86 ), #9 ) ;
#66 = APPLICATION_CONTEXT ( 'automotive_design' ) ;
#67 = FILL_AREA_STYLE ('',( #142 ) ) ;
#68 = ORIENTED_EDGE ( 'NONE', *, *, #244, .F. ) ;
#69 = DIRECTION ( 'NONE',  ( -1.444848463910660280E-16, 1.000000000000000000, -0.000000000000000000 ) ) ;
#70 = MECHANICAL_DESIGN_GEOMETRIC_PRESENTATION_REPRESENTATION (  '', ( #174 ), #264 ) ;
#71 = CARTESIAN_POINT ( 'NONE',  ( 0.000000000000000000, 1.000000000000000000, 0.000000000000000000 ) ) ;
#72 = UNCERTAINTY_MEASURE_WITH_UNIT (LENGTH_MEASURE( 1.000000000000000082E-05 ), #126, 'distance_accuracy_value', 'NONE');
#73 = CARTESIAN_POINT ( 'NONE',  ( 3.673940397442059375E-16, 18.00000000000000355, 2.999999999999999112 ) ) ;
#74 = SURFACE_STYLE_FILL_AREA ( #364 ) ;
#75 =( GEOMETRIC_REPRESENTATION_CONTEXT ( 3 ) GLOBAL_UNCERTAINTY_ASSIGNED_CONTEXT ( ( #241 ) ) GLOBAL_UNIT_ASSIGNED_CONTEXT ( ( #275, #368, #1 ) ) REPRESENTATION_CONTEXT ( 'NONE', 'WORKASPACE' ) );
#76 = FILL_AREA_STYLE_COLOUR ( '', #101 ) ;
#77 =( NAMED_UNIT ( * ) SI_UNIT ( $, .STERADIAN. ) SOLID_ANGLE_UNIT ( ) );
#78 = ADVANCED_BREP_SHAPE_REPRESENTATION ( '59798', ( #9, #369, #136 ), #22 ) ;
#79 = EDGE_CURVE ( 'NONE', #341, #84, #109, .T. ) ;
#80 = EDGE_LOOP ( 'NONE', ( #58, #177, #16, #270 ) ) ;
#81 = VERTEX_POINT ( 'NONE', #291 ) ;
#82 = ORIENTED_EDGE ( 'NONE', *, *, #46, .T. ) ;
#83 = AXIS2_PLACEMENT_3D ( 'NONE', #106, #54, #269 ) ;
#84 = VERTEX_POINT ( 'NONE', #97 ) ;
#85 =( NAMED_UNIT ( * ) PLANE_ANGLE_UNIT ( ) SI_UNIT ( $, .RADIAN. ) );
#86 = PRESENTATION_STYLE_ASSIGNMENT (( #224 ) ) ;
#87 =( NAMED_UNIT ( * ) SI_UNIT ( $, .STERADIAN. ) SOLID_ANGLE_UNIT ( ) );
#88 = DIRECTION ( 'NONE',  ( 0.000000000000000000, -1.000000000000000000, -0.000000000000000000 ) ) ;
#89 = AXIS2_PLACEMENT_3D ( 'NONE', #4, #95, #119 ) ;
#90 = ORIENTED_EDGE ( 'NONE', *, *, #209, .F. ) ;
#91 = CARTESIAN_POINT ( 'NONE',  ( 0.000000000000000000, 0.000000000000000000, 0.000000000000000000 ) ) ;
#92 =( LENGTH_UNIT ( ) NAMED_UNIT ( * ) SI_UNIT ( .MILLI., .METRE. ) );
#93 = COLOUR_RGB ( '',0.7921568627450980005, 0.8196078431372548767, 0.9333333333333333481 ) ;
#94 = ADVANCED_FACE ( 'NONE', ( #334 ), #251, .T. ) ;
#95 = DIRECTION ( 'NONE',  ( 1.000000000000000000, 0.000000000000000000, -1.224646799147353207E-16 ) ) ;
#96 = ORIENTED_EDGE ( 'NONE', *, *, #146, .F. ) ;
#97 = CARTESIAN_POINT ( 'NONE',  ( 2.999999999999999556, 63.00000000000000000, 3.673940397442047542E-16 ) ) ;
#98 =( LENGTH_UNIT ( ) NAMED_UNIT ( * ) SI_UNIT ( .MILLI., .METRE. ) );
#99 = EDGE_LOOP ( 'NONE', ( #55, #256, #233, #220 ) ) ;
#100 =( NAMED_UNIT ( * ) PLANE_ANGLE_UNIT ( ) SI_UNIT ( $, .RADIAN. ) );
#101 = COLOUR_RGB ( '',1.000000000000000000, 0.000000000000000000, 0.000000000000000000 ) ;
#102 = DIRECTION ( 'NONE',  ( -1.444848463910660280E-16, 1.000000000000000000, -0.000000000000000000 ) ) ;
#103 = DIRECTION ( 'NONE',  ( 1.000000000000000000, 1.444848463910660280E-16, 0.000000000000000000 ) ) ;
#104 = VERTEX_POINT ( 'NONE', #242 ) ;
#105 = DIRECTION ( 'NONE',  ( -0.000000000000000000, -1.000000000000000000, -0.000000000000000000 ) ) ;
#106 = CARTESIAN_POINT ( 'NONE',  ( 0.000000000000000000, 18.00000000000000355, 0.000000000000000000 ) ) ;
#107 = DIRECTION ( 'NONE',  ( 0.000000000000000000, 0.000000000000000000, -1.000000000000000000 ) ) ;
#108 = CARTESIAN_POINT ( 'NONE',  ( 7.592810154713587074E-15, 63.00000000000000000, 0.000000000000000000 ) ) ;
#109 = CIRCLE ( 'NONE', #296, 2.999999999999991562 ) ;
#110 = VECTOR ( 'NONE', #239, 1000.000000000000000 ) ;
#111 = EDGE_CURVE ( 'NONE', #234, #261, #156, .T. ) ;
#112 = AXIS2_PLACEMENT_3D ( 'NONE', #71, #185, #127 ) ;
#113 = PRESENTATION_LAYER_ASSIGNMENT (  '', '', ( #19 ) ) ;
#114 = AXIS2_PLACEMENT_3D ( 'NONE', #252, #145, #254 ) ;
#115 = FILL_AREA_STYLE_COLOUR ( '', #238 ) ;
#116 =( NAMED_UNIT ( * ) SI_UNIT ( $, .STERADIAN. ) SOLID_ANGLE_UNIT ( ) );
#117 = EDGE_CURVE ( 'NONE', #259, #49, #173, .T. ) ;
#118 = MECHANICAL_DESIGN_GEOMETRIC_PRESENTATION_REPRESENTATION (  '', ( #323 ), #56 ) ;
#119 = DIRECTION ( 'NONE',  ( -1.224646799147353207E-16, 0.000000000000000000, -1.000000000000000000 ) ) ;
#120 =( NAMED_UNIT ( * ) SI_UNIT ( $, .STERADIAN. ) SOLID_ANGLE_UNIT ( ) );
#121 = SURFACE_SIDE_STYLE ('',( #203 ) ) ;
#122 = STYLED_ITEM ( 'NONE', ( #124 ), #165 ) ;
#123 =( NAMED_UNIT ( * ) PLANE_ANGLE_UNIT ( ) SI_UNIT ( $, .RADIAN. ) );
#124 = PRESENTATION_STYLE_ASSIGNMENT (( #43 ) ) ;
#125 = DIRECTION ( 'NONE',  ( -0.000000000000000000, -1.000000000000000000, -0.000000000000000000 ) ) ;
#126 =( LENGTH_UNIT ( ) NAMED_UNIT ( * ) SI_UNIT ( .MILLI., .METRE. ) );
#127 = DIRECTION ( 'NONE',  ( 0.000000000000000000, 0.000000000000000000, -1.000000000000000000 ) ) ;
#128 =( GEOMETRIC_REPRESENTATION_CONTEXT ( 3 ) GLOBAL_UNCERTAINTY_ASSIGNED_CONTEXT ( ( #218 ) ) GLOBAL_UNIT_ASSIGNED_CONTEXT ( ( #176, #204, #87 ) ) REPRESENTATION_CONTEXT ( 'NONE', 'WORKASPACE' ) );
#129 = FACE_OUTER_BOUND ( 'NONE', #306, .T. ) ;
#130 = DIRECTION ( 'NONE',  ( -0.000000000000000000, -1.000000000000000000, -0.000000000000000000 ) ) ;
#131 =( NAMED_UNIT ( * ) SI_UNIT ( $, .STERADIAN. ) SOLID_ANGLE_UNIT ( ) );
#132 = CARTESIAN_POINT ( 'NONE',  ( 0.000000000000000000, 1.000000000000000000, 0.000000000000000000 ) ) ;
#133 = UNCERTAINTY_MEASURE_WITH_UNIT (LENGTH_MEASURE( 1.000000000000000082E-05 ), #92, 'distance_accuracy_value', 'NONE');
#134 = STYLED_ITEM ( 'NONE', ( #199 ), #178 ) ;
#135 = ORIENTED_EDGE ( 'NONE', *, *, #209, .T. ) ;
#136 = AXIS2_PLACEMENT_3D ( 'NONE', #91, #312, #358 ) ;
#137 = EDGE_CURVE ( 'NONE', #84, #341, #284, .T. ) ;
#138 = DIRECTION ( 'NONE',  ( 0.000000000000000000, 0.000000000000000000, -1.000000000000000000 ) ) ;
#139 = CARTESIAN_POINT ( 'NONE',  ( 0.000000000000000000, 0.000000000000000000, 0.000000000000000000 ) ) ;
#140 = EDGE_CURVE ( 'NONE', #259, #162, #260, .T. ) ;
#141 = ORIENTED_EDGE ( 'NONE', *, *, #354, .T. ) ;
#142 = FILL_AREA_STYLE_COLOUR ( '', #57 ) ;
#143 = DIRECTION ( 'NONE',  ( 0.000000000000000000, -0.000000000000000000, 1.000000000000000000 ) ) ;
#144 = CARTESIAN_POINT ( 'NONE',  ( -2.999999999999983569, 63.00000000000000000, 0.000000000000000000 ) ) ;
#145 = DIRECTION ( 'NONE',  ( -1.444848463910660280E-16, 1.000000000000000000, -0.000000000000000000 ) ) ;
#146 = EDGE_CURVE ( 'NONE', #49, #259, #333, .T. ) ;
#147 = CARTESIAN_POINT ( 'NONE',  ( 1.409462824231155764E-14, 18.00000000000000355, 0.000000000000000000 ) ) ;
#148 = EDGE_LOOP ( 'NONE', ( #342, #82, #307, #90 ) ) ;
#149 = VECTOR ( 'NONE', #102, 1000.000000000000000 ) ;
#150 = AXIS2_PLACEMENT_3D ( 'NONE', #147, #288, #3 ) ;
#151 =( NAMED_UNIT ( * ) SI_UNIT ( $, .STERADIAN. ) SOLID_ANGLE_UNIT ( ) );
#152 = DIRECTION ( 'NONE',  ( -1.444848463910660280E-16, 1.000000000000000000, -0.000000000000000000 ) ) ;
#153 = ORIENTED_EDGE ( 'NONE', *, *, #28, .T. ) ;
#154 = FACE_OUTER_BOUND ( 'NONE', #328, .T. ) ;
#155 = ORIENTED_EDGE ( 'NONE', *, *, #211, .F. ) ;
#156 = CIRCLE ( 'NONE', #193, 2.999999999999984457 ) ;
#157 = SURFACE_STYLE_FILL_AREA ( #47 ) ;
#158 = EDGE_LOOP ( 'NONE', ( #337, #141, #155, #68 ) ) ;
#159 = PRODUCT_CONTEXT ( 'NONE', #2, 'mechanical' ) ;
#160 = CARTESIAN_POINT ( 'NONE',  ( -2.999999999999980460, 63.00000000000000000, 0.000000000000000000 ) ) ;
#161 = DIRECTION ( 'NONE',  ( 0.000000000000000000, 0.000000000000000000, -1.000000000000000000 ) ) ;
#162 = VERTEX_POINT ( 'NONE', #336 ) ;
#163 = ORIENTED_EDGE ( 'NONE', *, *, #287, .F. ) ;
#164 = COLOUR_RGB ( '',0.7921568627450980005, 0.8196078431372548767, 0.9333333333333333481 ) ;
#165 = ADVANCED_FACE ( 'NONE', ( #246 ), #64, .T. ) ;
#166 = SURFACE_STYLE_FILL_AREA ( #59 ) ;
#167 = VERTEX_POINT ( 'NONE', #172 ) ;
#168 = AXIS2_PLACEMENT_3D ( 'NONE', #194, #222, #138 ) ;
#169 = STYLED_ITEM ( 'NONE', ( #349 ), #369 ) ;
#170 = CARTESIAN_POINT ( 'NONE',  ( 0.000000000000000000, 0.000000000000000000, 0.000000000000000000 ) ) ;
#171 = DIRECTION ( 'NONE',  ( 0.000000000000000000, 1.000000000000000000, 0.000000000000000000 ) ) ;
#172 = CARTESIAN_POINT ( 'NONE',  ( 0.000000000000000000, 0.000000000000000000, -2.000000000000000000 ) ) ;
#173 = CIRCLE ( 'NONE', #83, 2.999999999999999112 ) ;
#174 = STYLED_ITEM ( 'NONE', ( #23 ), #282 ) ;
#175 = AXIS2_PLACEMENT_3D ( 'NONE', #39, #8, #350 ) ;
#176 =( LENGTH_UNIT ( ) NAMED_UNIT ( * ) SI_UNIT ( .MILLI., .METRE. ) );
#177 = ORIENTED_EDGE ( 'NONE', *, *, #287, .T. ) ;
#178 = ADVANCED_FACE ( 'NONE', ( #253 ), #37, .T. ) ;
#179 = COLOUR_RGB ( '',1.000000000000000000, 0.000000000000000000, 0.000000000000000000 ) ;
#180 = AXIS2_PLACEMENT_3D ( 'NONE', #44, #329, #266 ) ;
#181 = DIRECTION ( 'NONE',  ( -1.444848463910660280E-16, 1.000000000000000000, -0.000000000000000000 ) ) ;
#182 = ORIENTED_EDGE ( 'NONE', *, *, #117, .T. ) ;
#183 = UNCERTAINTY_MEASURE_WITH_UNIT (LENGTH_MEASURE( 1.000000000000000082E-05 ), #98, 'distance_accuracy_value', 'NONE');
#184 = CARTESIAN_POINT ( 'NONE',  ( 0.000000000000000000, 1.000000000000000000, 0.000000000000000000 ) ) ;
#185 = DIRECTION ( 'NONE',  ( -0.000000000000000000, -1.000000000000000000, -0.000000000000000000 ) ) ;
#186 = CLOSED_SHELL ( 'NONE', ( #352, #324, #343, #35 ) ) ;
#187 = CARTESIAN_POINT ( 'NONE',  ( -2.999999999999970690, 18.00000000000000355, 0.000000000000000000 ) ) ;
#188 = MECHANICAL_DESIGN_GEOMETRIC_PRESENTATION_REPRESENTATION (  '', ( #231 ), #75 ) ;
#189 = DIRECTION ( 'NONE',  ( -1.000000000000000000, 0.000000000000000000, 0.000000000000000000 ) ) ;
#190 = UNCERTAINTY_MEASURE_WITH_UNIT (LENGTH_MEASURE( 1.000000000000000082E-05 ), #327, 'distance_accuracy_value', 'NONE');
#191 = EDGE_LOOP ( 'NONE', ( #277, #135 ) ) ;
#192 = SURFACE_STYLE_FILL_AREA ( #25 ) ;
#193 = AXIS2_PLACEMENT_3D ( 'NONE', #321, #69, #42 ) ;
#194 = CARTESIAN_POINT ( 'NONE',  ( 0.000000000000000000, 1.000000000000000000, 0.000000000000000000 ) ) ;
#195 = AXIS2_PLACEMENT_3D ( 'NONE', #281, #201, #36 ) ;
#196 = ORIENTED_EDGE ( 'NONE', *, *, #140, .F. ) ;
#197 = FILL_AREA_STYLE ('',( #115 ) ) ;
#198 = VECTOR ( 'NONE', #125, 1000.000000000000000 ) ;
#199 = PRESENTATION_STYLE_ASSIGNMENT (( #320 ) ) ;
#200 =( GEOMETRIC_REPRESENTATION_CONTEXT ( 3 ) GLOBAL_UNCERTAINTY_ASSIGNED_CONTEXT ( ( #133 ) ) GLOBAL_UNIT_ASSIGNED_CONTEXT ( ( #92, #344, #120 ) ) REPRESENTATION_CONTEXT ( 'NONE', 'WORKASPACE' ) );
#201 = DIRECTION ( 'NONE',  ( -1.444848463910660280E-16, 1.000000000000000000, -0.000000000000000000 ) ) ;
#202 = FILL_AREA_STYLE_COLOUR ( '', #93 ) ;
#203 = SURFACE_STYLE_FILL_AREA ( #7 ) ;
#204 =( NAMED_UNIT ( * ) PLANE_ANGLE_UNIT ( ) SI_UNIT ( $, .RADIAN. ) );
#205 = CIRCLE ( 'NONE', #180, 2.000000000000000000 ) ;
#206 = PLANE ( 'NONE',  #150 ) ;
#207 = FILL_AREA_STYLE ('',( #63 ) ) ;
#208 = DIRECTION ( 'NONE',  ( 0.000000000000000000, 0.000000000000000000, 1.000000000000000000 ) ) ;
#209 = EDGE_CURVE ( 'NONE', #104, #167, #249, .T. ) ;
#210 = ORIENTED_EDGE ( 'NONE', *, *, #137, .F. ) ;
#211 = EDGE_CURVE ( 'NONE', #167, #104, #205, .T. ) ;
#212 = CYLINDRICAL_SURFACE ( 'NONE', #309, 2.999999999999999556 ) ;
#213 = CARTESIAN_POINT ( 'NONE',  ( 2.999999999999999112, 63.00000000000000000, 0.000000000000000000 ) ) ;
#214 = FILL_AREA_STYLE_COLOUR ( '', #351 ) ;
#215 = CARTESIAN_POINT ( 'NONE',  ( 0.000000000000000000, 18.00000000000000355, 0.000000000000000000 ) ) ;
#216 = PLANE ( 'NONE',  #257 ) ;
#217 = AXIS2_PLACEMENT_3D ( 'NONE', #311, #171, #143 ) ;
#218 = UNCERTAINTY_MEASURE_WITH_UNIT (LENGTH_MEASURE( 1.000000000000000082E-05 ), #176, 'distance_accuracy_value', 'NONE');
#219 = SHAPE_DEFINITION_REPRESENTATION ( #276, #78 ) ;
#220 = ORIENTED_EDGE ( 'NONE', *, *, #28, .F. ) ;
#221 = SURFACE_STYLE_USAGE ( .BOTH. , #60 ) ;
#222 = DIRECTION ( 'NONE',  ( -0.000000000000000000, -1.000000000000000000, -0.000000000000000000 ) ) ;
#223 =( GEOMETRIC_REPRESENTATION_CONTEXT ( 3 ) GLOBAL_UNCERTAINTY_ASSIGNED_CONTEXT ( ( #262 ) ) GLOBAL_UNIT_ASSIGNED_CONTEXT ( ( #236, #237, #116 ) ) REPRESENTATION_CONTEXT ( 'NONE', 'WORKASPACE' ) );
#224 = SURFACE_STYLE_USAGE ( .BOTH. , #279 ) ;
#225 = DIRECTION ( 'NONE',  ( -0.000000000000000000, -1.000000000000000000, -0.000000000000000000 ) ) ;
#226 = AXIS2_PLACEMENT_3D ( 'NONE', #215, #356, #278 ) ;
#227 = CIRCLE ( 'NONE', #195, 2.999999999999984457 ) ;
#228 = SURFACE_SIDE_STYLE ('',( #255 ) ) ;
#229 = SURFACE_STYLE_USAGE ( .BOTH. , #121 ) ;
#230 = FACE_OUTER_BOUND ( 'NONE', #355, .T. ) ;
#231 = STYLED_ITEM ( 'NONE', ( #339 ), #310 ) ;
#232 = FILL_AREA_STYLE_COLOUR ( '', #179 ) ;
#233 = ORIENTED_EDGE ( 'NONE', *, *, #274, .F. ) ;
#234 = VERTEX_POINT ( 'NONE', #53 ) ;
#235 = DIRECTION ( 'NONE',  ( -0.000000000000000000, -1.000000000000000000, -0.000000000000000000 ) ) ;
#236 =( LENGTH_UNIT ( ) NAMED_UNIT ( * ) SI_UNIT ( .MILLI., .METRE. ) );
#237 =( NAMED_UNIT ( * ) PLANE_ANGLE_UNIT ( ) SI_UNIT ( $, .RADIAN. ) );
#238 = COLOUR_RGB ( '',1.000000000000000000, 0.000000000000000000, 0.000000000000000000 ) ;
#239 = DIRECTION ( 'NONE',  ( -1.444848463910660280E-16, 1.000000000000000000, -0.000000000000000000 ) ) ;
#240 = PRESENTATION_STYLE_ASSIGNMENT (( #21 ) ) ;
#241 = UNCERTAINTY_MEASURE_WITH_UNIT (LENGTH_MEASURE( 1.000000000000000082E-05 ), #275, 'distance_accuracy_value', 'NONE');
#242 = CARTESIAN_POINT ( 'NONE',  ( 3.061616997868383141E-16, 0.000000000000000000, 2.000000000000000000 ) ) ;
#243 = CARTESIAN_POINT ( 'NONE',  ( 0.000000000000000000, 1.000000000000000000, -2.000000000000000000 ) ) ;
#244 = EDGE_CURVE ( 'NONE', #81, #167, #258, .T. ) ;
#245 = CIRCLE ( 'NONE', #290, 3.000000000000000000 ) ;
#246 = FACE_OUTER_BOUND ( 'NONE', #99, .T. ) ;
#247 = EDGE_LOOP ( 'NONE', ( #294, #6 ) ) ;
#248 = FACE_OUTER_BOUND ( 'NONE', #191, .T. ) ;
#249 = CIRCLE ( 'NONE', #366, 2.000000000000000000 ) ;
#250 = EDGE_CURVE ( 'NONE', #261, #341, #348, .T. ) ;
#251 = TOROIDAL_SURFACE ( 'NONE', #112, 2.000000000000000000, 1.000000000000000000 ) ;
#252 = CARTESIAN_POINT ( 'NONE',  ( 7.592810154713587074E-15, 63.00000000000000000, 0.000000000000000000 ) ) ;
#253 = FACE_OUTER_BOUND ( 'NONE', #24, .T. ) ;
#254 = DIRECTION ( 'NONE',  ( -1.000000000000000000, 0.000000000000000000, 0.000000000000000000 ) ) ;
#255 = SURFACE_STYLE_FILL_AREA ( #207 ) ;
#256 = ORIENTED_EDGE ( 'NONE', *, *, #140, .T. ) ;
#257 = AXIS2_PLACEMENT_3D ( 'NONE', #213, #331, #103 ) ;
#258 = CIRCLE ( 'NONE', #297, 1.000000000000000000 ) ;
#259 = VERTEX_POINT ( 'NONE', #73 ) ;
#260 = LINE ( 'NONE', #13, #198 ) ;
#261 = VERTEX_POINT ( 'NONE', #187 ) ;
#262 = UNCERTAINTY_MEASURE_WITH_UNIT (LENGTH_MEASURE( 1.000000000000000082E-05 ), #236, 'distance_accuracy_value', 'NONE');
#263 = CIRCLE ( 'NONE', #30, 3.000000000000000000 ) ;
#264 =( GEOMETRIC_REPRESENTATION_CONTEXT ( 3 ) GLOBAL_UNCERTAINTY_ASSIGNED_CONTEXT ( ( #72 ) ) GLOBAL_UNIT_ASSIGNED_CONTEXT ( ( #126, #293, #131 ) ) REPRESENTATION_CONTEXT ( 'NONE', 'WORKASPACE' ) );
#265 = DIRECTION ( 'NONE',  ( -1.000000000000000000, 0.000000000000000000, 0.000000000000000000 ) ) ;
#266 = DIRECTION ( 'NONE',  ( 0.000000000000000000, 0.000000000000000000, -1.000000000000000000 ) ) ;
#267 = DIRECTION ( 'NONE',  ( 0.000000000000000000, 0.000000000000000000, -1.000000000000000000 ) ) ;
#268 = UNCERTAINTY_MEASURE_WITH_UNIT (LENGTH_MEASURE( 1.000000000000000082E-05 ), #272, 'distance_accuracy_value', 'NONE');
#269 = DIRECTION ( 'NONE',  ( 0.000000000000000000, 0.000000000000000000, -1.000000000000000000 ) ) ;
#270 = ORIENTED_EDGE ( 'NONE', *, *, #250, .F. ) ;
#271 = VECTOR ( 'NONE', #235, 1000.000000000000000 ) ;
#272 =( LENGTH_UNIT ( ) NAMED_UNIT ( * ) SI_UNIT ( .MILLI., .METRE. ) );
#273 = APPLICATION_PROTOCOL_DEFINITION ( 'draft international standard', 'automotive_design', 1998, #2 ) ;
#274 = EDGE_CURVE ( 'NONE', #81, #162, #245, .T. ) ;
#275 =( LENGTH_UNIT ( ) NAMED_UNIT ( * ) SI_UNIT ( .MILLI., .METRE. ) );
#276 = PRODUCT_DEFINITION_SHAPE ( 'NONE', 'NONE',  #18 ) ;
#277 = ORIENTED_EDGE ( 'NONE', *, *, #211, .T. ) ;
#278 = DIRECTION ( 'NONE',  ( 0.000000000000000000, 0.000000000000000000, -1.000000000000000000 ) ) ;
#279 = SURFACE_SIDE_STYLE ('',( #166 ) ) ;
#280 = DIRECTION ( 'NONE',  ( 0.000000000000000000, 0.000000000000000000, -1.000000000000000000 ) ) ;
#281 = CARTESIAN_POINT ( 'NONE',  ( 1.409462824231155764E-14, 18.00000000000000355, 0.000000000000000000 ) ) ;
#282 = ADVANCED_FACE ( 'NONE', ( #129 ), #212, .T. ) ;
#283 = CARTESIAN_POINT ( 'NONE',  ( 0.000000000000000000, 0.000000000000000000, 0.000000000000000000 ) ) ;
#284 = CIRCLE ( 'NONE', #345, 2.999999999999991562 ) ;
#285 = CYLINDRICAL_SURFACE ( 'NONE', #114, 2.999999999999988454 ) ;
#286 = MECHANICAL_DESIGN_GEOMETRIC_PRESENTATION_REPRESENTATION (  '', ( #122 ), #223 ) ;
#287 = EDGE_CURVE ( 'NONE', #234, #84, #14, .T. ) ;
#288 = DIRECTION ( 'NONE',  ( -1.444848463910660280E-16, 1.000000000000000000, 0.000000000000000000 ) ) ;
#289 = ORIENTED_EDGE ( 'NONE', *, *, #137, .T. ) ;
#290 = AXIS2_PLACEMENT_3D ( 'NONE', #184, #105, #298 ) ;
#291 = CARTESIAN_POINT ( 'NONE',  ( 0.000000000000000000, 1.000000000000000000, -3.000000000000000000 ) ) ;
#292 = PRESENTATION_LAYER_ASSIGNMENT (  '', '', ( #169 ) ) ;
#293 =( NAMED_UNIT ( * ) PLANE_ANGLE_UNIT ( ) SI_UNIT ( $, .RADIAN. ) );
#294 = ORIENTED_EDGE ( 'NONE', *, *, #347, .F. ) ;
#295 = SURFACE_STYLE_USAGE ( .BOTH. , #52 ) ;
#296 = AXIS2_PLACEMENT_3D ( 'NONE', #108, #152, #189 ) ;
#297 = AXIS2_PLACEMENT_3D ( 'NONE', #243, #301, #208 ) ;
#298 = DIRECTION ( 'NONE',  ( 0.000000000000000000, 0.000000000000000000, -1.000000000000000000 ) ) ;
#299 = CARTESIAN_POINT ( 'NONE',  ( 0.000000000000000000, 0.000000000000000000, -2.999999999999999556 ) ) ;
#300 =( NAMED_UNIT ( * ) SI_UNIT ( $, .STERADIAN. ) SOLID_ANGLE_UNIT ( ) );
#301 = DIRECTION ( 'NONE',  ( -1.000000000000000000, 0.000000000000000000, 0.000000000000000000 ) ) ;
#302 = PRODUCT_DEFINITION_CONTEXT ( 'detailed design', #66, 'design' ) ;
#303 = ORIENTED_EDGE ( 'NONE', *, *, #250, .T. ) ;
#304 =( GEOMETRIC_REPRESENTATION_CONTEXT ( 3 ) GLOBAL_UNCERTAINTY_ASSIGNED_CONTEXT ( ( #183 ) ) GLOBAL_UNIT_ASSIGNED_CONTEXT ( ( #98, #45, #77 ) ) REPRESENTATION_CONTEXT ( 'NONE', 'WORKASPACE' ) );
#305 = PRESENTATION_LAYER_ASSIGNMENT (  '', '', ( #231 ) ) ;
#306 = EDGE_LOOP ( 'NONE', ( #196, #182, #153, #335 ) ) ;
#307 = ORIENTED_EDGE ( 'NONE', *, *, #244, .T. ) ;
#308 = SURFACE_SIDE_STYLE ('',( #29 ) ) ;
#309 = AXIS2_PLACEMENT_3D ( 'NONE', #330, #363, #267 ) ;
#310 = ADVANCED_FACE ( 'NONE', ( #326 ), #34, .T. ) ;
#311 = CARTESIAN_POINT ( 'NONE',  ( 0.000000000000000000, 18.00000000000000355, 0.000000000000000000 ) ) ;
#312 = DIRECTION ( 'NONE',  ( 0.000000000000000000, 0.000000000000000000, 1.000000000000000000 ) ) ;
#313 = CYLINDRICAL_SURFACE ( 'NONE', #175, 2.999999999999988454 ) ;
#314 = PRODUCT_RELATED_PRODUCT_CATEGORY ( 'part', '', ( #370 ) ) ;
#315 = FACE_OUTER_BOUND ( 'NONE', #80, .T. ) ;
#316 = MECHANICAL_DESIGN_GEOMETRIC_PRESENTATION_REPRESENTATION (  '', ( #19 ), #62 ) ;
#317 =( LENGTH_UNIT ( ) NAMED_UNIT ( * ) SI_UNIT ( .MILLI., .METRE. ) );
#318 = PRODUCT_DEFINITION_FORMATION_WITH_SPECIFIED_SOURCE ( 'ANY', '', #370, .NOT_KNOWN. ) ;
#319 = FILL_AREA_STYLE_COLOUR ( '', #164 ) ;
#320 = SURFACE_STYLE_USAGE ( .BOTH. , #228 ) ;
#321 = CARTESIAN_POINT ( 'NONE',  ( 1.409462824231155764E-14, 18.00000000000000355, 0.000000000000000000 ) ) ;
#322 = ADVANCED_FACE ( 'NONE', ( #248 ), #61, .T. ) ;
#323 = STYLED_ITEM ( 'NONE', ( #240 ), #94 ) ;
#324 = ADVANCED_FACE ( 'NONE', ( #346 ), #206, .F. ) ;
#325 = DIRECTION ( 'NONE',  ( -0.000000000000000000, -1.000000000000000000, -0.000000000000000000 ) ) ;
#326 = FACE_OUTER_BOUND ( 'NONE', #158, .T. ) ;
#327 =( LENGTH_UNIT ( ) NAMED_UNIT ( * ) SI_UNIT ( .MILLI., .METRE. ) );
#328 = EDGE_LOOP ( 'NONE', ( #12, #289 ) ) ;
#329 = DIRECTION ( 'NONE',  ( -0.000000000000000000, -1.000000000000000000, -0.000000000000000000 ) ) ;
#330 = CARTESIAN_POINT ( 'NONE',  ( 0.000000000000000000, 0.000000000000000000, 0.000000000000000000 ) ) ;
#331 = DIRECTION ( 'NONE',  ( 1.444848463910660280E-16, -1.000000000000000000, 0.000000000000000000 ) ) ;
#332 = SURFACE_STYLE_USAGE ( .BOTH. , #308 ) ;
#333 = CIRCLE ( 'NONE', #226, 2.999999999999999112 ) ;
#334 = FACE_OUTER_BOUND ( 'NONE', #148, .T. ) ;
#335 = ORIENTED_EDGE ( 'NONE', *, *, #46, .F. ) ;
#336 = CARTESIAN_POINT ( 'NONE',  ( 3.673940397442059375E-16, 1.000000000000000000, 3.000000000000000000 ) ) ;
#337 = ORIENTED_EDGE ( 'NONE', *, *, #274, .T. ) ;
#338 = PRESENTATION_STYLE_ASSIGNMENT (( #332 ) ) ;
#339 = PRESENTATION_STYLE_ASSIGNMENT (( #221 ) ) ;
#340 = AXIS2_PLACEMENT_3D ( 'NONE', #139, #225, #280 ) ;
#341 = VERTEX_POINT ( 'NONE', #144 ) ;
#342 = ORIENTED_EDGE ( 'NONE', *, *, #354, .F. ) ;
#343 = ADVANCED_FACE ( 'NONE', ( #230 ), #313, .T. ) ;
#344 =( NAMED_UNIT ( * ) PLANE_ANGLE_UNIT ( ) SI_UNIT ( $, .RADIAN. ) );
#345 = AXIS2_PLACEMENT_3D ( 'NONE', #48, #181, #265 ) ;
#346 = FACE_OUTER_BOUND ( 'NONE', #247, .T. ) ;
#347 = EDGE_CURVE ( 'NONE', #261, #234, #227, .T. ) ;
#348 = LINE ( 'NONE', #160, #110 ) ;
#349 = PRESENTATION_STYLE_ASSIGNMENT (( #229 ) ) ;
#350 = DIRECTION ( 'NONE',  ( -1.000000000000000000, 0.000000000000000000, 0.000000000000000000 ) ) ;
#351 = COLOUR_RGB ( '',1.000000000000000000, 0.000000000000000000, 0.000000000000000000 ) ;
#352 = ADVANCED_FACE ( 'NONE', ( #315 ), #285, .T. ) ;
#353 = CARTESIAN_POINT ( 'NONE',  ( 0.000000000000000000, 18.00000000000000355, -2.999999999999999112 ) ) ;
#354 = EDGE_CURVE ( 'NONE', #162, #104, #5, .T. ) ;
#355 = EDGE_LOOP ( 'NONE', ( #163, #26, #303, #210 ) ) ;
#356 = DIRECTION ( 'NONE',  ( -0.000000000000000000, -1.000000000000000000, -0.000000000000000000 ) ) ;
#357 = MECHANICAL_DESIGN_GEOMETRIC_PRESENTATION_REPRESENTATION (  '', ( #134 ), #128 ) ;
#358 = DIRECTION ( 'NONE',  ( 1.000000000000000000, 0.000000000000000000, 0.000000000000000000 ) ) ;
#359 = CARTESIAN_POINT ( 'NONE',  ( 2.999999999999996003, 63.00000000000000000, 3.673940397442045077E-16 ) ) ;
#360 = LINE ( 'NONE', #299, #271 ) ;
#361 = ORIENTED_EDGE ( 'NONE', *, *, #117, .F. ) ;
#362 = SURFACE_SIDE_STYLE ('',( #74 ) ) ;
#363 = DIRECTION ( 'NONE',  ( -0.000000000000000000, -1.000000000000000000, -0.000000000000000000 ) ) ;
#364 = FILL_AREA_STYLE ('',( #232 ) ) ;
#365 = UNCERTAINTY_MEASURE_WITH_UNIT (LENGTH_MEASURE( 1.000000000000000082E-05 ), #317, 'distance_accuracy_value', 'NONE');
#366 = AXIS2_PLACEMENT_3D ( 'NONE', #283, #130, #107 ) ;
#367 = AXIS2_PLACEMENT_3D ( 'NONE', #170, #88, #32 ) ;
#368 =( NAMED_UNIT ( * ) PLANE_ANGLE_UNIT ( ) SI_UNIT ( $, .RADIAN. ) );
#369 = MANIFOLD_SOLID_BREP ( 'Revolve - Tool Body (Straight Shanked)', #186 ) ;
#370 = PRODUCT ( '59798', '59798', '', ( #159 ) ) ;
ENDSEC;
END-ISO-10303-21;
