ISO-10303-21;
HEADER;
FILE_DESCRIPTION (( 'STEP AP214' ),
    '1' );
FILE_NAME ('82467.STEP',
    '2023-06-30T22:44:22',
    ( '' ),
    ( '' ),
    'SwSTEP 2.0',
    'SolidWorks 2023',
    '' );
FILE_SCHEMA (( 'AUTOMOTIVE_DESIGN' ));
ENDSEC;

DATA;
#1 = EDGE_CURVE ( 'NONE', #341, #365, #95, .T. ) ;
#2 = STYLED_ITEM ( 'NONE', ( #328 ), #331 ) ;
#3 = CARTESIAN_POINT ( 'NONE',  ( 2.746579644623882181E-16, 2.750000000000000000, 0.000000000000000000 ) ) ;
#4 = PRODUCT_RELATED_PRODUCT_CATEGORY ( 'part', '', ( #154 ) ) ;
#5 = PRODUCT_DEFINITION_FORMATION_WITH_SPECIFIED_SOURCE ( 'ANY', '', #154, .NOT_KNOWN. ) ;
#6 = DIRECTION ( 'NONE',  ( -1.000000000000000000, 0.000000000000000000, 0.000000000000000000 ) ) ;
#7 =( LENGTH_UNIT ( ) NAMED_UNIT ( * ) SI_UNIT ( $, .METRE. ) );
#8 = SURFACE_STYLE_USAGE ( .BOTH. , #298 ) ;
#9 = FACE_OUTER_BOUND ( 'NONE', #296, .T. ) ;
#10 = CARTESIAN_POINT ( 'NONE',  ( 0.3749999999999996669, 2.750000000000000000, 4.592425496802572370E-17 ) ) ;
#11 = UNCERTAINTY_MEASURE_WITH_UNIT (LENGTH_MEASURE( 1.000000000000000082E-05 ), #304, 'distance_accuracy_value', 'NONE');
#12 = ORIENTED_EDGE ( 'NONE', *, *, #58, .T. ) ;
#13 = DIRECTION ( 'NONE',  ( -1.000000000000000000, 0.000000000000000000, 0.000000000000000000 ) ) ;
#14 = DIRECTION ( 'NONE',  ( 0.000000000000000000, 0.000000000000000000, -1.000000000000000000 ) ) ;
#15 = ORIENTED_EDGE ( 'NONE', *, *, #339, .F. ) ;
#16 =( LENGTH_UNIT ( ) NAMED_UNIT ( * ) SI_UNIT ( $, .METRE. ) );
#17 = ORIENTED_EDGE ( 'NONE', *, *, #292, .F. ) ;
#18 = DIRECTION ( 'NONE',  ( 0.000000000000000000, 0.000000000000000000, -1.000000000000000000 ) ) ;
#19 = CIRCLE ( 'NONE', #342, 0.3749999999999999445 ) ;
#20 = MANIFOLD_SOLID_BREP ( 'Revolve - Cutting Edge', #127 ) ;
#21 = LINE ( 'NONE', #205, #96 ) ;
#22 = CARTESIAN_POINT ( 'NONE',  ( 0.000000000000000000, 0.000000000000000000, 0.000000000000000000 ) ) ;
#23 = CIRCLE ( 'NONE', #241, 0.3749999999999993894 ) ;
#24 = EDGE_CURVE ( 'NONE', #45, #111, #238, .T. ) ;
#25 = STYLED_ITEM ( 'NONE', ( #40 ), #41 ) ;
#26 = FILL_AREA_STYLE ('',( #52 ) ) ;
#27 = DIMENSIONAL_EXPONENTS ( 1.000000000000000000, 0.000000000000000000, 0.000000000000000000, 0.000000000000000000, 0.000000000000000000, 0.000000000000000000, 0.000000000000000000 ) ;
#28 = PRESENTATION_STYLE_ASSIGNMENT (( #215 ) ) ;
#29 = CARTESIAN_POINT ( 'NONE',  ( 0.000000000000000000, 2.750000000000000000, -0.3749999999999996669 ) ) ;
#30 = CARTESIAN_POINT ( 'NONE',  ( -4.592425496802573602E-17, 0.3749999999999999445, 0.000000000000000000 ) ) ;
#31 = STYLED_ITEM ( 'NONE', ( #103 ), #60 ) ;
#32 = DIRECTION ( 'NONE',  ( 1.000000000000000000, 0.000000000000000000, 0.000000000000000000 ) ) ;
#33 = DIRECTION ( 'NONE',  ( -0.000000000000000000, -1.000000000000000000, -0.000000000000000000 ) ) ;
#34 = AXIS2_PLACEMENT_3D ( 'NONE', #3, #244, #70 ) ;
#35 = ORIENTED_EDGE ( 'NONE', *, *, #148, .T. ) ;
#36 = CARTESIAN_POINT ( 'NONE',  ( -1.224646799147353207E-16, 5.000000000000000000, 0.000000000000000000 ) ) ;
#37 = DIMENSIONAL_EXPONENTS ( 1.000000000000000000, 0.000000000000000000, 0.000000000000000000, 0.000000000000000000, 0.000000000000000000, 0.000000000000000000, 0.000000000000000000 ) ;
#38 = PRODUCT_DEFINITION_CONTEXT ( 'detailed design', #335, 'design' ) ;
#39 = ORIENTED_EDGE ( 'NONE', *, *, #271, .F. ) ;
#40 = PRESENTATION_STYLE_ASSIGNMENT (( #258 ) ) ;
#41 = ADVANCED_FACE ( 'NONE', ( #139 ), #168, .T. ) ;
#42 = ORIENTED_EDGE ( 'NONE', *, *, #339, .T. ) ;
#43 = FILL_AREA_STYLE ('',( #326 ) ) ;
#44 = AXIS2_PLACEMENT_3D ( 'NONE', #118, #55, #260 ) ;
#45 = VERTEX_POINT ( 'NONE', #197 ) ;
#46 = AXIS2_PLACEMENT_3D ( 'NONE', #270, #33, #216 ) ;
#47 = CARTESIAN_POINT ( 'NONE',  ( 4.592425496802574219E-17, 0.3749999999999999445, 0.3749999999999999445 ) ) ;
#48 = DIRECTION ( 'NONE',  ( 1.000000000000000000, 0.000000000000000000, 0.000000000000000000 ) ) ;
#49 = VERTEX_POINT ( 'NONE', #10 ) ;
#50 = UNCERTAINTY_MEASURE_WITH_UNIT (LENGTH_MEASURE( 1.000000000000000082E-05 ), #59, 'distance_accuracy_value', 'NONE');
#51 = DIRECTION ( 'NONE',  ( 1.000000000000000000, 1.764989530564993616E-16, 0.000000000000000000 ) ) ;
#52 = FILL_AREA_STYLE_COLOUR ( '', #92 ) ;
#53 = PRESENTATION_LAYER_ASSIGNMENT (  '', '', ( #2 ) ) ;
#54 =( GEOMETRIC_REPRESENTATION_CONTEXT ( 3 ) GLOBAL_UNCERTAINTY_ASSIGNED_CONTEXT ( ( #337 ) ) GLOBAL_UNIT_ASSIGNED_CONTEXT ( ( #119, #369, #56 ) ) REPRESENTATION_CONTEXT ( 'NONE', 'WORKASPACE' ) );
#55 = DIRECTION ( 'NONE',  ( -1.764989530564993616E-16, 1.000000000000000000, -0.000000000000000000 ) ) ;
#56 =( NAMED_UNIT ( * ) SI_UNIT ( $, .STERADIAN. ) SOLID_ANGLE_UNIT ( ) );
#57 = DIRECTION ( 'NONE',  ( -0.000000000000000000, -1.000000000000000000, -0.000000000000000000 ) ) ;
#58 = EDGE_CURVE ( 'NONE', #111, #253, #371, .T. ) ;
#59 =( CONVERSION_BASED_UNIT ( 'INCH', #213 ) LENGTH_UNIT ( ) NAMED_UNIT ( #217 ) );
#60 = ADVANCED_FACE ( 'NONE', ( #110 ), #87, .T. ) ;
#61 = DIRECTION ( 'NONE',  ( -0.000000000000000000, -1.000000000000000000, -0.000000000000000000 ) ) ;
#62 = CARTESIAN_POINT ( 'NONE',  ( 0.000000000000000000, 0.3749999999999999445, 0.000000000000000000 ) ) ;
#63 = CARTESIAN_POINT ( 'NONE',  ( 4.592425496802572370E-17, 0.000000000000000000, 0.3749999999999998335 ) ) ;
#64 = AXIS2_PLACEMENT_3D ( 'NONE', #177, #147, #18 ) ;
#65 =( NAMED_UNIT ( * ) SI_UNIT ( $, .STERADIAN. ) SOLID_ANGLE_UNIT ( ) );
#66 = FILL_AREA_STYLE_COLOUR ( '', #319 ) ;
#67 = FILL_AREA_STYLE_COLOUR ( '', #171 ) ;
#68 =( NAMED_UNIT ( * ) PLANE_ANGLE_UNIT ( ) SI_UNIT ( $, .RADIAN. ) );
#69 = AXIS2_PLACEMENT_3D ( 'NONE', #109, #77, #13 ) ;
#70 = DIRECTION ( 'NONE',  ( -1.000000000000000000, -1.764989530564993616E-16, 0.000000000000000000 ) ) ;
#71 = FILL_AREA_STYLE_COLOUR ( '', #247 ) ;
#72 = ORIENTED_EDGE ( 'NONE', *, *, #80, .T. ) ;
#73 = DIMENSIONAL_EXPONENTS ( 1.000000000000000000, 0.000000000000000000, 0.000000000000000000, 0.000000000000000000, 0.000000000000000000, 0.000000000000000000, 0.000000000000000000 ) ;
#74 = CYLINDRICAL_SURFACE ( 'NONE', #269, 0.3749999999999996114 ) ;
#75 = FILL_AREA_STYLE ('',( #252 ) ) ;
#76 = VERTEX_POINT ( 'NONE', #192 ) ;
#77 = DIRECTION ( 'NONE',  ( -1.764989530564993616E-16, 1.000000000000000000, -0.000000000000000000 ) ) ;
#78 = ORIENTED_EDGE ( 'NONE', *, *, #115, .F. ) ;
#79 = CYLINDRICAL_SURFACE ( 'NONE', #107, 0.3749999999999996114 ) ;
#80 = EDGE_CURVE ( 'NONE', #175, #330, #130, .T. ) ;
#81 =( GEOMETRIC_REPRESENTATION_CONTEXT ( 3 ) GLOBAL_UNCERTAINTY_ASSIGNED_CONTEXT ( ( #11 ) ) GLOBAL_UNIT_ASSIGNED_CONTEXT ( ( #304, #309, #264 ) ) REPRESENTATION_CONTEXT ( 'NONE', 'WORKASPACE' ) );
#82 = LENGTH_MEASURE_WITH_UNIT ( LENGTH_MEASURE( 0.02539999999999999897 ), #131 );
#83 = AXIS2_PLACEMENT_3D ( 'NONE', #189, #301, #352 ) ;
#84 = ORIENTED_EDGE ( 'NONE', *, *, #363, .T. ) ;
#85 = PRESENTATION_LAYER_ASSIGNMENT (  '', '', ( #25 ) ) ;
#86 = DIRECTION ( 'NONE',  ( -1.764989530564993616E-16, 1.000000000000000000, -0.000000000000000000 ) ) ;
#87 = SPHERICAL_SURFACE ( 'NONE', #289, 0.3749999999999999445 ) ;
#88 = ORIENTED_EDGE ( 'NONE', *, *, #1, .T. ) ;
#89 = CARTESIAN_POINT ( 'NONE',  ( 0.000000000000000000, 0.000000000000000000, 0.000000000000000000 ) ) ;
#90 =( CONVERSION_BASED_UNIT ( 'INCH', #209 ) LENGTH_UNIT ( ) NAMED_UNIT ( #27 ) );
#91 = AXIS2_PLACEMENT_3D ( 'NONE', #89, #343, #370 ) ;
#92 = COLOUR_RGB ( '',1.000000000000000000, 0.000000000000000000, 0.000000000000000000 ) ;
#93 = FACE_OUTER_BOUND ( 'NONE', #283, .T. ) ;
#94 = ADVANCED_FACE ( 'NONE', ( #144 ), #340, .T. ) ;
#95 = LINE ( 'NONE', #350, #201 ) ;
#96 = VECTOR ( 'NONE', #86, 39.37007874015748143 ) ;
#97 = PRESENTATION_LAYER_ASSIGNMENT (  '', '', ( #185 ) ) ;
#98 = APPLICATION_CONTEXT ( 'automotive_design' ) ;
#99 = LINE ( 'NONE', #63, #157 ) ;
#100 = AXIS2_PLACEMENT_3D ( 'NONE', #125, #61, #186 ) ;
#101 = ADVANCED_FACE ( 'NONE', ( #93 ), #212, .T. ) ;
#102 = DIRECTION ( 'NONE',  ( -1.764989530564993616E-16, 1.000000000000000000, -0.000000000000000000 ) ) ;
#103 = PRESENTATION_STYLE_ASSIGNMENT (( #356 ) ) ;
#104 =( LENGTH_UNIT ( ) NAMED_UNIT ( * ) SI_UNIT ( $, .METRE. ) );
#105 = FILL_AREA_STYLE ('',( #71 ) ) ;
#106 = ORIENTED_EDGE ( 'NONE', *, *, #24, .F. ) ;
#107 = AXIS2_PLACEMENT_3D ( 'NONE', #355, #161, #199 ) ;
#108 = MECHANICAL_DESIGN_GEOMETRIC_PRESENTATION_REPRESENTATION (  '', ( #185 ), #210 ) ;
#109 = CARTESIAN_POINT ( 'NONE',  ( -1.224646799147352961E-16, 5.000000000000000000, 0.000000000000000000 ) ) ;
#110 = FACE_OUTER_BOUND ( 'NONE', #338, .T. ) ;
#111 = VERTEX_POINT ( 'NONE', #291 ) ;
#112 = ORIENTED_EDGE ( 'NONE', *, *, #58, .F. ) ;
#113 =( LENGTH_UNIT ( ) NAMED_UNIT ( * ) SI_UNIT ( $, .METRE. ) );
#114 = UNCERTAINTY_MEASURE_WITH_UNIT (LENGTH_MEASURE( 1.000000000000000082E-05 ), #172, 'distance_accuracy_value', 'NONE');
#115 = EDGE_CURVE ( 'NONE', #330, #175, #191, .T. ) ;
#116 = COLOUR_RGB ( '',1.000000000000000000, 0.000000000000000000, 0.000000000000000000 ) ;
#117 = ORIENTED_EDGE ( 'NONE', *, *, #243, .T. ) ;
#118 = CARTESIAN_POINT ( 'NONE',  ( -1.224646799147352961E-16, 5.000000000000000000, 0.000000000000000000 ) ) ;
#119 =( CONVERSION_BASED_UNIT ( 'INCH', #275 ) LENGTH_UNIT ( ) NAMED_UNIT ( #249 ) );
#120 =( NAMED_UNIT ( * ) PLANE_ANGLE_UNIT ( ) SI_UNIT ( $, .RADIAN. ) );
#121 = CARTESIAN_POINT ( 'NONE',  ( -4.592425496802573602E-17, 0.3749999999999999445, 0.000000000000000000 ) ) ;
#122 = DIRECTION ( 'NONE',  ( 0.000000000000000000, 0.000000000000000000, -1.000000000000000000 ) ) ;
#123 = PRESENTATION_STYLE_ASSIGNMENT (( #266 ) ) ;
#124 = CARTESIAN_POINT ( 'NONE',  ( 0.000000000000000000, 2.750000000000000000, 0.000000000000000000 ) ) ;
#125 = CARTESIAN_POINT ( 'NONE',  ( 0.000000000000000000, 0.3749999999999999445, 0.000000000000000000 ) ) ;
#126 = MECHANICAL_DESIGN_GEOMETRIC_PRESENTATION_REPRESENTATION (  '', ( #2 ), #81 ) ;
#127 = CLOSED_SHELL ( 'NONE', ( #60, #331, #101, #94, #41 ) ) ;
#128 = PLANE ( 'NONE',  #34 ) ;
#129 =( GEOMETRIC_REPRESENTATION_CONTEXT ( 3 ) GLOBAL_UNCERTAINTY_ASSIGNED_CONTEXT ( ( #169 ) ) GLOBAL_UNIT_ASSIGNED_CONTEXT ( ( #132, #358, #272 ) ) REPRESENTATION_CONTEXT ( 'NONE', 'WORKASPACE' ) );
#130 = CIRCLE ( 'NONE', #64, 0.3749999999999996669 ) ;
#131 =( LENGTH_UNIT ( ) NAMED_UNIT ( * ) SI_UNIT ( $, .METRE. ) );
#132 =( CONVERSION_BASED_UNIT ( 'INCH', #351 ) LENGTH_UNIT ( ) NAMED_UNIT ( #245 ) );
#133 = SURFACE_SIDE_STYLE ('',( #359 ) ) ;
#134 = EDGE_LOOP ( 'NONE', ( #39, #297, #12, #35 ) ) ;
#135 = SURFACE_STYLE_FILL_AREA ( #226 ) ;
#136 = SURFACE_STYLE_FILL_AREA ( #75 ) ;
#137 = MECHANICAL_DESIGN_GEOMETRIC_PRESENTATION_REPRESENTATION (  '', ( #31 ), #54 ) ;
#138 = LINE ( 'NONE', #224, #273 ) ;
#139 = FACE_OUTER_BOUND ( 'NONE', #134, .T. ) ;
#140 = ORIENTED_EDGE ( 'NONE', *, *, #373, .F. ) ;
#141 = ORIENTED_EDGE ( 'NONE', *, *, #243, .F. ) ;
#142 = ADVANCED_BREP_SHAPE_REPRESENTATION ( '82467', ( #20, #278, #190 ), #143 ) ;
#143 =( GEOMETRIC_REPRESENTATION_CONTEXT ( 3 ) GLOBAL_UNCERTAINTY_ASSIGNED_CONTEXT ( ( #286 ) ) GLOBAL_UNIT_ASSIGNED_CONTEXT ( ( #146, #364, #284 ) ) REPRESENTATION_CONTEXT ( 'NONE', 'WORKASPACE' ) );
#144 = FACE_OUTER_BOUND ( 'NONE', #282, .T. ) ;
#145 = STYLED_ITEM ( 'NONE', ( #123 ), #101 ) ;
#146 =( CONVERSION_BASED_UNIT ( 'INCH', #235 ) LENGTH_UNIT ( ) NAMED_UNIT ( #73 ) );
#147 = DIRECTION ( 'NONE',  ( -0.000000000000000000, -1.000000000000000000, -0.000000000000000000 ) ) ;
#148 = EDGE_CURVE ( 'NONE', #253, #76, #19, .T. ) ;
#149 = CARTESIAN_POINT ( 'NONE',  ( -0.3749999999999999445, 5.000000000000000000, 0.000000000000000000 ) ) ;
#150 = DIRECTION ( 'NONE',  ( 0.000000000000000000, 0.000000000000000000, 1.000000000000000000 ) ) ;
#151 =( NAMED_UNIT ( * ) SI_UNIT ( $, .STERADIAN. ) SOLID_ANGLE_UNIT ( ) );
#152 = CIRCLE ( 'NONE', #219, 0.3749999999999999445 ) ;
#153 = AXIS2_PLACEMENT_3D ( 'NONE', #240, #346, #317 ) ;
#154 = PRODUCT ( '82467', '82467', '', ( #218 ) ) ;
#155 = DIRECTION ( 'NONE',  ( 0.000000000000000000, 1.000000000000000000, 0.000000000000000000 ) ) ;
#156 = EDGE_CURVE ( 'NONE', #330, #360, #99, .T. ) ;
#157 = VECTOR ( 'NONE', #221, 39.37007874015748143 ) ;
#158 = SHAPE_DEFINITION_REPRESENTATION ( #307, #142 ) ;
#159 = SURFACE_STYLE_FILL_AREA ( #184 ) ;
#160 = EDGE_CURVE ( 'NONE', #360, #45, #267, .T. ) ;
#161 = DIRECTION ( 'NONE',  ( -1.764989530564993616E-16, 1.000000000000000000, -0.000000000000000000 ) ) ;
#162 =( GEOMETRIC_REPRESENTATION_CONTEXT ( 3 ) GLOBAL_UNCERTAINTY_ASSIGNED_CONTEXT ( ( #281 ) ) GLOBAL_UNIT_ASSIGNED_CONTEXT ( ( #195, #68, #353 ) ) REPRESENTATION_CONTEXT ( 'NONE', 'WORKASPACE' ) );
#163 = FACE_OUTER_BOUND ( 'NONE', #324, .T. ) ;
#164 = DIRECTION ( 'NONE',  ( 1.000000000000000000, 0.000000000000000000, -1.224646799147353207E-16 ) ) ;
#165 = CARTESIAN_POINT ( 'NONE',  ( -4.592425496802573602E-17, 0.3749999999999999445, 0.000000000000000000 ) ) ;
#166 = ORIENTED_EDGE ( 'NONE', *, *, #156, .F. ) ;
#167 = DIRECTION ( 'NONE',  ( -0.000000000000000000, -1.000000000000000000, -0.000000000000000000 ) ) ;
#168 = SPHERICAL_SURFACE ( 'NONE', #325, 0.3749999999999999445 ) ;
#169 = UNCERTAINTY_MEASURE_WITH_UNIT (LENGTH_MEASURE( 1.000000000000000082E-05 ), #132, 'distance_accuracy_value', 'NONE');
#170 = ORIENTED_EDGE ( 'NONE', *, *, #1, .F. ) ;
#171 = COLOUR_RGB ( '',1.000000000000000000, 0.000000000000000000, 0.000000000000000000 ) ;
#172 =( CONVERSION_BASED_UNIT ( 'INCH', #321 ) LENGTH_UNIT ( ) NAMED_UNIT ( #187 ) );
#173 = ORIENTED_EDGE ( 'NONE', *, *, #363, .F. ) ;
#174 = EDGE_CURVE ( 'NONE', #341, #49, #303, .T. ) ;
#175 = VERTEX_POINT ( 'NONE', #29 ) ;
#176 = SURFACE_STYLE_FILL_AREA ( #26 ) ;
#177 = CARTESIAN_POINT ( 'NONE',  ( 0.000000000000000000, 2.750000000000000000, 0.000000000000000000 ) ) ;
#178 = PRESENTATION_LAYER_ASSIGNMENT (  '', '', ( #145 ) ) ;
#179 = CARTESIAN_POINT ( 'NONE',  ( 0.000000000000000000, 0.3749999999999999445, 0.000000000000000000 ) ) ;
#180 = DIRECTION ( 'NONE',  ( 1.000000000000000000, 0.000000000000000000, 0.000000000000000000 ) ) ;
#181 = CIRCLE ( 'NONE', #214, 0.3749999999999999445 ) ;
#182 =( GEOMETRIC_REPRESENTATION_CONTEXT ( 3 ) GLOBAL_UNCERTAINTY_ASSIGNED_CONTEXT ( ( #50 ) ) GLOBAL_UNIT_ASSIGNED_CONTEXT ( ( #59, #336, #65 ) ) REPRESENTATION_CONTEXT ( 'NONE', 'WORKASPACE' ) );
#183 = DIMENSIONAL_EXPONENTS ( 1.000000000000000000, 0.000000000000000000, 0.000000000000000000, 0.000000000000000000, 0.000000000000000000, 0.000000000000000000, 0.000000000000000000 ) ;
#184 = FILL_AREA_STYLE ('',( #66 ) ) ;
#185 = STYLED_ITEM ( 'NONE', ( #203 ), #94 ) ;
#186 = DIRECTION ( 'NONE',  ( 0.000000000000000000, 0.000000000000000000, -1.000000000000000000 ) ) ;
#187 = DIMENSIONAL_EXPONENTS ( 1.000000000000000000, 0.000000000000000000, 0.000000000000000000, 0.000000000000000000, 0.000000000000000000, 0.000000000000000000, 0.000000000000000000 ) ;
#188 = CARTESIAN_POINT ( 'NONE',  ( 0.3749999999999999445, 0.3749999999999999445, 0.000000000000000000 ) ) ;
#189 = CARTESIAN_POINT ( 'NONE',  ( 0.000000000000000000, 0.3749999999999999445, 0.000000000000000000 ) ) ;
#190 = AXIS2_PLACEMENT_3D ( 'NONE', #22, #150, #32 ) ;
#191 = CIRCLE ( 'NONE', #46, 0.3749999999999996669 ) ;
#192 = CARTESIAN_POINT ( 'NONE',  ( -2.296212748401286801E-17, 0.000000000000000000, 0.000000000000000000 ) ) ;
#193 = ORIENTED_EDGE ( 'NONE', *, *, #292, .T. ) ;
#194 = CARTESIAN_POINT ( 'NONE',  ( 2.746579644623882674E-16, 2.750000000000000000, 0.000000000000000000 ) ) ;
#195 =( CONVERSION_BASED_UNIT ( 'INCH', #82 ) LENGTH_UNIT ( ) NAMED_UNIT ( #183 ) );
#196 = CARTESIAN_POINT ( 'NONE',  ( -4.592425496802573602E-17, 0.3749999999999999445, 0.000000000000000000 ) ) ;
#197 = CARTESIAN_POINT ( 'NONE',  ( -0.3749999999999999445, 0.3749999999999999445, 4.592425496802572986E-17 ) ) ;
#198 = ORIENTED_EDGE ( 'NONE', *, *, #160, .F. ) ;
#199 = DIRECTION ( 'NONE',  ( -1.000000000000000000, 0.000000000000000000, 0.000000000000000000 ) ) ;
#200 =( NAMED_UNIT ( * ) SI_UNIT ( $, .STERADIAN. ) SOLID_ANGLE_UNIT ( ) );
#201 = VECTOR ( 'NONE', #102, 39.37007874015748143 ) ;
#202 = ORIENTED_EDGE ( 'NONE', *, *, #373, .T. ) ;
#203 = PRESENTATION_STYLE_ASSIGNMENT (( #367 ) ) ;
#204 = UNCERTAINTY_MEASURE_WITH_UNIT (LENGTH_MEASURE( 1.000000000000000082E-05 ), #90, 'distance_accuracy_value', 'NONE');
#205 = CARTESIAN_POINT ( 'NONE',  ( 0.3749999999999995004, 5.000000000000000000, 4.592425496802569905E-17 ) ) ;
#206 = FILL_AREA_STYLE ('',( #263 ) ) ;
#207 = CARTESIAN_POINT ( 'NONE',  ( 0.3749999999999996669, 5.000000000000000000, 4.592425496802572370E-17 ) ) ;
#208 = CIRCLE ( 'NONE', #69, 0.3749999999999998335 ) ;
#209 = LENGTH_MEASURE_WITH_UNIT ( LENGTH_MEASURE( 0.02539999999999999897 ), #372 );
#210 =( GEOMETRIC_REPRESENTATION_CONTEXT ( 3 ) GLOBAL_UNCERTAINTY_ASSIGNED_CONTEXT ( ( #204 ) ) GLOBAL_UNIT_ASSIGNED_CONTEXT ( ( #90, #120, #151 ) ) REPRESENTATION_CONTEXT ( 'NONE', 'WORKASPACE' ) );
#211 = DIRECTION ( 'NONE',  ( 1.764989530564993616E-16, -1.000000000000000000, 0.000000000000000000 ) ) ;
#212 = PLANE ( 'NONE',  #347 ) ;
#213 = LENGTH_MEASURE_WITH_UNIT ( LENGTH_MEASURE( 0.02539999999999999897 ), #113 );
#214 = AXIS2_PLACEMENT_3D ( 'NONE', #196, #300, #164 ) ;
#215 = SURFACE_STYLE_USAGE ( .BOTH. , #293 ) ;
#216 = DIRECTION ( 'NONE',  ( 0.000000000000000000, 0.000000000000000000, -1.000000000000000000 ) ) ;
#217 = DIMENSIONAL_EXPONENTS ( 1.000000000000000000, 0.000000000000000000, 0.000000000000000000, 0.000000000000000000, 0.000000000000000000, 0.000000000000000000, 0.000000000000000000 ) ;
#218 = PRODUCT_CONTEXT ( 'NONE', #98, 'mechanical' ) ;
#219 = AXIS2_PLACEMENT_3D ( 'NONE', #179, #312, #122 ) ;
#220 = MECHANICAL_DESIGN_GEOMETRIC_PRESENTATION_REPRESENTATION (  '', ( #145 ), #182 ) ;
#221 = DIRECTION ( 'NONE',  ( -0.000000000000000000, -1.000000000000000000, -0.000000000000000000 ) ) ;
#222 =( LENGTH_UNIT ( ) NAMED_UNIT ( * ) SI_UNIT ( $, .METRE. ) );
#223 = ADVANCED_FACE ( 'NONE', ( #268 ), #128, .F. ) ;
#224 = CARTESIAN_POINT ( 'NONE',  ( 0.000000000000000000, 0.000000000000000000, -0.3749999999999998335 ) ) ;
#225 = ORIENTED_EDGE ( 'NONE', *, *, #160, .T. ) ;
#226 = FILL_AREA_STYLE ('',( #67 ) ) ;
#227 =( LENGTH_UNIT ( ) NAMED_UNIT ( * ) SI_UNIT ( $, .METRE. ) );
#228 = DIRECTION ( 'NONE',  ( -1.000000000000000000, 0.000000000000000000, 0.000000000000000000 ) ) ;
#229 = EDGE_CURVE ( 'NONE', #49, #341, #23, .T. ) ;
#230 = ORIENTED_EDGE ( 'NONE', *, *, #174, .F. ) ;
#231 = PRESENTATION_STYLE_ASSIGNMENT (( #8 ) ) ;
#232 =( NAMED_UNIT ( * ) PLANE_ANGLE_UNIT ( ) SI_UNIT ( $, .RADIAN. ) );
#233 = CIRCLE ( 'NONE', #44, 0.3749999999999998335 ) ;
#234 = ORIENTED_EDGE ( 'NONE', *, *, #229, .T. ) ;
#235 = LENGTH_MEASURE_WITH_UNIT ( LENGTH_MEASURE( 0.02539999999999999897 ), #16 );
#236 = APPLICATION_PROTOCOL_DEFINITION ( 'draft international standard', 'automotive_design', 1998, #98 ) ;
#237 = SURFACE_SIDE_STYLE ('',( #288 ) ) ;
#238 = CIRCLE ( 'NONE', #290, 0.3749999999999999445 ) ;
#239 = CARTESIAN_POINT ( 'NONE',  ( -0.3749999999999991673, 2.750000000000000000, 0.000000000000000000 ) ) ;
#240 = CARTESIAN_POINT ( 'NONE',  ( 2.746579644623882674E-16, 2.750000000000000000, 0.000000000000000000 ) ) ;
#241 = AXIS2_PLACEMENT_3D ( 'NONE', #194, #361, #6 ) ;
#242 = PRESENTATION_LAYER_ASSIGNMENT (  '', '', ( #287 ) ) ;
#243 = EDGE_CURVE ( 'NONE', #365, #357, #208, .T. ) ;
#244 = DIRECTION ( 'NONE',  ( -1.764989530564993616E-16, 1.000000000000000000, 0.000000000000000000 ) ) ;
#245 = DIMENSIONAL_EXPONENTS ( 1.000000000000000000, 0.000000000000000000, 0.000000000000000000, 0.000000000000000000, 0.000000000000000000, 0.000000000000000000, 0.000000000000000000 ) ;
#246 = STYLED_ITEM ( 'NONE', ( #231 ), #278 ) ;
#247 = COLOUR_RGB ( '',1.000000000000000000, 0.000000000000000000, 0.000000000000000000 ) ;
#248 = MECHANICAL_DESIGN_GEOMETRIC_PRESENTATION_REPRESENTATION (  '', ( #25 ), #280 ) ;
#249 = DIMENSIONAL_EXPONENTS ( 1.000000000000000000, 0.000000000000000000, 0.000000000000000000, 0.000000000000000000, 0.000000000000000000, 0.000000000000000000, 0.000000000000000000 ) ;
#250 = ORIENTED_EDGE ( 'NONE', *, *, #229, .F. ) ;
#251 = DIRECTION ( 'NONE',  ( -1.764989530564993616E-16, 1.000000000000000000, -0.000000000000000000 ) ) ;
#252 = FILL_AREA_STYLE_COLOUR ( '', #116 ) ;
#253 = VERTEX_POINT ( 'NONE', #188 ) ;
#254 = ADVANCED_FACE ( 'NONE', ( #294 ), #74, .T. ) ;
#255 = AXIS2_PLACEMENT_3D ( 'NONE', #311, #57, #265 ) ;
#256 = SURFACE_STYLE_USAGE ( .BOTH. , #274 ) ;
#257 = SURFACE_STYLE_FILL_AREA ( #43 ) ;
#258 = SURFACE_STYLE_USAGE ( .BOTH. , #133 ) ;
#259 = ORIENTED_EDGE ( 'NONE', *, *, #80, .F. ) ;
#260 = DIRECTION ( 'NONE',  ( -1.000000000000000000, 0.000000000000000000, 0.000000000000000000 ) ) ;
#261 = MECHANICAL_DESIGN_GEOMETRIC_PRESENTATION_REPRESENTATION (  '', ( #246 ), #129 ) ;
#262 = MECHANICAL_DESIGN_GEOMETRIC_PRESENTATION_REPRESENTATION (  '', ( #287 ), #162 ) ;
#263 = FILL_AREA_STYLE_COLOUR ( '', #333 ) ;
#264 =( NAMED_UNIT ( * ) SI_UNIT ( $, .STERADIAN. ) SOLID_ANGLE_UNIT ( ) );
#265 = DIRECTION ( 'NONE',  ( 0.000000000000000000, 0.000000000000000000, -1.000000000000000000 ) ) ;
#266 = SURFACE_STYLE_USAGE ( .BOTH. , #285 ) ;
#267 = CIRCLE ( 'NONE', #100, 0.3749999999999999445 ) ;
#268 = FACE_OUTER_BOUND ( 'NONE', #299, .T. ) ;
#269 = AXIS2_PLACEMENT_3D ( 'NONE', #36, #251, #228 ) ;
#270 = CARTESIAN_POINT ( 'NONE',  ( 0.000000000000000000, 2.750000000000000000, 0.000000000000000000 ) ) ;
#271 = EDGE_CURVE ( 'NONE', #45, #76, #181, .T. ) ;
#272 =( NAMED_UNIT ( * ) SI_UNIT ( $, .STERADIAN. ) SOLID_ANGLE_UNIT ( ) );
#273 = VECTOR ( 'NONE', #167, 39.37007874015748143 ) ;
#274 = SURFACE_SIDE_STYLE ('',( #135 ) ) ;
#275 = LENGTH_MEASURE_WITH_UNIT ( LENGTH_MEASURE( 0.02539999999999999897 ), #227 );
#276 = CARTESIAN_POINT ( 'NONE',  ( 4.592425496802571754E-17, 2.750000000000000000, 0.3749999999999996669 ) ) ;
#277 = DIRECTION ( 'NONE',  ( 0.000000000000000000, 0.000000000000000000, 1.000000000000000000 ) ) ;
#278 = MANIFOLD_SOLID_BREP ( 'Revolve - Tool Body (Straight Shanked)', #310 ) ;
#279 = EDGE_LOOP ( 'NONE', ( #117, #42 ) ) ;
#280 =( GEOMETRIC_REPRESENTATION_CONTEXT ( 3 ) GLOBAL_UNCERTAINTY_ASSIGNED_CONTEXT ( ( #114 ) ) GLOBAL_UNIT_ASSIGNED_CONTEXT ( ( #172, #232, #200 ) ) REPRESENTATION_CONTEXT ( 'NONE', 'WORKASPACE' ) );
#281 = UNCERTAINTY_MEASURE_WITH_UNIT (LENGTH_MEASURE( 1.000000000000000082E-05 ), #195, 'distance_accuracy_value', 'NONE');
#282 = EDGE_LOOP ( 'NONE', ( #166, #354, #193, #106, #198 ) ) ;
#283 = EDGE_LOOP ( 'NONE', ( #259, #78 ) ) ;
#284 =( NAMED_UNIT ( * ) SI_UNIT ( $, .STERADIAN. ) SOLID_ANGLE_UNIT ( ) );
#285 = SURFACE_SIDE_STYLE ('',( #176 ) ) ;
#286 = UNCERTAINTY_MEASURE_WITH_UNIT (LENGTH_MEASURE( 1.000000000000000082E-05 ), #146, 'distance_accuracy_value', 'NONE');
#287 = STYLED_ITEM ( 'NONE', ( #28 ), #20 ) ;
#288 = SURFACE_STYLE_FILL_AREA ( #206 ) ;
#289 = AXIS2_PLACEMENT_3D ( 'NONE', #121, #313, #180 ) ;
#290 = AXIS2_PLACEMENT_3D ( 'NONE', #62, #323, #14 ) ;
#291 = CARTESIAN_POINT ( 'NONE',  ( 0.000000000000000000, 0.3749999999999999445, -0.3749999999999999445 ) ) ;
#292 = EDGE_CURVE ( 'NONE', #175, #111, #138, .T. ) ;
#293 = SURFACE_SIDE_STYLE ('',( #159 ) ) ;
#294 = FACE_OUTER_BOUND ( 'NONE', #362, .T. ) ;
#295 = AXIS2_PLACEMENT_3D ( 'NONE', #368, #211, #51 ) ;
#296 = EDGE_LOOP ( 'NONE', ( #72, #305, #140, #112, #17 ) ) ;
#297 = ORIENTED_EDGE ( 'NONE', *, *, #24, .T. ) ;
#298 = SURFACE_SIDE_STYLE ('',( #257 ) ) ;
#299 = EDGE_LOOP ( 'NONE', ( #230, #250 ) ) ;
#300 = DIRECTION ( 'NONE',  ( 1.224646799147353207E-16, -0.000000000000000000, 1.000000000000000000 ) ) ;
#301 = DIRECTION ( 'NONE',  ( -0.000000000000000000, -1.000000000000000000, -0.000000000000000000 ) ) ;
#302 = ORIENTED_EDGE ( 'NONE', *, *, #271, .T. ) ;
#303 = CIRCLE ( 'NONE', #153, 0.3749999999999993894 ) ;
#304 =( CONVERSION_BASED_UNIT ( 'INCH', #320 ) LENGTH_UNIT ( ) NAMED_UNIT ( #37 ) );
#305 = ORIENTED_EDGE ( 'NONE', *, *, #156, .T. ) ;
#306 = PRODUCT_DEFINITION ( 'UNKNOWN', '', #5, #38 ) ;
#307 = PRODUCT_DEFINITION_SHAPE ( 'NONE', 'NONE',  #306 ) ;
#308 = FACE_OUTER_BOUND ( 'NONE', #279, .T. ) ;
#309 =( NAMED_UNIT ( * ) PLANE_ANGLE_UNIT ( ) SI_UNIT ( $, .RADIAN. ) );
#310 = CLOSED_SHELL ( 'NONE', ( #316, #223, #254, #366 ) ) ;
#311 = CARTESIAN_POINT ( 'NONE',  ( 0.000000000000000000, 0.000000000000000000, 0.000000000000000000 ) ) ;
#312 = DIRECTION ( 'NONE',  ( -0.000000000000000000, -1.000000000000000000, -0.000000000000000000 ) ) ;
#313 = DIRECTION ( 'NONE',  ( 0.000000000000000000, 0.000000000000000000, 1.000000000000000000 ) ) ;
#314 = DIRECTION ( 'NONE',  ( -1.000000000000000000, 0.000000000000000000, 0.000000000000000000 ) ) ;
#315 = PRESENTATION_LAYER_ASSIGNMENT (  '', '', ( #31 ) ) ;
#316 = ADVANCED_FACE ( 'NONE', ( #163 ), #79, .T. ) ;
#317 = DIRECTION ( 'NONE',  ( -1.000000000000000000, 0.000000000000000000, 0.000000000000000000 ) ) ;
#318 = COLOUR_RGB ( '',0.7921568627450980005, 0.8196078431372548767, 0.9333333333333333481 ) ;
#319 = COLOUR_RGB ( '',0.7921568627450980005, 0.8196078431372548767, 0.9333333333333333481 ) ;
#320 = LENGTH_MEASURE_WITH_UNIT ( LENGTH_MEASURE( 0.02539999999999999897 ), #222 );
#321 = LENGTH_MEASURE_WITH_UNIT ( LENGTH_MEASURE( 0.02539999999999999897 ), #7 );
#322 = CYLINDRICAL_SURFACE ( 'NONE', #91, 0.3749999999999998335 ) ;
#323 = DIRECTION ( 'NONE',  ( -0.000000000000000000, -1.000000000000000000, -0.000000000000000000 ) ) ;
#324 = EDGE_LOOP ( 'NONE', ( #327, #84, #141, #170 ) ) ;
#325 = AXIS2_PLACEMENT_3D ( 'NONE', #165, #277, #48 ) ;
#326 = FILL_AREA_STYLE_COLOUR ( '', #318 ) ;
#327 = ORIENTED_EDGE ( 'NONE', *, *, #174, .T. ) ;
#328 = PRESENTATION_STYLE_ASSIGNMENT (( #256 ) ) ;
#329 = SURFACE_SIDE_STYLE ('',( #136 ) ) ;
#330 = VERTEX_POINT ( 'NONE', #276 ) ;
#331 = ADVANCED_FACE ( 'NONE', ( #9 ), #322, .T. ) ;
#332 = ORIENTED_EDGE ( 'NONE', *, *, #148, .F. ) ;
#333 = COLOUR_RGB ( '',1.000000000000000000, 0.000000000000000000, 0.000000000000000000 ) ;
#334 = PLANE ( 'NONE',  #295 ) ;
#335 = APPLICATION_CONTEXT ( 'automotive_design' ) ;
#336 =( NAMED_UNIT ( * ) PLANE_ANGLE_UNIT ( ) SI_UNIT ( $, .RADIAN. ) );
#337 = UNCERTAINTY_MEASURE_WITH_UNIT (LENGTH_MEASURE( 1.000000000000000082E-05 ), #119, 'distance_accuracy_value', 'NONE');
#338 = EDGE_LOOP ( 'NONE', ( #225, #302, #332, #202 ) ) ;
#339 = EDGE_CURVE ( 'NONE', #357, #365, #233, .T. ) ;
#340 = CYLINDRICAL_SURFACE ( 'NONE', #255, 0.3749999999999998335 ) ;
#341 = VERTEX_POINT ( 'NONE', #239 ) ;
#342 = AXIS2_PLACEMENT_3D ( 'NONE', #30, #349, #314 ) ;
#343 = DIRECTION ( 'NONE',  ( -0.000000000000000000, -1.000000000000000000, -0.000000000000000000 ) ) ;
#344 = DIRECTION ( 'NONE',  ( 0.000000000000000000, -0.000000000000000000, 1.000000000000000000 ) ) ;
#345 = PRESENTATION_LAYER_ASSIGNMENT (  '', '', ( #246 ) ) ;
#346 = DIRECTION ( 'NONE',  ( -1.764989530564993616E-16, 1.000000000000000000, -0.000000000000000000 ) ) ;
#347 = AXIS2_PLACEMENT_3D ( 'NONE', #124, #155, #344 ) ;
#348 = APPLICATION_PROTOCOL_DEFINITION ( 'draft international standard', 'automotive_design', 1998, #335 ) ;
#349 = DIRECTION ( 'NONE',  ( 0.000000000000000000, 0.000000000000000000, -1.000000000000000000 ) ) ;
#350 = CARTESIAN_POINT ( 'NONE',  ( -0.3749999999999997780, 5.000000000000000000, 0.000000000000000000 ) ) ;
#351 = LENGTH_MEASURE_WITH_UNIT ( LENGTH_MEASURE( 0.02539999999999999897 ), #104 );
#352 = DIRECTION ( 'NONE',  ( 0.000000000000000000, 0.000000000000000000, -1.000000000000000000 ) ) ;
#353 =( NAMED_UNIT ( * ) SI_UNIT ( $, .STERADIAN. ) SOLID_ANGLE_UNIT ( ) );
#354 = ORIENTED_EDGE ( 'NONE', *, *, #115, .T. ) ;
#355 = CARTESIAN_POINT ( 'NONE',  ( -1.224646799147353207E-16, 5.000000000000000000, 0.000000000000000000 ) ) ;
#356 = SURFACE_STYLE_USAGE ( .BOTH. , #329 ) ;
#357 = VERTEX_POINT ( 'NONE', #207 ) ;
#358 =( NAMED_UNIT ( * ) PLANE_ANGLE_UNIT ( ) SI_UNIT ( $, .RADIAN. ) );
#359 = SURFACE_STYLE_FILL_AREA ( #105 ) ;
#360 = VERTEX_POINT ( 'NONE', #47 ) ;
#361 = DIRECTION ( 'NONE',  ( -1.764989530564993616E-16, 1.000000000000000000, -0.000000000000000000 ) ) ;
#362 = EDGE_LOOP ( 'NONE', ( #173, #234, #88, #15 ) ) ;
#363 = EDGE_CURVE ( 'NONE', #49, #357, #21, .T. ) ;
#364 =( NAMED_UNIT ( * ) PLANE_ANGLE_UNIT ( ) SI_UNIT ( $, .RADIAN. ) );
#365 = VERTEX_POINT ( 'NONE', #149 ) ;
#366 = ADVANCED_FACE ( 'NONE', ( #308 ), #334, .F. ) ;
#367 = SURFACE_STYLE_USAGE ( .BOTH. , #237 ) ;
#368 = CARTESIAN_POINT ( 'NONE',  ( 0.3749999999999996669, 5.000000000000000000, 0.000000000000000000 ) ) ;
#369 =( NAMED_UNIT ( * ) PLANE_ANGLE_UNIT ( ) SI_UNIT ( $, .RADIAN. ) );
#370 = DIRECTION ( 'NONE',  ( 0.000000000000000000, 0.000000000000000000, -1.000000000000000000 ) ) ;
#371 = CIRCLE ( 'NONE', #83, 0.3749999999999999445 ) ;
#372 =( LENGTH_UNIT ( ) NAMED_UNIT ( * ) SI_UNIT ( $, .METRE. ) );
#373 = EDGE_CURVE ( 'NONE', #253, #360, #152, .T. ) ;
ENDSEC;
END-ISO-10303-21;
