ISO-10303-21;
HEADER;
FILE_DESCRIPTION (( 'STEP AP214' ),
    '1' );
FILE_NAME ('59449.STEP',
    '2023-06-30T22:19:18',
    ( '' ),
    ( '' ),
    'SwSTEP 2.0',
    'SolidWorks 2023',
    '' );
FILE_SCHEMA (( 'AUTOMOTIVE_DESIGN' ));
ENDSEC;

DATA;
#1 = SHAPE_DEFINITION_REPRESENTATION ( #143, #189 ) ;
#2 = VERTEX_POINT ( 'NONE', #190 ) ;
#3 = DIRECTION ( 'NONE',  ( 0.000000000000000000, 0.000000000000000000, -1.000000000000000000 ) ) ;
#4 = ORIENTED_EDGE ( 'NONE', *, *, #366, .F. ) ;
#5 = STYLED_ITEM ( 'NONE', ( #228 ), #185 ) ;
#6 = ORIENTED_EDGE ( 'NONE', *, *, #11, .T. ) ;
#7 = FILL_AREA_STYLE ('',( #345 ) ) ;
#8 = EDGE_CURVE ( 'NONE', #280, #342, #346, .T. ) ;
#9 = PRESENTATION_STYLE_ASSIGNMENT (( #64 ) ) ;
#10 = ORIENTED_EDGE ( 'NONE', *, *, #82, .T. ) ;
#11 = EDGE_CURVE ( 'NONE', #34, #145, #334, .T. ) ;
#12 = CARTESIAN_POINT ( 'NONE',  ( 0.2499999999999999722, 0.2500000000000000000, 0.000000000000000000 ) ) ;
#13 = ORIENTED_EDGE ( 'NONE', *, *, #8, .F. ) ;
#14 = UNCERTAINTY_MEASURE_WITH_UNIT (LENGTH_MEASURE( 1.000000000000000082E-05 ), #336, 'distance_accuracy_value', 'NONE');
#15 = FILL_AREA_STYLE_COLOUR ( '', #203 ) ;
#16 = CIRCLE ( 'NONE', #123, 0.2499999999999999722 ) ;
#17 = CIRCLE ( 'NONE', #179, 0.2500000000000000000 ) ;
#18 = DIRECTION ( 'NONE',  ( 0.000000000000000000, 0.000000000000000000, 1.000000000000000000 ) ) ;
#19 =( NAMED_UNIT ( * ) PLANE_ANGLE_UNIT ( ) SI_UNIT ( $, .RADIAN. ) );
#20 = ADVANCED_FACE ( 'NONE', ( #167 ), #93, .T. ) ;
#21 = UNCERTAINTY_MEASURE_WITH_UNIT (LENGTH_MEASURE( 1.000000000000000082E-05 ), #344, 'distance_accuracy_value', 'NONE');
#22 =( NAMED_UNIT ( * ) SI_UNIT ( $, .STERADIAN. ) SOLID_ANGLE_UNIT ( ) );
#23 = CARTESIAN_POINT ( 'NONE',  ( 3.061616997868382402E-17, 0.2500000000000000000, 0.2499999999999999722 ) ) ;
#24 =( CONVERSION_BASED_UNIT ( 'INCH', #159 ) LENGTH_UNIT ( ) NAMED_UNIT ( #370 ) );
#25 = ORIENTED_EDGE ( 'NONE', *, *, #247, .T. ) ;
#26 = PRODUCT_CONTEXT ( 'NONE', #58, 'mechanical' ) ;
#27 = DIRECTION ( 'NONE',  ( 0.000000000000000000, 0.000000000000000000, -1.000000000000000000 ) ) ;
#28 = EDGE_CURVE ( 'NONE', #145, #34, #296, .T. ) ;
#29 =( NAMED_UNIT ( * ) PLANE_ANGLE_UNIT ( ) SI_UNIT ( $, .RADIAN. ) );
#30 = MECHANICAL_DESIGN_GEOMETRIC_PRESENTATION_REPRESENTATION (  '', ( #195 ), #142 ) ;
#31 = ADVANCED_FACE ( 'NONE', ( #178 ), #210, .T. ) ;
#32 = ORIENTED_EDGE ( 'NONE', *, *, #247, .F. ) ;
#33 = LINE ( 'NONE', #327, #139 ) ;
#34 = VERTEX_POINT ( 'NONE', #127 ) ;
#35 = STYLED_ITEM ( 'NONE', ( #9 ), #367 ) ;
#36 = DIRECTION ( 'NONE',  ( -1.000000000000000000, 0.000000000000000000, 0.000000000000000000 ) ) ;
#37 = EDGE_LOOP ( 'NONE', ( #117, #287, #348, #223, #161 ) ) ;
#38 = SURFACE_STYLE_USAGE ( .BOTH. , #261 ) ;
#39 = EDGE_LOOP ( 'NONE', ( #13, #148 ) ) ;
#40 = DIRECTION ( 'NONE',  ( 0.000000000000000000, 1.000000000000000000, 0.000000000000000000 ) ) ;
#41 =( NAMED_UNIT ( * ) PLANE_ANGLE_UNIT ( ) SI_UNIT ( $, .RADIAN. ) );
#42 =( CONVERSION_BASED_UNIT ( 'INCH', #347 ) LENGTH_UNIT ( ) NAMED_UNIT ( #52 ) );
#43 = PRESENTATION_LAYER_ASSIGNMENT (  '', '', ( #195 ) ) ;
#44 = SURFACE_SIDE_STYLE ('',( #359 ) ) ;
#45 = FILL_AREA_STYLE ('',( #298 ) ) ;
#46 = CARTESIAN_POINT ( 'NONE',  ( -0.2500000000000000000, 0.2500000000000000000, 3.061616997868382402E-17 ) ) ;
#47 = FILL_AREA_STYLE_COLOUR ( '', #310 ) ;
#48 =( NAMED_UNIT ( * ) SI_UNIT ( $, .STERADIAN. ) SOLID_ANGLE_UNIT ( ) );
#49 = FACE_OUTER_BOUND ( 'NONE', #39, .T. ) ;
#50 = AXIS2_PLACEMENT_3D ( 'NONE', #276, #250, #279 ) ;
#51 = COLOUR_RGB ( '',0.7921568627450980005, 0.8196078431372548767, 0.9333333333333333481 ) ;
#52 = DIMENSIONAL_EXPONENTS ( 1.000000000000000000, 0.000000000000000000, 0.000000000000000000, 0.000000000000000000, 0.000000000000000000, 0.000000000000000000, 0.000000000000000000 ) ;
#53 = AXIS2_PLACEMENT_3D ( 'NONE', #215, #248, #184 ) ;
#54 = ADVANCED_FACE ( 'NONE', ( #209 ), #126, .F. ) ;
#55 = SPHERICAL_SURFACE ( 'NONE', #61, 0.2500000000000000000 ) ;
#56 = CARTESIAN_POINT ( 'NONE',  ( 0.000000000000000000, 0.000000000000000000, 0.000000000000000000 ) ) ;
#57 = ORIENTED_EDGE ( 'NONE', *, *, #181, .T. ) ;
#58 = APPLICATION_CONTEXT ( 'automotive_design' ) ;
#59 = ORIENTED_EDGE ( 'NONE', *, *, #249, .T. ) ;
#60 = ORIENTED_EDGE ( 'NONE', *, *, #238, .T. ) ;
#61 = AXIS2_PLACEMENT_3D ( 'NONE', #77, #230, #340 ) ;
#62 = FILL_AREA_STYLE ('',( #47 ) ) ;
#63 = ORIENTED_EDGE ( 'NONE', *, *, #84, .F. ) ;
#64 = SURFACE_STYLE_USAGE ( .BOTH. , #323 ) ;
#65 = CARTESIAN_POINT ( 'NONE',  ( 1.683889348827610752E-16, 1.625000000000000000, 0.000000000000000000 ) ) ;
#66 = CARTESIAN_POINT ( 'NONE',  ( 3.061616997868381785E-17, 0.000000000000000000, 0.2499999999999998890 ) ) ;
#67 = CARTESIAN_POINT ( 'NONE',  ( 0.000000000000000000, 0.2500000000000000000, 0.000000000000000000 ) ) ;
#68 = AXIS2_PLACEMENT_3D ( 'NONE', #241, #328, #302 ) ;
#69 = VECTOR ( 'NONE', #208, 39.37007874015748143 ) ;
#70 = DIRECTION ( 'NONE',  ( 0.000000000000000000, 0.000000000000000000, -1.000000000000000000 ) ) ;
#71 =( CONVERSION_BASED_UNIT ( 'INCH', #239 ) LENGTH_UNIT ( ) NAMED_UNIT ( #131 ) );
#72 = FILL_AREA_STYLE_COLOUR ( '', #371 ) ;
#73 = UNCERTAINTY_MEASURE_WITH_UNIT (LENGTH_MEASURE( 1.000000000000000082E-05 ), #71, 'distance_accuracy_value', 'NONE');
#74 = DIMENSIONAL_EXPONENTS ( 1.000000000000000000, 0.000000000000000000, 0.000000000000000000, 0.000000000000000000, 0.000000000000000000, 0.000000000000000000, 0.000000000000000000 ) ;
#75 = PLANE ( 'NONE',  #277 ) ;
#76 = PRESENTATION_STYLE_ASSIGNMENT (( #311 ) ) ;
#77 = CARTESIAN_POINT ( 'NONE',  ( -3.061616997868383018E-17, 0.2500000000000000000, 0.000000000000000000 ) ) ;
#78 = DIRECTION ( 'NONE',  ( -0.000000000000000000, -1.000000000000000000, -0.000000000000000000 ) ) ;
#79 = AXIS2_PLACEMENT_3D ( 'NONE', #97, #353, #206 ) ;
#80 = MECHANICAL_DESIGN_GEOMETRIC_PRESENTATION_REPRESENTATION (  '', ( #5 ), #224 ) ;
#81 = ORIENTED_EDGE ( 'NONE', *, *, #82, .F. ) ;
#82 = EDGE_CURVE ( 'NONE', #280, #34, #325, .T. ) ;
#83 = VERTEX_POINT ( 'NONE', #305 ) ;
#84 = EDGE_CURVE ( 'NONE', #338, #349, #16, .T. ) ;
#85 = AXIS2_PLACEMENT_3D ( 'NONE', #141, #122, #233 ) ;
#86 = CIRCLE ( 'NONE', #218, 0.2499999999999999722 ) ;
#87 = CIRCLE ( 'NONE', #104, 0.2499999999999998335 ) ;
#88 = PRESENTATION_STYLE_ASSIGNMENT (( #94 ) ) ;
#89 = EDGE_CURVE ( 'NONE', #349, #201, #86, .T. ) ;
#90 = ORIENTED_EDGE ( 'NONE', *, *, #11, .F. ) ;
#91 = CARTESIAN_POINT ( 'NONE',  ( 0.000000000000000000, 0.000000000000000000, 0.000000000000000000 ) ) ;
#92 = CARTESIAN_POINT ( 'NONE',  ( 0.000000000000000000, 0.000000000000000000, -0.2499999999999998890 ) ) ;
#93 = CYLINDRICAL_SURFACE ( 'NONE', #85, 0.2499999999999998057 ) ;
#94 = SURFACE_STYLE_USAGE ( .BOTH. , #265 ) ;
#95 = CIRCLE ( 'NONE', #297, 0.2500000000000000000 ) ;
#96 = MECHANICAL_DESIGN_GEOMETRIC_PRESENTATION_REPRESENTATION (  '', ( #35 ), #299 ) ;
#97 = CARTESIAN_POINT ( 'NONE',  ( -1.224646799147352714E-16, 4.000000000000000000, 0.000000000000000000 ) ) ;
#98 = CARTESIAN_POINT ( 'NONE',  ( 0.2499999999999998335, 1.625000000000000000, 3.061616997868381785E-17 ) ) ;
#99 = CYLINDRICAL_SURFACE ( 'NONE', #163, 0.2499999999999998890 ) ;
#100 = SURFACE_SIDE_STYLE ('',( #173 ) ) ;
#101 =( LENGTH_UNIT ( ) NAMED_UNIT ( * ) SI_UNIT ( $, .METRE. ) );
#102 = DIRECTION ( 'NONE',  ( -0.000000000000000000, -1.000000000000000000, -0.000000000000000000 ) ) ;
#103 = LINE ( 'NONE', #92, #69 ) ;
#104 = AXIS2_PLACEMENT_3D ( 'NONE', #355, #221, #27 ) ;
#105 = DIRECTION ( 'NONE',  ( -0.000000000000000000, -1.000000000000000000, -0.000000000000000000 ) ) ;
#106 = CARTESIAN_POINT ( 'NONE',  ( -0.2499999999999999167, 4.000000000000000000, 0.000000000000000000 ) ) ;
#107 = EDGE_CURVE ( 'NONE', #231, #83, #202, .T. ) ;
#108 = FILL_AREA_STYLE_COLOUR ( '', #115 ) ;
#109 = COLOUR_RGB ( '',1.000000000000000000, 0.000000000000000000, 0.000000000000000000 ) ;
#110 = DIRECTION ( 'NONE',  ( -1.000000000000000000, 0.000000000000000000, 0.000000000000000000 ) ) ;
#111 = FILL_AREA_STYLE ('',( #108 ) ) ;
#112 = EDGE_LOOP ( 'NONE', ( #254, #60, #119, #59 ) ) ;
#113 = AXIS2_PLACEMENT_3D ( 'NONE', #91, #200, #213 ) ;
#114 = ORIENTED_EDGE ( 'NONE', *, *, #8, .T. ) ;
#115 = COLOUR_RGB ( '',1.000000000000000000, 0.000000000000000000, 0.000000000000000000 ) ;
#116 = AXIS2_PLACEMENT_3D ( 'NONE', #363, #368, #308 ) ;
#117 = ORIENTED_EDGE ( 'NONE', *, *, #316, .F. ) ;
#118 =( NAMED_UNIT ( * ) PLANE_ANGLE_UNIT ( ) SI_UNIT ( $, .RADIAN. ) );
#119 = ORIENTED_EDGE ( 'NONE', *, *, #341, .T. ) ;
#120 = DIRECTION ( 'NONE',  ( -0.000000000000000000, -1.000000000000000000, -0.000000000000000000 ) ) ;
#121 = ADVANCED_FACE ( 'NONE', ( #49 ), #75, .F. ) ;
#122 = DIRECTION ( 'NONE',  ( -1.224646799147353207E-16, 1.000000000000000000, -0.000000000000000000 ) ) ;
#123 = AXIS2_PLACEMENT_3D ( 'NONE', #67, #105, #70 ) ;
#124 =( GEOMETRIC_REPRESENTATION_CONTEXT ( 3 ) GLOBAL_UNCERTAINTY_ASSIGNED_CONTEXT ( ( #242 ) ) GLOBAL_UNIT_ASSIGNED_CONTEXT ( ( #149, #118, #291 ) ) REPRESENTATION_CONTEXT ( 'NONE', 'WORKASPACE' ) );
#125 =( CONVERSION_BASED_UNIT ( 'INCH', #274 ) LENGTH_UNIT ( ) NAMED_UNIT ( #217 ) );
#126 = PLANE ( 'NONE',  #68 ) ;
#127 = CARTESIAN_POINT ( 'NONE',  ( -0.2500000000000001110, 4.000000000000000000, 0.000000000000000000 ) ) ;
#128 =( LENGTH_UNIT ( ) NAMED_UNIT ( * ) SI_UNIT ( $, .METRE. ) );
#129 = AXIS2_PLACEMENT_3D ( 'NONE', #295, #18, #330 ) ;
#130 = DIRECTION ( 'NONE',  ( -1.000000000000000000, -1.224646799147353207E-16, 0.000000000000000000 ) ) ;
#131 = DIMENSIONAL_EXPONENTS ( 1.000000000000000000, 0.000000000000000000, 0.000000000000000000, 0.000000000000000000, 0.000000000000000000, 0.000000000000000000, 0.000000000000000000 ) ;
#132 = LENGTH_MEASURE_WITH_UNIT ( LENGTH_MEASURE( 0.02539999999999999897 ), #252 );
#133 = UNCERTAINTY_MEASURE_WITH_UNIT (LENGTH_MEASURE( 1.000000000000000082E-05 ), #24, 'distance_accuracy_value', 'NONE');
#134 =( CONVERSION_BASED_UNIT ( 'INCH', #132 ) LENGTH_UNIT ( ) NAMED_UNIT ( #240 ) );
#135 =( GEOMETRIC_REPRESENTATION_CONTEXT ( 3 ) GLOBAL_UNCERTAINTY_ASSIGNED_CONTEXT ( ( #214 ) ) GLOBAL_UNIT_ASSIGNED_CONTEXT ( ( #125, #41, #147 ) ) REPRESENTATION_CONTEXT ( 'NONE', 'WORKASPACE' ) );
#136 = ORIENTED_EDGE ( 'NONE', *, *, #316, .T. ) ;
#137 = FACE_OUTER_BOUND ( 'NONE', #112, .T. ) ;
#138 = ORIENTED_EDGE ( 'NONE', *, *, #341, .F. ) ;
#139 = VECTOR ( 'NONE', #350, 39.37007874015748143 ) ;
#140 =( NAMED_UNIT ( * ) SI_UNIT ( $, .STERADIAN. ) SOLID_ANGLE_UNIT ( ) );
#141 = CARTESIAN_POINT ( 'NONE',  ( -1.224646799147352714E-16, 4.000000000000000000, 0.000000000000000000 ) ) ;
#142 =( GEOMETRIC_REPRESENTATION_CONTEXT ( 3 ) GLOBAL_UNCERTAINTY_ASSIGNED_CONTEXT ( ( #14 ) ) GLOBAL_UNIT_ASSIGNED_CONTEXT ( ( #336, #29, #222 ) ) REPRESENTATION_CONTEXT ( 'NONE', 'WORKASPACE' ) );
#143 = PRODUCT_DEFINITION_SHAPE ( 'NONE', 'NONE',  #175 ) ;
#144 =( NAMED_UNIT ( * ) PLANE_ANGLE_UNIT ( ) SI_UNIT ( $, .RADIAN. ) );
#145 = VERTEX_POINT ( 'NONE', #292 ) ;
#146 = LENGTH_MEASURE_WITH_UNIT ( LENGTH_MEASURE( 0.02539999999999999897 ), #204 );
#147 =( NAMED_UNIT ( * ) SI_UNIT ( $, .STERADIAN. ) SOLID_ANGLE_UNIT ( ) );
#148 = ORIENTED_EDGE ( 'NONE', *, *, #293, .F. ) ;
#149 =( CONVERSION_BASED_UNIT ( 'INCH', #146 ) LENGTH_UNIT ( ) NAMED_UNIT ( #155 ) );
#150 = ADVANCED_FACE ( 'NONE', ( #364 ), #212, .T. ) ;
#151 = DIRECTION ( 'NONE',  ( -1.000000000000000000, 0.000000000000000000, 0.000000000000000000 ) ) ;
#152 = AXIS2_PLACEMENT_3D ( 'NONE', #226, #312, #193 ) ;
#153 =( GEOMETRIC_REPRESENTATION_CONTEXT ( 3 ) GLOBAL_UNCERTAINTY_ASSIGNED_CONTEXT ( ( #133 ) ) GLOBAL_UNIT_ASSIGNED_CONTEXT ( ( #24, #19, #48 ) ) REPRESENTATION_CONTEXT ( 'NONE', 'WORKASPACE' ) );
#154 = CARTESIAN_POINT ( 'NONE',  ( 0.000000000000000000, 0.2500000000000000000, -0.2499999999999999722 ) ) ;
#155 = DIMENSIONAL_EXPONENTS ( 1.000000000000000000, 0.000000000000000000, 0.000000000000000000, 0.000000000000000000, 0.000000000000000000, 0.000000000000000000, 0.000000000000000000 ) ;
#156 = DIRECTION ( 'NONE',  ( 0.000000000000000000, 0.000000000000000000, -1.000000000000000000 ) ) ;
#157 = SURFACE_STYLE_FILL_AREA ( #183 ) ;
#158 = CIRCLE ( 'NONE', #229, 0.2499999999999999722 ) ;
#159 = LENGTH_MEASURE_WITH_UNIT ( LENGTH_MEASURE( 0.02539999999999999897 ), #101 );
#160 = ADVANCED_FACE ( 'NONE', ( #237 ), #99, .T. ) ;
#161 = ORIENTED_EDGE ( 'NONE', *, *, #89, .F. ) ;
#162 =( NAMED_UNIT ( * ) PLANE_ANGLE_UNIT ( ) SI_UNIT ( $, .RADIAN. ) );
#163 = AXIS2_PLACEMENT_3D ( 'NONE', #56, #78, #3 ) ;
#164 = STYLED_ITEM ( 'NONE', ( #314 ), #251 ) ;
#165 = EDGE_LOOP ( 'NONE', ( #332, #57, #290, #313 ) ) ;
#166 = CARTESIAN_POINT ( 'NONE',  ( -3.061616997868383018E-17, 0.2500000000000000000, 0.000000000000000000 ) ) ;
#167 = FACE_OUTER_BOUND ( 'NONE', #255, .T. ) ;
#168 = CIRCLE ( 'NONE', #196, 0.2499999999999999722 ) ;
#169 =( NAMED_UNIT ( * ) PLANE_ANGLE_UNIT ( ) SI_UNIT ( $, .RADIAN. ) );
#170 = ORIENTED_EDGE ( 'NONE', *, *, #28, .T. ) ;
#171 = ORIENTED_EDGE ( 'NONE', *, *, #107, .F. ) ;
#172 = STYLED_ITEM ( 'NONE', ( #354 ), #227 ) ;
#173 = SURFACE_STYLE_FILL_AREA ( #236 ) ;
#174 = ORIENTED_EDGE ( 'NONE', *, *, #288, .F. ) ;
#175 = PRODUCT_DEFINITION ( 'UNKNOWN', '', #259, #269 ) ;
#176 = SURFACE_STYLE_USAGE ( .BOTH. , #44 ) ;
#177 =( LENGTH_UNIT ( ) NAMED_UNIT ( * ) SI_UNIT ( $, .METRE. ) );
#178 = FACE_OUTER_BOUND ( 'NONE', #199, .T. ) ;
#179 = AXIS2_PLACEMENT_3D ( 'NONE', #309, #282, #110 ) ;
#180 = LINE ( 'NONE', #66, #268 ) ;
#181 = EDGE_CURVE ( 'NONE', #201, #2, #95, .T. ) ;
#182 = FILL_AREA_STYLE_COLOUR ( '', #267 ) ;
#183 = FILL_AREA_STYLE ('',( #72 ) ) ;
#184 = DIRECTION ( 'NONE',  ( -1.000000000000000000, 0.000000000000000000, 0.000000000000000000 ) ) ;
#185 = ADVANCED_FACE ( 'NONE', ( #137 ), #55, .T. ) ;
#186 = STYLED_ITEM ( 'NONE', ( #357 ), #150 ) ;
#187 = DIMENSIONAL_EXPONENTS ( 1.000000000000000000, 0.000000000000000000, 0.000000000000000000, 0.000000000000000000, 0.000000000000000000, 0.000000000000000000, 0.000000000000000000 ) ;
#188 = ADVANCED_FACE ( 'NONE', ( #191 ), #284, .T. ) ;
#189 = ADVANCED_BREP_SHAPE_REPRESENTATION ( '59449', ( #251, #367, #116 ), #352 ) ;
#190 = CARTESIAN_POINT ( 'NONE',  ( -1.530808498934191509E-17, 0.000000000000000000, 0.000000000000000000 ) ) ;
#191 = FACE_OUTER_BOUND ( 'NONE', #324, .T. ) ;
#192 = SURFACE_STYLE_FILL_AREA ( #111 ) ;
#193 = DIRECTION ( 'NONE',  ( -1.000000000000000000, 0.000000000000000000, 0.000000000000000000 ) ) ;
#194 = SURFACE_STYLE_USAGE ( .BOTH. , #198 ) ;
#195 = STYLED_ITEM ( 'NONE', ( #76 ), #160 ) ;
#196 = AXIS2_PLACEMENT_3D ( 'NONE', #361, #102, #320 ) ;
#197 = CARTESIAN_POINT ( 'NONE',  ( 0.000000000000000000, 1.625000000000000000, 0.000000000000000000 ) ) ;
#198 = SURFACE_SIDE_STYLE ('',( #272 ) ) ;
#199 = EDGE_LOOP ( 'NONE', ( #114, #318, #90, #81 ) ) ;
#200 = DIRECTION ( 'NONE',  ( -0.000000000000000000, -1.000000000000000000, -0.000000000000000000 ) ) ;
#201 = VERTEX_POINT ( 'NONE', #46 ) ;
#202 = CIRCLE ( 'NONE', #50, 0.2499999999999998335 ) ;
#203 = COLOUR_RGB ( '',1.000000000000000000, 0.000000000000000000, 0.000000000000000000 ) ;
#204 =( LENGTH_UNIT ( ) NAMED_UNIT ( * ) SI_UNIT ( $, .METRE. ) );
#205 = DIRECTION ( 'NONE',  ( -1.224646799147353207E-16, 1.000000000000000000, -0.000000000000000000 ) ) ;
#206 = DIRECTION ( 'NONE',  ( -1.000000000000000000, 0.000000000000000000, 0.000000000000000000 ) ) ;
#207 = SURFACE_STYLE_USAGE ( .BOTH. , #100 ) ;
#208 = DIRECTION ( 'NONE',  ( -0.000000000000000000, -1.000000000000000000, -0.000000000000000000 ) ) ;
#209 = FACE_OUTER_BOUND ( 'NONE', #283, .T. ) ;
#210 = CYLINDRICAL_SURFACE ( 'NONE', #53, 0.2499999999999998057 ) ;
#211 = PRESENTATION_LAYER_ASSIGNMENT (  '', '', ( #5 ) ) ;
#212 = SPHERICAL_SURFACE ( 'NONE', #129, 0.2500000000000000000 ) ;
#213 = DIRECTION ( 'NONE',  ( 0.000000000000000000, 0.000000000000000000, -1.000000000000000000 ) ) ;
#214 = UNCERTAINTY_MEASURE_WITH_UNIT (LENGTH_MEASURE( 1.000000000000000082E-05 ), #125, 'distance_accuracy_value', 'NONE');
#215 = CARTESIAN_POINT ( 'NONE',  ( -1.224646799147352714E-16, 4.000000000000000000, 0.000000000000000000 ) ) ;
#216 = DIRECTION ( 'NONE',  ( -1.224646799147353207E-16, 1.000000000000000000, -0.000000000000000000 ) ) ;
#217 = DIMENSIONAL_EXPONENTS ( 1.000000000000000000, 0.000000000000000000, 0.000000000000000000, 0.000000000000000000, 0.000000000000000000, 0.000000000000000000, 0.000000000000000000 ) ;
#218 = AXIS2_PLACEMENT_3D ( 'NONE', #244, #331, #156 ) ;
#219 =( NAMED_UNIT ( * ) SI_UNIT ( $, .STERADIAN. ) SOLID_ANGLE_UNIT ( ) );
#220 = MECHANICAL_DESIGN_GEOMETRIC_PRESENTATION_REPRESENTATION (  '', ( #329 ), #124 ) ;
#221 = DIRECTION ( 'NONE',  ( -0.000000000000000000, -1.000000000000000000, -0.000000000000000000 ) ) ;
#222 =( NAMED_UNIT ( * ) SI_UNIT ( $, .STERADIAN. ) SOLID_ANGLE_UNIT ( ) );
#223 = ORIENTED_EDGE ( 'NONE', *, *, #238, .F. ) ;
#224 =( GEOMETRIC_REPRESENTATION_CONTEXT ( 3 ) GLOBAL_UNCERTAINTY_ASSIGNED_CONTEXT ( ( #21 ) ) GLOBAL_UNIT_ASSIGNED_CONTEXT ( ( #344, #169, #140 ) ) REPRESENTATION_CONTEXT ( 'NONE', 'WORKASPACE' ) );
#225 = PRESENTATION_LAYER_ASSIGNMENT (  '', '', ( #172 ) ) ;
#226 = CARTESIAN_POINT ( 'NONE',  ( -1.224646799147352714E-16, 4.000000000000000000, 0.000000000000000000 ) ) ;
#227 = ADVANCED_FACE ( 'NONE', ( #273 ), #262, .T. ) ;
#228 = PRESENTATION_STYLE_ASSIGNMENT (( #38 ) ) ;
#229 = AXIS2_PLACEMENT_3D ( 'NONE', #270, #120, #232 ) ;
#230 = DIRECTION ( 'NONE',  ( 0.000000000000000000, 0.000000000000000000, 1.000000000000000000 ) ) ;
#231 = VERTEX_POINT ( 'NONE', #246 ) ;
#232 = DIRECTION ( 'NONE',  ( 0.000000000000000000, 0.000000000000000000, -1.000000000000000000 ) ) ;
#233 = DIRECTION ( 'NONE',  ( -1.000000000000000000, 0.000000000000000000, 0.000000000000000000 ) ) ;
#234 = CLOSED_SHELL ( 'NONE', ( #150, #160, #188, #227, #185 ) ) ;
#235 = AXIS2_PLACEMENT_3D ( 'NONE', #266, #205, #151 ) ;
#236 = FILL_AREA_STYLE ('',( #15 ) ) ;
#237 = FACE_OUTER_BOUND ( 'NONE', #322, .T. ) ;
#238 = EDGE_CURVE ( 'NONE', #201, #260, #168, .T. ) ;
#239 = LENGTH_MEASURE_WITH_UNIT ( LENGTH_MEASURE( 0.02539999999999999897 ), #128 );
#240 = DIMENSIONAL_EXPONENTS ( 1.000000000000000000, 0.000000000000000000, 0.000000000000000000, 0.000000000000000000, 0.000000000000000000, 0.000000000000000000, 0.000000000000000000 ) ;
#241 = CARTESIAN_POINT ( 'NONE',  ( 0.2499999999999998335, 4.000000000000000000, 0.000000000000000000 ) ) ;
#242 = UNCERTAINTY_MEASURE_WITH_UNIT (LENGTH_MEASURE( 1.000000000000000082E-05 ), #149, 'distance_accuracy_value', 'NONE');
#243 =( LENGTH_UNIT ( ) NAMED_UNIT ( * ) SI_UNIT ( $, .METRE. ) );
#244 = CARTESIAN_POINT ( 'NONE',  ( 0.000000000000000000, 0.2500000000000000000, 0.000000000000000000 ) ) ;
#245 = CLOSED_SHELL ( 'NONE', ( #31, #121, #20, #54 ) ) ;
#246 = CARTESIAN_POINT ( 'NONE',  ( 3.061616997868381785E-17, 1.625000000000000000, 0.2499999999999998335 ) ) ;
#247 = EDGE_CURVE ( 'NONE', #83, #231, #87, .T. ) ;
#248 = DIRECTION ( 'NONE',  ( -1.224646799147353207E-16, 1.000000000000000000, -0.000000000000000000 ) ) ;
#249 = EDGE_CURVE ( 'NONE', #338, #2, #17, .T. ) ;
#250 = DIRECTION ( 'NONE',  ( -0.000000000000000000, -1.000000000000000000, -0.000000000000000000 ) ) ;
#251 = MANIFOLD_SOLID_BREP ( 'Revolve - Cutting Edge', #234 ) ;
#252 =( LENGTH_UNIT ( ) NAMED_UNIT ( * ) SI_UNIT ( $, .METRE. ) );
#253 =( LENGTH_UNIT ( ) NAMED_UNIT ( * ) SI_UNIT ( $, .METRE. ) );
#254 = ORIENTED_EDGE ( 'NONE', *, *, #181, .F. ) ;
#255 = EDGE_LOOP ( 'NONE', ( #174, #263, #10, #365 ) ) ;
#256 = PRESENTATION_LAYER_ASSIGNMENT (  '', '', ( #35 ) ) ;
#257 = LENGTH_MEASURE_WITH_UNIT ( LENGTH_MEASURE( 0.02539999999999999897 ), #253 );
#258 = VECTOR ( 'NONE', #216, 39.37007874015748143 ) ;
#259 = PRODUCT_DEFINITION_FORMATION_WITH_SPECIFIED_SOURCE ( 'ANY', '', #343, .NOT_KNOWN. ) ;
#260 = VERTEX_POINT ( 'NONE', #154 ) ;
#261 = SURFACE_SIDE_STYLE ('',( #192 ) ) ;
#262 = CYLINDRICAL_SURFACE ( 'NONE', #113, 0.2499999999999998890 ) ;
#263 = ORIENTED_EDGE ( 'NONE', *, *, #293, .T. ) ;
#264 = CARTESIAN_POINT ( 'NONE',  ( 1.683889348827610999E-16, 1.625000000000000000, 0.000000000000000000 ) ) ;
#265 = SURFACE_SIDE_STYLE ('',( #326 ) ) ;
#266 = CARTESIAN_POINT ( 'NONE',  ( 1.683889348827610999E-16, 1.625000000000000000, 0.000000000000000000 ) ) ;
#267 = COLOUR_RGB ( '',1.000000000000000000, 0.000000000000000000, 0.000000000000000000 ) ;
#268 = VECTOR ( 'NONE', #301, 39.37007874015748143 ) ;
#269 = PRODUCT_DEFINITION_CONTEXT ( 'detailed design', #317, 'design' ) ;
#270 = CARTESIAN_POINT ( 'NONE',  ( 0.000000000000000000, 0.2500000000000000000, 0.000000000000000000 ) ) ;
#271 = DIRECTION ( 'NONE',  ( -1.224646799147353207E-16, 1.000000000000000000, 0.000000000000000000 ) ) ;
#272 = SURFACE_STYLE_FILL_AREA ( #45 ) ;
#273 = FACE_OUTER_BOUND ( 'NONE', #37, .T. ) ;
#274 = LENGTH_MEASURE_WITH_UNIT ( LENGTH_MEASURE( 0.02539999999999999897 ), #243 );
#275 = APPLICATION_PROTOCOL_DEFINITION ( 'draft international standard', 'automotive_design', 1998, #58 ) ;
#276 = CARTESIAN_POINT ( 'NONE',  ( 0.000000000000000000, 1.625000000000000000, 0.000000000000000000 ) ) ;
#277 = AXIS2_PLACEMENT_3D ( 'NONE', #65, #271, #130 ) ;
#278 = PRODUCT_RELATED_PRODUCT_CATEGORY ( 'part', '', ( #343 ) ) ;
#279 = DIRECTION ( 'NONE',  ( 0.000000000000000000, 0.000000000000000000, -1.000000000000000000 ) ) ;
#280 = VERTEX_POINT ( 'NONE', #294 ) ;
#281 = DIRECTION ( 'NONE',  ( 1.224646799147353207E-16, -0.000000000000000000, 1.000000000000000000 ) ) ;
#282 = DIRECTION ( 'NONE',  ( 0.000000000000000000, 0.000000000000000000, -1.000000000000000000 ) ) ;
#283 = EDGE_LOOP ( 'NONE', ( #6, #170 ) ) ;
#284 = PLANE ( 'NONE',  #360 ) ;
#285 = LENGTH_MEASURE_WITH_UNIT ( LENGTH_MEASURE( 0.02539999999999999897 ), #337 );
#286 = AXIS2_PLACEMENT_3D ( 'NONE', #264, #289, #36 ) ;
#287 = ORIENTED_EDGE ( 'NONE', *, *, #107, .T. ) ;
#288 = EDGE_CURVE ( 'NONE', #342, #145, #33, .T. ) ;
#289 = DIRECTION ( 'NONE',  ( -1.224646799147353207E-16, 1.000000000000000000, -0.000000000000000000 ) ) ;
#290 = ORIENTED_EDGE ( 'NONE', *, *, #249, .F. ) ;
#291 =( NAMED_UNIT ( * ) SI_UNIT ( $, .STERADIAN. ) SOLID_ANGLE_UNIT ( ) );
#292 = CARTESIAN_POINT ( 'NONE',  ( 0.2499999999999998335, 4.000000000000000000, 3.061616997868381785E-17 ) ) ;
#293 = EDGE_CURVE ( 'NONE', #342, #280, #339, .T. ) ;
#294 = CARTESIAN_POINT ( 'NONE',  ( -0.2499999999999994726, 1.625000000000000000, 0.000000000000000000 ) ) ;
#295 = CARTESIAN_POINT ( 'NONE',  ( -3.061616997868383018E-17, 0.2500000000000000000, 0.000000000000000000 ) ) ;
#296 = CIRCLE ( 'NONE', #79, 0.2499999999999999722 ) ;
#297 = AXIS2_PLACEMENT_3D ( 'NONE', #166, #281, #369 ) ;
#298 = FILL_AREA_STYLE_COLOUR ( '', #51 ) ;
#299 =( GEOMETRIC_REPRESENTATION_CONTEXT ( 3 ) GLOBAL_UNCERTAINTY_ASSIGNED_CONTEXT ( ( #73 ) ) GLOBAL_UNIT_ASSIGNED_CONTEXT ( ( #71, #144, #219 ) ) REPRESENTATION_CONTEXT ( 'NONE', 'WORKASPACE' ) );
#300 = DIRECTION ( 'NONE',  ( 0.000000000000000000, -0.000000000000000000, 1.000000000000000000 ) ) ;
#301 = DIRECTION ( 'NONE',  ( -0.000000000000000000, -1.000000000000000000, -0.000000000000000000 ) ) ;
#302 = DIRECTION ( 'NONE',  ( 1.000000000000000000, 1.224646799147353207E-16, 0.000000000000000000 ) ) ;
#303 = UNCERTAINTY_MEASURE_WITH_UNIT (LENGTH_MEASURE( 1.000000000000000082E-05 ), #134, 'distance_accuracy_value', 'NONE');
#304 = APPLICATION_PROTOCOL_DEFINITION ( 'draft international standard', 'automotive_design', 1998, #317 ) ;
#305 = CARTESIAN_POINT ( 'NONE',  ( 0.000000000000000000, 1.625000000000000000, -0.2499999999999998335 ) ) ;
#306 = MECHANICAL_DESIGN_GEOMETRIC_PRESENTATION_REPRESENTATION (  '', ( #186 ), #153 ) ;
#307 = PRESENTATION_LAYER_ASSIGNMENT (  '', '', ( #329 ) ) ;
#308 = DIRECTION ( 'NONE',  ( 1.000000000000000000, 0.000000000000000000, 0.000000000000000000 ) ) ;
#309 = CARTESIAN_POINT ( 'NONE',  ( -3.061616997868383018E-17, 0.2500000000000000000, 0.000000000000000000 ) ) ;
#310 = COLOUR_RGB ( '',0.7921568627450980005, 0.8196078431372548767, 0.9333333333333333481 ) ;
#311 = SURFACE_STYLE_USAGE ( .BOTH. , #373 ) ;
#312 = DIRECTION ( 'NONE',  ( -1.224646799147353207E-16, 1.000000000000000000, -0.000000000000000000 ) ) ;
#313 = ORIENTED_EDGE ( 'NONE', *, *, #84, .T. ) ;
#314 = PRESENTATION_STYLE_ASSIGNMENT (( #194 ) ) ;
#315 = MECHANICAL_DESIGN_GEOMETRIC_PRESENTATION_REPRESENTATION (  '', ( #164 ), #135 ) ;
#316 = EDGE_CURVE ( 'NONE', #231, #349, #180, .T. ) ;
#317 = APPLICATION_CONTEXT ( 'automotive_design' ) ;
#318 = ORIENTED_EDGE ( 'NONE', *, *, #288, .T. ) ;
#319 =( NAMED_UNIT ( * ) PLANE_ANGLE_UNIT ( ) SI_UNIT ( $, .RADIAN. ) );
#320 = DIRECTION ( 'NONE',  ( 0.000000000000000000, 0.000000000000000000, -1.000000000000000000 ) ) ;
#321 = PRESENTATION_LAYER_ASSIGNMENT (  '', '', ( #164 ) ) ;
#322 = EDGE_LOOP ( 'NONE', ( #25, #136, #63, #138, #4 ) ) ;
#323 = SURFACE_SIDE_STYLE ('',( #356 ) ) ;
#324 = EDGE_LOOP ( 'NONE', ( #32, #171 ) ) ;
#325 = LINE ( 'NONE', #106, #258 ) ;
#326 = SURFACE_STYLE_FILL_AREA ( #7 ) ;
#327 = CARTESIAN_POINT ( 'NONE',  ( 0.2499999999999996669, 4.000000000000000000, 3.061616997868380553E-17 ) ) ;
#328 = DIRECTION ( 'NONE',  ( 1.224646799147353207E-16, -1.000000000000000000, 0.000000000000000000 ) ) ;
#329 = STYLED_ITEM ( 'NONE', ( #88 ), #188 ) ;
#330 = DIRECTION ( 'NONE',  ( 1.000000000000000000, 0.000000000000000000, 0.000000000000000000 ) ) ;
#331 = DIRECTION ( 'NONE',  ( -0.000000000000000000, -1.000000000000000000, -0.000000000000000000 ) ) ;
#332 = ORIENTED_EDGE ( 'NONE', *, *, #89, .T. ) ;
#333 =( NAMED_UNIT ( * ) SI_UNIT ( $, .STERADIAN. ) SOLID_ANGLE_UNIT ( ) );
#334 = CIRCLE ( 'NONE', #152, 0.2499999999999999722 ) ;
#335 = MECHANICAL_DESIGN_GEOMETRIC_PRESENTATION_REPRESENTATION (  '', ( #172 ), #372 ) ;
#336 =( CONVERSION_BASED_UNIT ( 'INCH', #285 ) LENGTH_UNIT ( ) NAMED_UNIT ( #187 ) );
#337 =( LENGTH_UNIT ( ) NAMED_UNIT ( * ) SI_UNIT ( $, .METRE. ) );
#338 = VERTEX_POINT ( 'NONE', #12 ) ;
#339 = CIRCLE ( 'NONE', #235, 0.2499999999999996669 ) ;
#340 = DIRECTION ( 'NONE',  ( 1.000000000000000000, 0.000000000000000000, 0.000000000000000000 ) ) ;
#341 = EDGE_CURVE ( 'NONE', #260, #338, #158, .T. ) ;
#342 = VERTEX_POINT ( 'NONE', #98 ) ;
#343 = PRODUCT ( '59449', '59449', '', ( #26 ) ) ;
#344 =( CONVERSION_BASED_UNIT ( 'INCH', #257 ) LENGTH_UNIT ( ) NAMED_UNIT ( #74 ) );
#345 = FILL_AREA_STYLE_COLOUR ( '', #109 ) ;
#346 = CIRCLE ( 'NONE', #286, 0.2499999999999996669 ) ;
#347 = LENGTH_MEASURE_WITH_UNIT ( LENGTH_MEASURE( 0.02539999999999999897 ), #177 );
#348 = ORIENTED_EDGE ( 'NONE', *, *, #366, .T. ) ;
#349 = VERTEX_POINT ( 'NONE', #23 ) ;
#350 = DIRECTION ( 'NONE',  ( -1.224646799147353207E-16, 1.000000000000000000, -0.000000000000000000 ) ) ;
#351 = PRESENTATION_LAYER_ASSIGNMENT (  '', '', ( #186 ) ) ;
#352 =( GEOMETRIC_REPRESENTATION_CONTEXT ( 3 ) GLOBAL_UNCERTAINTY_ASSIGNED_CONTEXT ( ( #303 ) ) GLOBAL_UNIT_ASSIGNED_CONTEXT ( ( #134, #162, #333 ) ) REPRESENTATION_CONTEXT ( 'NONE', 'WORKASPACE' ) );
#353 = DIRECTION ( 'NONE',  ( -1.224646799147353207E-16, 1.000000000000000000, -0.000000000000000000 ) ) ;
#354 = PRESENTATION_STYLE_ASSIGNMENT (( #207 ) ) ;
#355 = CARTESIAN_POINT ( 'NONE',  ( 0.000000000000000000, 1.625000000000000000, 0.000000000000000000 ) ) ;
#356 = SURFACE_STYLE_FILL_AREA ( #62 ) ;
#357 = PRESENTATION_STYLE_ASSIGNMENT (( #176 ) ) ;
#358 = FILL_AREA_STYLE ('',( #182 ) ) ;
#359 = SURFACE_STYLE_FILL_AREA ( #358 ) ;
#360 = AXIS2_PLACEMENT_3D ( 'NONE', #197, #40, #300 ) ;
#361 = CARTESIAN_POINT ( 'NONE',  ( 0.000000000000000000, 0.2500000000000000000, 0.000000000000000000 ) ) ;
#362 = UNCERTAINTY_MEASURE_WITH_UNIT (LENGTH_MEASURE( 1.000000000000000082E-05 ), #42, 'distance_accuracy_value', 'NONE');
#363 = CARTESIAN_POINT ( 'NONE',  ( 0.000000000000000000, 0.000000000000000000, 0.000000000000000000 ) ) ;
#364 = FACE_OUTER_BOUND ( 'NONE', #165, .T. ) ;
#365 = ORIENTED_EDGE ( 'NONE', *, *, #28, .F. ) ;
#366 = EDGE_CURVE ( 'NONE', #83, #260, #103, .T. ) ;
#367 = MANIFOLD_SOLID_BREP ( 'Revolve - Tool Body (Straight Shanked)', #245 ) ;
#368 = DIRECTION ( 'NONE',  ( 0.000000000000000000, 0.000000000000000000, 1.000000000000000000 ) ) ;
#369 = DIRECTION ( 'NONE',  ( 1.000000000000000000, 0.000000000000000000, -1.224646799147353207E-16 ) ) ;
#370 = DIMENSIONAL_EXPONENTS ( 1.000000000000000000, 0.000000000000000000, 0.000000000000000000, 0.000000000000000000, 0.000000000000000000, 0.000000000000000000, 0.000000000000000000 ) ;
#371 = COLOUR_RGB ( '',1.000000000000000000, 0.000000000000000000, 0.000000000000000000 ) ;
#372 =( GEOMETRIC_REPRESENTATION_CONTEXT ( 3 ) GLOBAL_UNCERTAINTY_ASSIGNED_CONTEXT ( ( #362 ) ) GLOBAL_UNIT_ASSIGNED_CONTEXT ( ( #42, #319, #22 ) ) REPRESENTATION_CONTEXT ( 'NONE', 'WORKASPACE' ) );
#373 = SURFACE_SIDE_STYLE ('',( #157 ) ) ;
ENDSEC;
END-ISO-10303-21;
