ISO-10303-21;
HEADER;
FILE_DESCRIPTION (( 'STEP AP214' ),
    '1' );
FILE_NAME ('01570.STEP',
    '2023-06-22T14:37:11',
    ( '' ),
    ( '' ),
    'SwSTEP 2.0',
    'SolidWorks 2023',
    '' );
FILE_SCHEMA (( 'AUTOMOTIVE_DESIGN' ));
ENDSEC;

DATA;
#1 = EDGE_CURVE ( 'NONE', #147, #288, #149, .T. ) ;
#2 = AXIS2_PLACEMENT_3D ( 'NONE', #243, #47, #71 ) ;
#3 =( NAMED_UNIT ( * ) SI_UNIT ( $, .STERADIAN. ) SOLID_ANGLE_UNIT ( ) );
#4 = CLOSED_SHELL ( 'NONE', ( #37, #28, #83, #294 ) ) ;
#5 = SURFACE_STYLE_FILL_AREA ( #32 ) ;
#6 = CARTESIAN_POINT ( 'NONE',  ( -0.3125000000000000000, 1.625000000000000000, 0.000000000000000000 ) ) ;
#7 = DIRECTION ( 'NONE',  ( 0.000000000000000000, 0.000000000000000000, -1.000000000000000000 ) ) ;
#8 = DIRECTION ( 'NONE',  ( -1.000000000000000000, -3.265724797726272713E-17, 0.000000000000000000 ) ) ;
#9 = APPLICATION_PROTOCOL_DEFINITION ( 'draft international standard', 'automotive_design', 1998, #124 ) ;
#10 = VECTOR ( 'NONE', #89, 39.37007874015748143 ) ;
#11 = CARTESIAN_POINT ( 'NONE',  ( 3.827021247335478926E-17, 0.000000000000000000, 0.3125000000000000000 ) ) ;
#12 = LENGTH_MEASURE_WITH_UNIT ( LENGTH_MEASURE( 0.02539999999999999897 ), #86 );
#13 = UNCERTAINTY_MEASURE_WITH_UNIT (LENGTH_MEASURE( 1.000000000000000082E-05 ), #237, 'distance_accuracy_value', 'NONE');
#14 = CARTESIAN_POINT ( 'NONE',  ( 0.3124999999999999445, 3.500000000000000000, 3.827021247335478926E-17 ) ) ;
#15 = FACE_OUTER_BOUND ( 'NONE', #308, .T. ) ;
#16 = EDGE_CURVE ( 'NONE', #250, #135, #49, .T. ) ;
#17 = EDGE_LOOP ( 'NONE', ( #95, #18, #75, #236 ) ) ;
#18 = ORIENTED_EDGE ( 'NONE', *, *, #278, .T. ) ;
#19 = FILL_AREA_STYLE ('',( #63 ) ) ;
#20 = CIRCLE ( 'NONE', #128, 0.3125000000000000000 ) ;
#21 = ORIENTED_EDGE ( 'NONE', *, *, #187, .F. ) ;
#22 = DIMENSIONAL_EXPONENTS ( 1.000000000000000000, 0.000000000000000000, 0.000000000000000000, 0.000000000000000000, 0.000000000000000000, 0.000000000000000000, 0.000000000000000000 ) ;
#23 = PRESENTATION_STYLE_ASSIGNMENT (( #66 ) ) ;
#24 = LENGTH_MEASURE_WITH_UNIT ( LENGTH_MEASURE( 0.02539999999999999897 ), #240 );
#25 = AXIS2_PLACEMENT_3D ( 'NONE', #292, #101, #268 ) ;
#26 = STYLED_ITEM ( 'NONE', ( #208 ), #294 ) ;
#27 = FILL_AREA_STYLE_COLOUR ( '', #64 ) ;
#28 = ADVANCED_FACE ( 'NONE', ( #170 ), #242, .T. ) ;
#29 = CARTESIAN_POINT ( 'NONE',  ( 7.582401355855259480E-33, 1.625000000000000000, 0.000000000000000000 ) ) ;
#30 = MECHANICAL_DESIGN_GEOMETRIC_PRESENTATION_REPRESENTATION (  '', ( #148 ), #261 ) ;
#31 =( LENGTH_UNIT ( ) NAMED_UNIT ( * ) SI_UNIT ( $, .METRE. ) );
#32 = FILL_AREA_STYLE ('',( #50 ) ) ;
#33 =( NAMED_UNIT ( * ) PLANE_ANGLE_UNIT ( ) SI_UNIT ( $, .RADIAN. ) );
#34 = CARTESIAN_POINT ( 'NONE',  ( 0.3125000000000000000, 1.625000000000000000, 3.827021247335478926E-17 ) ) ;
#35 = STYLED_ITEM ( 'NONE', ( #137 ), #275 ) ;
#36 = FILL_AREA_STYLE_COLOUR ( '', #306 ) ;
#37 = ADVANCED_FACE ( 'NONE', ( #196 ), #105, .T. ) ;
#38 = SHAPE_DEFINITION_REPRESENTATION ( #229, #116 ) ;
#39 = AXIS2_PLACEMENT_3D ( 'NONE', #279, #156, #115 ) ;
#40 = SURFACE_STYLE_USAGE ( .BOTH. , #257 ) ;
#41 = VERTEX_POINT ( 'NONE', #267 ) ;
#42 =( LENGTH_UNIT ( ) NAMED_UNIT ( * ) SI_UNIT ( $, .METRE. ) );
#43 = ORIENTED_EDGE ( 'NONE', *, *, #169, .T. ) ;
#44 = VECTOR ( 'NONE', #118, 39.37007874015748143 ) ;
#45 =( NAMED_UNIT ( * ) SI_UNIT ( $, .STERADIAN. ) SOLID_ANGLE_UNIT ( ) );
#46 = SURFACE_SIDE_STYLE ('',( #264 ) ) ;
#47 = DIRECTION ( 'NONE',  ( -3.265724797726272713E-17, 1.000000000000000000, -0.000000000000000000 ) ) ;
#48 = EDGE_CURVE ( 'NONE', #135, #250, #161, .T. ) ;
#49 = CIRCLE ( 'NONE', #2, 0.3125000000000000000 ) ;
#50 = FILL_AREA_STYLE_COLOUR ( '', #200 ) ;
#51 = STYLED_ITEM ( 'NONE', ( #106 ), #83 ) ;
#52 = AXIS2_PLACEMENT_3D ( 'NONE', #164, #225, #231 ) ;
#53 =( NAMED_UNIT ( * ) SI_UNIT ( $, .STERADIAN. ) SOLID_ANGLE_UNIT ( ) );
#54 =( LENGTH_UNIT ( ) NAMED_UNIT ( * ) SI_UNIT ( $, .METRE. ) );
#55 = CARTESIAN_POINT ( 'NONE',  ( 0.000000000000000000, 0.000000000000000000, 0.000000000000000000 ) ) ;
#56 = DIRECTION ( 'NONE',  ( 0.000000000000000000, 0.000000000000000000, -1.000000000000000000 ) ) ;
#57 = MANIFOLD_SOLID_BREP ( 'Revolve - Cutting Edge', #4 ) ;
#58 = SURFACE_STYLE_USAGE ( .BOTH. , #180 ) ;
#59 = CLOSED_SHELL ( 'NONE', ( #129, #287, #139, #252 ) ) ;
#60 = AXIS2_PLACEMENT_3D ( 'NONE', #140, #295, #233 ) ;
#61 =( NAMED_UNIT ( * ) PLANE_ANGLE_UNIT ( ) SI_UNIT ( $, .RADIAN. ) );
#62 = LINE ( 'NONE', #11, #10 ) ;
#63 = FILL_AREA_STYLE_COLOUR ( '', #227 ) ;
#64 = COLOUR_RGB ( '',1.000000000000000000, 0.000000000000000000, 0.000000000000000000 ) ;
#65 = MECHANICAL_DESIGN_GEOMETRIC_PRESENTATION_REPRESENTATION (  '', ( #26 ), #193 ) ;
#66 = SURFACE_STYLE_USAGE ( .BOTH. , #46 ) ;
#67 =( NAMED_UNIT ( * ) PLANE_ANGLE_UNIT ( ) SI_UNIT ( $, .RADIAN. ) );
#68 = EDGE_LOOP ( 'NONE', ( #307, #172, #273, #260 ) ) ;
#69 = EDGE_CURVE ( 'NONE', #41, #147, #186, .T. ) ;
#70 =( CONVERSION_BASED_UNIT ( 'INCH', #76 ) LENGTH_UNIT ( ) NAMED_UNIT ( #263 ) );
#71 = DIRECTION ( 'NONE',  ( -1.000000000000000000, 0.000000000000000000, 0.000000000000000000 ) ) ;
#72 = DIMENSIONAL_EXPONENTS ( 1.000000000000000000, 0.000000000000000000, 0.000000000000000000, 0.000000000000000000, 0.000000000000000000, 0.000000000000000000, 0.000000000000000000 ) ;
#73 = STYLED_ITEM ( 'NONE', ( #23 ), #28 ) ;
#74 =( GEOMETRIC_REPRESENTATION_CONTEXT ( 3 ) GLOBAL_UNCERTAINTY_ASSIGNED_CONTEXT ( ( #239 ) ) GLOBAL_UNIT_ASSIGNED_CONTEXT ( ( #271, #33, #107 ) ) REPRESENTATION_CONTEXT ( 'NONE', 'WORKASPACE' ) );
#75 = ORIENTED_EDGE ( 'NONE', *, *, #214, .F. ) ;
#76 = LENGTH_MEASURE_WITH_UNIT ( LENGTH_MEASURE( 0.02539999999999999897 ), #42 );
#77 = DIRECTION ( 'NONE',  ( 0.000000000000000000, 0.000000000000000000, -1.000000000000000000 ) ) ;
#78 = VERTEX_POINT ( 'NONE', #221 ) ;
#79 = DIRECTION ( 'NONE',  ( 0.000000000000000000, 0.000000000000000000, -1.000000000000000000 ) ) ;
#80 = PRESENTATION_LAYER_ASSIGNMENT (  '', '', ( #35 ) ) ;
#81 = DIRECTION ( 'NONE',  ( -3.265724797726272713E-17, 1.000000000000000000, -0.000000000000000000 ) ) ;
#82 = PRESENTATION_LAYER_ASSIGNMENT (  '', '', ( #26 ) ) ;
#83 = ADVANCED_FACE ( 'NONE', ( #246 ), #293, .T. ) ;
#84 = VECTOR ( 'NONE', #298, 39.37007874015748143 ) ;
#85 = FILL_AREA_STYLE_COLOUR ( '', #155 ) ;
#86 =( LENGTH_UNIT ( ) NAMED_UNIT ( * ) SI_UNIT ( $, .METRE. ) );
#87 = ORIENTED_EDGE ( 'NONE', *, *, #195, .F. ) ;
#88 = CARTESIAN_POINT ( 'NONE',  ( -0.3125000000000000555, 3.500000000000000000, 0.000000000000000000 ) ) ;
#89 = DIRECTION ( 'NONE',  ( -0.000000000000000000, -1.000000000000000000, -0.000000000000000000 ) ) ;
#90 = APPLICATION_CONTEXT ( 'automotive_design' ) ;
#91 = PRODUCT_DEFINITION_CONTEXT ( 'detailed design', #124, 'design' ) ;
#92 = PRESENTATION_LAYER_ASSIGNMENT (  '', '', ( #148 ) ) ;
#93 = CARTESIAN_POINT ( 'NONE',  ( 0.000000000000000000, 0.000000000000000000, -0.3125000000000000000 ) ) ;
#94 = FACE_OUTER_BOUND ( 'NONE', #98, .T. ) ;
#95 = ORIENTED_EDGE ( 'NONE', *, *, #48, .T. ) ;
#96 = AXIS2_PLACEMENT_3D ( 'NONE', #244, #197, #175 ) ;
#97 =( NAMED_UNIT ( * ) PLANE_ANGLE_UNIT ( ) SI_UNIT ( $, .RADIAN. ) );
#98 = EDGE_LOOP ( 'NONE', ( #209, #191 ) ) ;
#99 = EDGE_LOOP ( 'NONE', ( #122, #213 ) ) ;
#100 = CARTESIAN_POINT ( 'NONE',  ( 0.000000000000000000, 0.000000000000000000, 0.000000000000000000 ) ) ;
#101 = DIRECTION ( 'NONE',  ( 0.000000000000000000, 1.000000000000000000, 0.000000000000000000 ) ) ;
#102 = CYLINDRICAL_SURFACE ( 'NONE', #96, 0.3125000000000000000 ) ;
#103 = DIRECTION ( 'NONE',  ( -0.000000000000000000, -1.000000000000000000, -0.000000000000000000 ) ) ;
#104 =( NAMED_UNIT ( * ) SI_UNIT ( $, .STERADIAN. ) SOLID_ANGLE_UNIT ( ) );
#105 = CYLINDRICAL_SURFACE ( 'NONE', #309, 0.3125000000000000000 ) ;
#106 = PRESENTATION_STYLE_ASSIGNMENT (( #58 ) ) ;
#107 =( NAMED_UNIT ( * ) SI_UNIT ( $, .STERADIAN. ) SOLID_ANGLE_UNIT ( ) );
#108 =( NAMED_UNIT ( * ) PLANE_ANGLE_UNIT ( ) SI_UNIT ( $, .RADIAN. ) );
#109 = PRODUCT ( '01570', '01570', '', ( #141 ) ) ;
#110 = LINE ( 'NONE', #14, #44 ) ;
#111 = ORIENTED_EDGE ( 'NONE', *, *, #16, .T. ) ;
#112 = CIRCLE ( 'NONE', #60, 0.3125000000000000555 ) ;
#113 = PRODUCT_DEFINITION_FORMATION_WITH_SPECIFIED_SOURCE ( 'ANY', '', #109, .NOT_KNOWN. ) ;
#114 = DIRECTION ( 'NONE',  ( 0.000000000000000000, 0.000000000000000000, -1.000000000000000000 ) ) ;
#115 = DIRECTION ( 'NONE',  ( -1.000000000000000000, 0.000000000000000000, 0.000000000000000000 ) ) ;
#116 = ADVANCED_BREP_SHAPE_REPRESENTATION ( '01570', ( #57, #275, #52 ), #131 ) ;
#117 = UNCERTAINTY_MEASURE_WITH_UNIT (LENGTH_MEASURE( 1.000000000000000082E-05 ), #126, 'distance_accuracy_value', 'NONE');
#118 = DIRECTION ( 'NONE',  ( -3.265724797726272713E-17, 1.000000000000000000, -0.000000000000000000 ) ) ;
#119 = SURFACE_STYLE_FILL_AREA ( #255 ) ;
#120 = ORIENTED_EDGE ( 'NONE', *, *, #1, .F. ) ;
#121 =( LENGTH_UNIT ( ) NAMED_UNIT ( * ) SI_UNIT ( $, .METRE. ) );
#122 = ORIENTED_EDGE ( 'NONE', *, *, #48, .F. ) ;
#123 = MECHANICAL_DESIGN_GEOMETRIC_PRESENTATION_REPRESENTATION (  '', ( #35 ), #185 ) ;
#124 = APPLICATION_CONTEXT ( 'automotive_design' ) ;
#125 = EDGE_LOOP ( 'NONE', ( #189, #305, #21, #120 ) ) ;
#126 =( CONVERSION_BASED_UNIT ( 'INCH', #24 ) LENGTH_UNIT ( ) NAMED_UNIT ( #215 ) );
#127 = DIMENSIONAL_EXPONENTS ( 1.000000000000000000, 0.000000000000000000, 0.000000000000000000, 0.000000000000000000, 0.000000000000000000, 0.000000000000000000, 0.000000000000000000 ) ;
#128 = AXIS2_PLACEMENT_3D ( 'NONE', #249, #204, #301 ) ;
#129 = ADVANCED_FACE ( 'NONE', ( #218 ), #102, .T. ) ;
#130 = AXIS2_PLACEMENT_3D ( 'NONE', #270, #203, #7 ) ;
#131 =( GEOMETRIC_REPRESENTATION_CONTEXT ( 3 ) GLOBAL_UNCERTAINTY_ASSIGNED_CONTEXT ( ( #13 ) ) GLOBAL_UNIT_ASSIGNED_CONTEXT ( ( #237, #67, #167 ) ) REPRESENTATION_CONTEXT ( 'NONE', 'WORKASPACE' ) );
#132 = LENGTH_MEASURE_WITH_UNIT ( LENGTH_MEASURE( 0.02539999999999999897 ), #31 );
#133 = SURFACE_SIDE_STYLE ('',( #173 ) ) ;
#134 = CARTESIAN_POINT ( 'NONE',  ( 3.827021247335478926E-17, 0.000000000000000000, 0.3125000000000000000 ) ) ;
#135 = VERTEX_POINT ( 'NONE', #6 ) ;
#136 = PLANE ( 'NONE',  #210 ) ;
#137 = PRESENTATION_STYLE_ASSIGNMENT (( #207 ) ) ;
#138 = UNCERTAINTY_MEASURE_WITH_UNIT (LENGTH_MEASURE( 1.000000000000000082E-05 ), #70, 'distance_accuracy_value', 'NONE');
#139 = ADVANCED_FACE ( 'NONE', ( #248 ), #198, .T. ) ;
#140 = CARTESIAN_POINT ( 'NONE',  ( -6.123233995736759873E-17, 3.500000000000000000, 0.000000000000000000 ) ) ;
#141 = PRODUCT_CONTEXT ( 'NONE', #90, 'mechanical' ) ;
#142 =( CONVERSION_BASED_UNIT ( 'INCH', #304 ) LENGTH_UNIT ( ) NAMED_UNIT ( #22 ) );
#143 = CIRCLE ( 'NONE', #39, 0.3125000000000000555 ) ;
#144 = AXIS2_PLACEMENT_3D ( 'NONE', #224, #303, #8 ) ;
#145 = ORIENTED_EDGE ( 'NONE', *, *, #69, .F. ) ;
#146 = VECTOR ( 'NONE', #211, 39.37007874015748143 ) ;
#147 = VERTEX_POINT ( 'NONE', #253 ) ;
#148 = STYLED_ITEM ( 'NONE', ( #222 ), #37 ) ;
#149 = LINE ( 'NONE', #168, #146 ) ;
#150 = UNCERTAINTY_MEASURE_WITH_UNIT (LENGTH_MEASURE( 1.000000000000000082E-05 ), #142, 'distance_accuracy_value', 'NONE');
#151 = VERTEX_POINT ( 'NONE', #159 ) ;
#152 = DIMENSIONAL_EXPONENTS ( 1.000000000000000000, 0.000000000000000000, 0.000000000000000000, 0.000000000000000000, 0.000000000000000000, 0.000000000000000000, 0.000000000000000000 ) ;
#153 = AXIS2_PLACEMENT_3D ( 'NONE', #55, #251, #114 ) ;
#154 = CARTESIAN_POINT ( 'NONE',  ( 0.000000000000000000, 0.000000000000000000, 0.000000000000000000 ) ) ;
#155 = COLOUR_RGB ( '',1.000000000000000000, 0.000000000000000000, 0.000000000000000000 ) ;
#156 = DIRECTION ( 'NONE',  ( -3.265724797726272713E-17, 1.000000000000000000, -0.000000000000000000 ) ) ;
#157 = ORIENTED_EDGE ( 'NONE', *, *, #166, .T. ) ;
#158 = SURFACE_STYLE_USAGE ( .BOTH. , #274 ) ;
#159 = CARTESIAN_POINT ( 'NONE',  ( -0.3125000000000001665, 3.500000000000000000, 0.000000000000000000 ) ) ;
#160 = SURFACE_SIDE_STYLE ('',( #119 ) ) ;
#161 = CIRCLE ( 'NONE', #206, 0.3125000000000000000 ) ;
#162 =( CONVERSION_BASED_UNIT ( 'INCH', #223 ) LENGTH_UNIT ( ) NAMED_UNIT ( #72 ) );
#163 = DIRECTION ( 'NONE',  ( -1.000000000000000000, 0.000000000000000000, 0.000000000000000000 ) ) ;
#164 = CARTESIAN_POINT ( 'NONE',  ( 0.000000000000000000, 0.000000000000000000, 0.000000000000000000 ) ) ;
#165 = SURFACE_STYLE_FILL_AREA ( #19 ) ;
#166 = EDGE_CURVE ( 'NONE', #78, #151, #143, .T. ) ;
#167 =( NAMED_UNIT ( * ) SI_UNIT ( $, .STERADIAN. ) SOLID_ANGLE_UNIT ( ) );
#168 = CARTESIAN_POINT ( 'NONE',  ( 0.000000000000000000, 0.000000000000000000, -0.3125000000000000000 ) ) ;
#169 = EDGE_CURVE ( 'NONE', #135, #151, #276, .T. ) ;
#170 = FACE_OUTER_BOUND ( 'NONE', #201, .T. ) ;
#171 = DIRECTION ( 'NONE',  ( 0.000000000000000000, -1.000000000000000000, -0.000000000000000000 ) ) ;
#172 = ORIENTED_EDGE ( 'NONE', *, *, #69, .T. ) ;
#173 = SURFACE_STYLE_FILL_AREA ( #199 ) ;
#174 =( LENGTH_UNIT ( ) NAMED_UNIT ( * ) SI_UNIT ( $, .METRE. ) );
#175 = DIRECTION ( 'NONE',  ( -1.000000000000000000, 0.000000000000000000, 0.000000000000000000 ) ) ;
#176 = DIRECTION ( 'NONE',  ( -1.000000000000000000, 0.000000000000000000, 0.000000000000000000 ) ) ;
#177 = DIRECTION ( 'NONE',  ( 0.000000000000000000, 0.000000000000000000, -1.000000000000000000 ) ) ;
#178 = CARTESIAN_POINT ( 'NONE',  ( 0.3125000000000000000, 3.500000000000000000, 0.000000000000000000 ) ) ;
#179 = PRESENTATION_LAYER_ASSIGNMENT (  '', '', ( #51 ) ) ;
#180 = SURFACE_SIDE_STYLE ('',( #277 ) ) ;
#181 = DIRECTION ( 'NONE',  ( 1.000000000000000000, 3.265724797726272713E-17, 0.000000000000000000 ) ) ;
#182 = PLANE ( 'NONE',  #144 ) ;
#183 = DIRECTION ( 'NONE',  ( -0.000000000000000000, -1.000000000000000000, -0.000000000000000000 ) ) ;
#184 = COLOUR_RGB ( '',1.000000000000000000, 0.000000000000000000, 0.000000000000000000 ) ;
#185 =( GEOMETRIC_REPRESENTATION_CONTEXT ( 3 ) GLOBAL_UNCERTAINTY_ASSIGNED_CONTEXT ( ( #212 ) ) GLOBAL_UNIT_ASSIGNED_CONTEXT ( ( #230, #61, #53 ) ) REPRESENTATION_CONTEXT ( 'NONE', 'WORKASPACE' ) );
#186 = CIRCLE ( 'NONE', #130, 0.3125000000000000000 ) ;
#187 = EDGE_CURVE ( 'NONE', #288, #286, #219, .T. ) ;
#188 = STYLED_ITEM ( 'NONE', ( #297 ), #57 ) ;
#189 = ORIENTED_EDGE ( 'NONE', *, *, #195, .T. ) ;
#190 = ORIENTED_EDGE ( 'NONE', *, *, #166, .F. ) ;
#191 = ORIENTED_EDGE ( 'NONE', *, *, #228, .T. ) ;
#192 = PRESENTATION_LAYER_ASSIGNMENT (  '', '', ( #73 ) ) ;
#193 =( GEOMETRIC_REPRESENTATION_CONTEXT ( 3 ) GLOBAL_UNCERTAINTY_ASSIGNED_CONTEXT ( ( #138 ) ) GLOBAL_UNIT_ASSIGNED_CONTEXT ( ( #70, #216, #45 ) ) REPRESENTATION_CONTEXT ( 'NONE', 'WORKASPACE' ) );
#194 =( NAMED_UNIT ( * ) SI_UNIT ( $, .STERADIAN. ) SOLID_ANGLE_UNIT ( ) );
#195 = EDGE_CURVE ( 'NONE', #147, #41, #20, .T. ) ;
#196 = FACE_OUTER_BOUND ( 'NONE', #125, .T. ) ;
#197 = DIRECTION ( 'NONE',  ( -3.265724797726272713E-17, 1.000000000000000000, -0.000000000000000000 ) ) ;
#198 = CYLINDRICAL_SURFACE ( 'NONE', #272, 0.3125000000000000000 ) ;
#199 = FILL_AREA_STYLE ('',( #27 ) ) ;
#200 = COLOUR_RGB ( '',0.7921568627450980005, 0.8196078431372548767, 0.9333333333333333481 ) ;
#201 = EDGE_LOOP ( 'NONE', ( #87, #145 ) ) ;
#202 = DIRECTION ( 'NONE',  ( 3.265724797726272713E-17, -1.000000000000000000, 0.000000000000000000 ) ) ;
#203 = DIRECTION ( 'NONE',  ( -0.000000000000000000, -1.000000000000000000, -0.000000000000000000 ) ) ;
#204 = DIRECTION ( 'NONE',  ( -0.000000000000000000, -1.000000000000000000, -0.000000000000000000 ) ) ;
#205 = FACE_OUTER_BOUND ( 'NONE', #99, .T. ) ;
#206 = AXIS2_PLACEMENT_3D ( 'NONE', #29, #81, #176 ) ;
#207 = SURFACE_STYLE_USAGE ( .BOTH. , #160 ) ;
#208 = PRESENTATION_STYLE_ASSIGNMENT (( #40 ) ) ;
#209 = ORIENTED_EDGE ( 'NONE', *, *, #187, .T. ) ;
#210 = AXIS2_PLACEMENT_3D ( 'NONE', #178, #202, #181 ) ;
#211 = DIRECTION ( 'NONE',  ( -0.000000000000000000, -1.000000000000000000, -0.000000000000000000 ) ) ;
#212 = UNCERTAINTY_MEASURE_WITH_UNIT (LENGTH_MEASURE( 1.000000000000000082E-05 ), #230, 'distance_accuracy_value', 'NONE');
#213 = ORIENTED_EDGE ( 'NONE', *, *, #16, .F. ) ;
#214 = EDGE_CURVE ( 'NONE', #151, #78, #112, .T. ) ;
#215 = DIMENSIONAL_EXPONENTS ( 1.000000000000000000, 0.000000000000000000, 0.000000000000000000, 0.000000000000000000, 0.000000000000000000, 0.000000000000000000, 0.000000000000000000 ) ;
#216 =( NAMED_UNIT ( * ) PLANE_ANGLE_UNIT ( ) SI_UNIT ( $, .RADIAN. ) );
#217 = MECHANICAL_DESIGN_GEOMETRIC_PRESENTATION_REPRESENTATION (  '', ( #188 ), #247 ) ;
#218 = FACE_OUTER_BOUND ( 'NONE', #17, .T. ) ;
#219 = CIRCLE ( 'NONE', #258, 0.3125000000000000000 ) ;
#220 =( NAMED_UNIT ( * ) PLANE_ANGLE_UNIT ( ) SI_UNIT ( $, .RADIAN. ) );
#221 = CARTESIAN_POINT ( 'NONE',  ( 0.3125000000000000000, 3.500000000000000000, 3.827021247335478926E-17 ) ) ;
#222 = PRESENTATION_STYLE_ASSIGNMENT (( #289 ) ) ;
#223 = LENGTH_MEASURE_WITH_UNIT ( LENGTH_MEASURE( 0.02539999999999999897 ), #54 );
#224 = CARTESIAN_POINT ( 'NONE',  ( 1.666399758513172697E-34, 1.625000000000000000, 0.000000000000000000 ) ) ;
#225 = DIRECTION ( 'NONE',  ( 0.000000000000000000, 0.000000000000000000, 1.000000000000000000 ) ) ;
#226 = CARTESIAN_POINT ( 'NONE',  ( 0.000000000000000000, 0.000000000000000000, 0.000000000000000000 ) ) ;
#227 = COLOUR_RGB ( '',1.000000000000000000, 0.000000000000000000, 0.000000000000000000 ) ;
#228 = EDGE_CURVE ( 'NONE', #286, #288, #266, .T. ) ;
#229 = PRODUCT_DEFINITION_SHAPE ( 'NONE', 'NONE',  #300 ) ;
#230 =( CONVERSION_BASED_UNIT ( 'INCH', #12 ) LENGTH_UNIT ( ) NAMED_UNIT ( #152 ) );
#231 = DIRECTION ( 'NONE',  ( 1.000000000000000000, 0.000000000000000000, 0.000000000000000000 ) ) ;
#232 = EDGE_CURVE ( 'NONE', #41, #286, #62, .T. ) ;
#233 = DIRECTION ( 'NONE',  ( -1.000000000000000000, 0.000000000000000000, 0.000000000000000000 ) ) ;
#234 = AXIS2_PLACEMENT_3D ( 'NONE', #245, #265, #79 ) ;
#235 = AXIS2_PLACEMENT_3D ( 'NONE', #100, #171, #77 ) ;
#236 = ORIENTED_EDGE ( 'NONE', *, *, #169, .F. ) ;
#237 =( CONVERSION_BASED_UNIT ( 'INCH', #284 ) LENGTH_UNIT ( ) NAMED_UNIT ( #238 ) );
#238 = DIMENSIONAL_EXPONENTS ( 1.000000000000000000, 0.000000000000000000, 0.000000000000000000, 0.000000000000000000, 0.000000000000000000, 0.000000000000000000, 0.000000000000000000 ) ;
#239 = UNCERTAINTY_MEASURE_WITH_UNIT (LENGTH_MEASURE( 1.000000000000000082E-05 ), #271, 'distance_accuracy_value', 'NONE');
#240 =( LENGTH_UNIT ( ) NAMED_UNIT ( * ) SI_UNIT ( $, .METRE. ) );
#241 =( GEOMETRIC_REPRESENTATION_CONTEXT ( 3 ) GLOBAL_UNCERTAINTY_ASSIGNED_CONTEXT ( ( #117 ) ) GLOBAL_UNIT_ASSIGNED_CONTEXT ( ( #126, #97, #194 ) ) REPRESENTATION_CONTEXT ( 'NONE', 'WORKASPACE' ) );
#242 = PLANE ( 'NONE',  #25 ) ;
#243 = CARTESIAN_POINT ( 'NONE',  ( 7.582401355855259480E-33, 1.625000000000000000, 0.000000000000000000 ) ) ;
#244 = CARTESIAN_POINT ( 'NONE',  ( -6.123233995736759873E-17, 3.500000000000000000, 0.000000000000000000 ) ) ;
#245 = CARTESIAN_POINT ( 'NONE',  ( 0.000000000000000000, 0.000000000000000000, 0.000000000000000000 ) ) ;
#246 = FACE_OUTER_BOUND ( 'NONE', #68, .T. ) ;
#247 =( GEOMETRIC_REPRESENTATION_CONTEXT ( 3 ) GLOBAL_UNCERTAINTY_ASSIGNED_CONTEXT ( ( #280 ) ) GLOBAL_UNIT_ASSIGNED_CONTEXT ( ( #162, #108, #104 ) ) REPRESENTATION_CONTEXT ( 'NONE', 'WORKASPACE' ) );
#248 = FACE_OUTER_BOUND ( 'NONE', #285, .T. ) ;
#249 = CARTESIAN_POINT ( 'NONE',  ( 0.000000000000000000, 1.625000000000000000, 0.000000000000000000 ) ) ;
#250 = VERTEX_POINT ( 'NONE', #34 ) ;
#251 = DIRECTION ( 'NONE',  ( -0.000000000000000000, -1.000000000000000000, -0.000000000000000000 ) ) ;
#252 = ADVANCED_FACE ( 'NONE', ( #15 ), #136, .F. ) ;
#253 = CARTESIAN_POINT ( 'NONE',  ( 0.000000000000000000, 1.625000000000000000, -0.3125000000000000000 ) ) ;
#254 = DIRECTION ( 'NONE',  ( -3.265724797726272713E-17, 1.000000000000000000, -0.000000000000000000 ) ) ;
#255 = FILL_AREA_STYLE ('',( #36 ) ) ;
#256 = APPLICATION_PROTOCOL_DEFINITION ( 'draft international standard', 'automotive_design', 1998, #90 ) ;
#257 = SURFACE_SIDE_STYLE ('',( #165 ) ) ;
#258 = AXIS2_PLACEMENT_3D ( 'NONE', #226, #183, #56 ) ;
#259 = ORIENTED_EDGE ( 'NONE', *, *, #278, .F. ) ;
#260 = ORIENTED_EDGE ( 'NONE', *, *, #228, .F. ) ;
#261 =( GEOMETRIC_REPRESENTATION_CONTEXT ( 3 ) GLOBAL_UNCERTAINTY_ASSIGNED_CONTEXT ( ( #150 ) ) GLOBAL_UNIT_ASSIGNED_CONTEXT ( ( #142, #220, #3 ) ) REPRESENTATION_CONTEXT ( 'NONE', 'WORKASPACE' ) );
#262 = FILL_AREA_STYLE ('',( #283 ) ) ;
#263 = DIMENSIONAL_EXPONENTS ( 1.000000000000000000, 0.000000000000000000, 0.000000000000000000, 0.000000000000000000, 0.000000000000000000, 0.000000000000000000, 0.000000000000000000 ) ;
#264 = SURFACE_STYLE_FILL_AREA ( #262 ) ;
#265 = DIRECTION ( 'NONE',  ( -0.000000000000000000, -1.000000000000000000, -0.000000000000000000 ) ) ;
#266 = CIRCLE ( 'NONE', #153, 0.3125000000000000000 ) ;
#267 = CARTESIAN_POINT ( 'NONE',  ( 3.827021247335478926E-17, 1.625000000000000000, 0.3125000000000000000 ) ) ;
#268 = DIRECTION ( 'NONE',  ( 0.000000000000000000, -0.000000000000000000, 1.000000000000000000 ) ) ;
#269 = CARTESIAN_POINT ( 'NONE',  ( -6.123233995736759873E-17, 3.500000000000000000, 0.000000000000000000 ) ) ;
#270 = CARTESIAN_POINT ( 'NONE',  ( 0.000000000000000000, 1.625000000000000000, 0.000000000000000000 ) ) ;
#271 =( CONVERSION_BASED_UNIT ( 'INCH', #132 ) LENGTH_UNIT ( ) NAMED_UNIT ( #127 ) );
#272 = AXIS2_PLACEMENT_3D ( 'NONE', #269, #254, #163 ) ;
#273 = ORIENTED_EDGE ( 'NONE', *, *, #1, .T. ) ;
#274 = SURFACE_SIDE_STYLE ('',( #5 ) ) ;
#275 = MANIFOLD_SOLID_BREP ( 'Revolve - Tool Body (Straight Shanked)', #59 ) ;
#276 = LINE ( 'NONE', #88, #84 ) ;
#277 = SURFACE_STYLE_FILL_AREA ( #299 ) ;
#278 = EDGE_CURVE ( 'NONE', #250, #78, #110, .T. ) ;
#279 = CARTESIAN_POINT ( 'NONE',  ( -6.123233995736759873E-17, 3.500000000000000000, 0.000000000000000000 ) ) ;
#280 = UNCERTAINTY_MEASURE_WITH_UNIT (LENGTH_MEASURE( 1.000000000000000082E-05 ), #162, 'distance_accuracy_value', 'NONE');
#281 = PLANE ( 'NONE',  #235 ) ;
#282 = MECHANICAL_DESIGN_GEOMETRIC_PRESENTATION_REPRESENTATION (  '', ( #73 ), #241 ) ;
#283 = FILL_AREA_STYLE_COLOUR ( '', #184 ) ;
#284 = LENGTH_MEASURE_WITH_UNIT ( LENGTH_MEASURE( 0.02539999999999999897 ), #121 );
#285 = EDGE_LOOP ( 'NONE', ( #259, #111, #43, #190 ) ) ;
#286 = VERTEX_POINT ( 'NONE', #134 ) ;
#287 = ADVANCED_FACE ( 'NONE', ( #205 ), #182, .F. ) ;
#288 = VERTEX_POINT ( 'NONE', #93 ) ;
#289 = SURFACE_STYLE_USAGE ( .BOTH. , #133 ) ;
#290 = PRESENTATION_LAYER_ASSIGNMENT (  '', '', ( #188 ) ) ;
#291 = PRODUCT_RELATED_PRODUCT_CATEGORY ( 'part', '', ( #109 ) ) ;
#292 = CARTESIAN_POINT ( 'NONE',  ( 0.000000000000000000, 1.625000000000000000, 0.000000000000000000 ) ) ;
#293 = CYLINDRICAL_SURFACE ( 'NONE', #234, 0.3125000000000000000 ) ;
#294 = ADVANCED_FACE ( 'NONE', ( #94 ), #281, .T. ) ;
#295 = DIRECTION ( 'NONE',  ( -3.265724797726272713E-17, 1.000000000000000000, -0.000000000000000000 ) ) ;
#296 = ORIENTED_EDGE ( 'NONE', *, *, #214, .T. ) ;
#297 = PRESENTATION_STYLE_ASSIGNMENT (( #158 ) ) ;
#298 = DIRECTION ( 'NONE',  ( -3.265724797726272713E-17, 1.000000000000000000, -0.000000000000000000 ) ) ;
#299 = FILL_AREA_STYLE ('',( #85 ) ) ;
#300 = PRODUCT_DEFINITION ( 'UNKNOWN', '', #113, #91 ) ;
#301 = DIRECTION ( 'NONE',  ( 0.000000000000000000, 0.000000000000000000, -1.000000000000000000 ) ) ;
#302 = MECHANICAL_DESIGN_GEOMETRIC_PRESENTATION_REPRESENTATION (  '', ( #51 ), #74 ) ;
#303 = DIRECTION ( 'NONE',  ( -3.265724797726272713E-17, 1.000000000000000000, 0.000000000000000000 ) ) ;
#304 = LENGTH_MEASURE_WITH_UNIT ( LENGTH_MEASURE( 0.02539999999999999897 ), #174 );
#305 = ORIENTED_EDGE ( 'NONE', *, *, #232, .T. ) ;
#306 = COLOUR_RGB ( '',0.7921568627450980005, 0.8196078431372548767, 0.9333333333333333481 ) ;
#307 = ORIENTED_EDGE ( 'NONE', *, *, #232, .F. ) ;
#308 = EDGE_LOOP ( 'NONE', ( #296, #157 ) ) ;
#309 = AXIS2_PLACEMENT_3D ( 'NONE', #154, #103, #177 ) ;
ENDSEC;
END-ISO-10303-21;
