ISO-10303-21;
HEADER;
FILE_DESCRIPTION (( 'STEP AP214' ),
    '1' );
FILE_NAME ('Micro_BEM-078-02.STEP',
    '2021-09-03T12:59:08',
    ( '' ),
    ( '' ),
    'SwSTEP 2.0',
    'SolidWorks 2020',
    '' );
FILE_SCHEMA (( 'AUTOMOTIVE_DESIGN' ));
ENDSEC;

DATA;
#1 = VERTEX_POINT ( 'NONE', #55 ) ;
#2 = VECTOR ( 'NONE', #131, 39.37007874015748143 ) ;
#3 = ORIENTED_EDGE ( 'NONE', *, *, #92, .T. ) ;
#4 = AXIS2_PLACEMENT_3D ( 'NONE', #212, #10, #76 ) ;
#5 = EDGE_CURVE ( 'NONE', #202, #205, #209, .T. ) ;
#6 = LINE ( 'NONE', #255, #17 ) ;
#7 =( NAMED_UNIT ( * ) SI_UNIT ( $, .STERADIAN. ) SOLID_ANGLE_UNIT ( ) );
#8 = LENGTH_MEASURE_WITH_UNIT ( LENGTH_MEASURE( 0.02539999999999999897 ), #156 );
#9 = CIRCLE ( 'NONE', #322, 0.06250000000000002776 ) ;
#10 = DIRECTION ( 'NONE',  ( 0.0000000000000000000, 0.0000000000000000000, -1.000000000000000000 ) ) ;
#11 = CARTESIAN_POINT ( 'NONE',  ( 0.06250000000000002776, 7.654042494670959086E-18, 1.485000000000000764 ) ) ;
#12 = CARTESIAN_POINT ( 'NONE',  ( 0.04750000000000064587, 5.817072295950006528E-18, 1.500000000000000222 ) ) ;
#13 = CIRCLE ( 'NONE', #54, 0.03901095000000000257 ) ;
#14 = CARTESIAN_POINT ( 'NONE',  ( 0.06250000000000006939, 7.654042494670963708E-18, 0.3212130222250907940 ) ) ;
#15 = CARTESIAN_POINT ( 'NONE',  ( 2.302335982397025094E-17, 0.0000000000000000000, 0.1880000000000000282 ) ) ;
#16 = DIRECTION ( 'NONE',  ( -1.000000000000000000, 0.0000000000000000000, 0.0000000000000000000 ) ) ;
#17 = VECTOR ( 'NONE', #254, 39.37007874015748854 ) ;
#18 = EDGE_LOOP ( 'NONE', ( #246, #320, #96, #174 ) ) ;
#19 = DIRECTION ( 'NONE',  ( -0.0000000000000000000, -0.0000000000000000000, -1.000000000000000000 ) ) ;
#20 = EDGE_CURVE ( 'NONE', #295, #205, #64, .T. ) ;
#21 = ORIENTED_EDGE ( 'NONE', *, *, #100, .T. ) ;
#22 = AXIS2_PLACEMENT_3D ( 'NONE', #227, #24, #93 ) ;
#23 = ORIENTED_EDGE ( 'NONE', *, *, #257, .F. ) ;
#24 = DIRECTION ( 'NONE',  ( 1.224646799147353700E-16, 0.0000000000000000000, 1.000000000000000000 ) ) ;
#25 = VERTEX_POINT ( 'NONE', #206 ) ;
#26 = EDGE_CURVE ( 'NONE', #25, #318, #239, .T. ) ;
#27 =( NAMED_UNIT ( * ) SI_UNIT ( $, .STERADIAN. ) SOLID_ANGLE_UNIT ( ) );
#28 = EDGE_LOOP ( 'NONE', ( #225, #23, #198, #74 ) ) ;
#29 = AXIS2_PLACEMENT_3D ( 'NONE', #101, #19, #197 ) ;
#30 = CARTESIAN_POINT ( 'NONE',  ( -0.03901095000000000257, 0.0000000000000000000, 4.777463504919746737E-18 ) ) ;
#31 = EDGE_CURVE ( 'NONE', #150, #78, #181, .T. ) ;
#32 = MECHANICAL_DESIGN_GEOMETRIC_PRESENTATION_REPRESENTATION (  '', ( #299 ), #283 ) ;
#33 = CIRCLE ( 'NONE', #226, 0.03901095000000000257 ) ;
#34 = DIRECTION ( 'NONE',  ( 1.000000000000000000, 0.0000000000000000000, 0.0000000000000000000 ) ) ;
#35 = CARTESIAN_POINT ( 'NONE',  ( 3.933724995124051744E-17, 0.0000000000000000000, 0.3212130222250907940 ) ) ;
#36 = CIRCLE ( 'NONE', #311, 0.04750000000000064587 ) ;
#37 = LINE ( 'NONE', #12, #40 ) ;
#38 = PLANE ( 'NONE',  #90 ) ;
#39 = CARTESIAN_POINT ( 'NONE',  ( 0.06250000000000002776, 7.654042494670959086E-18, 1.500000000000000222 ) ) ;
#40 = VECTOR ( 'NONE', #43, 39.37007874015748854 ) ;
#41 = MANIFOLD_SOLID_BREP ( 'Fillet1', #75 ) ;
#42 = DIRECTION ( 'NONE',  ( -1.000000000000000000, 0.0000000000000000000, 0.0000000000000000000 ) ) ;
#43 = DIRECTION ( 'NONE',  ( 0.7071067811865462405, 8.659560562354916834E-17, -0.7071067811865486830 ) ) ;
#44 = LINE ( 'NONE', #70, #272 ) ;
#45 = ORIENTED_EDGE ( 'NONE', *, *, #26, .T. ) ;
#46 = SURFACE_STYLE_USAGE ( .BOTH. , #296 ) ;
#47 = ORIENTED_EDGE ( 'NONE', *, *, #53, .F. ) ;
#48 = VERTEX_POINT ( 'NONE', #52 ) ;
#49 = EDGE_CURVE ( 'NONE', #318, #48, #6, .T. ) ;
#50 = CONICAL_SURFACE ( 'NONE', #235, 0.04750000000000064587, 0.7853981633974466137 ) ;
#51 = EDGE_CURVE ( 'NONE', #126, #48, #9, .T. ) ;
#52 = CARTESIAN_POINT ( 'NONE',  ( -0.06250000000000002776, 0.0000000000000000000, 1.485000000000000764 ) ) ;
#53 = EDGE_CURVE ( 'NONE', #48, #126, #79, .T. ) ;
#54 = AXIS2_PLACEMENT_3D ( 'NONE', #141, #167, #187 ) ;
#55 = CARTESIAN_POINT ( 'NONE',  ( 7.166195257379618950E-18, 0.0000000000000000000, 0.0000000000000000000 ) ) ;
#56 = SURFACE_STYLE_USAGE ( .BOTH. , #134 ) ;
#57 = ADVANCED_FACE ( 'NONE', ( #128 ), #232, .T. ) ;
#58 = DIMENSIONAL_EXPONENTS ( 1.000000000000000000, 0.0000000000000000000, 0.0000000000000000000, 0.0000000000000000000, 0.0000000000000000000, 0.0000000000000000000, 0.0000000000000000000 ) ;
#59 = STYLED_ITEM ( 'NONE', ( #162 ), #41 ) ;
#60 = FACE_OUTER_BOUND ( 'NONE', #28, .T. ) ;
#61 = EDGE_CURVE ( 'NONE', #202, #324, #280, .T. ) ;
#62 = DIRECTION ( 'NONE',  ( -1.000000000000000000, 0.0000000000000000000, 2.188366338220633428E-16 ) ) ;
#63 = SPHERICAL_SURFACE ( 'NONE', #129, 0.03901095000000000257 ) ;
#64 = CIRCLE ( 'NONE', #140, 0.06250000000000002776 ) ;
#65 = DIRECTION ( 'NONE',  ( 1.000000000000000000, 0.0000000000000000000, -0.0000000000000000000 ) ) ;
#66 = UNCERTAINTY_MEASURE_WITH_UNIT (LENGTH_MEASURE( 1.000000000000000082E-05 ), #203, 'distance_accuracy_value', 'NONE');
#67 =( LENGTH_UNIT ( ) NAMED_UNIT ( * ) SI_UNIT ( $, .METRE. ) );
#68 = ORIENTED_EDGE ( 'NONE', *, *, #191, .F. ) ;
#69 = AXIS2_PLACEMENT_3D ( 'NONE', #85, #189, #289 ) ;
#70 = CARTESIAN_POINT ( 'NONE',  ( -0.06250000000000002776, 0.0000000000000000000, 1.500000000000000222 ) ) ;
#71 = FILL_AREA_STYLE_COLOUR ( '', #218 ) ;
#72 = EDGE_LOOP ( 'NONE', ( #278, #94, #229, #68 ) ) ;
#73 = AXIS2_PLACEMENT_3D ( 'NONE', #319, #219, #316 ) ;
#74 = ORIENTED_EDGE ( 'NONE', *, *, #51, .F. ) ;
#75 = CLOSED_SHELL ( 'NONE', ( #144, #158, #307, #77, #57, #309, #237, #220, #95, #290, #195 ) ) ;
#76 = DIRECTION ( 'NONE',  ( -1.000000000000000000, 0.0000000000000000000, 0.0000000000000000000 ) ) ;
#77 = ADVANCED_FACE ( 'NONE', ( #82 ), #249, .T. ) ;
#78 = VERTEX_POINT ( 'NONE', #185 ) ;
#79 = CIRCLE ( 'NONE', #157, 0.06250000000000002776 ) ;
#80 = DIRECTION ( 'NONE',  ( 1.000000000000000000, 0.0000000000000000000, 0.0000000000000000000 ) ) ;
#81 = PRODUCT_CONTEXT ( 'NONE', #84, 'mechanical' ) ;
#82 = FACE_OUTER_BOUND ( 'NONE', #120, .T. ) ;
#83 = DIRECTION ( 'NONE',  ( 0.0000000000000000000, 1.000000000000000000, 0.0000000000000000000 ) ) ;
#84 = APPLICATION_CONTEXT ( 'automotive_design' ) ;
#85 = CARTESIAN_POINT ( 'NONE',  ( 0.0000000000000000000, 0.0000000000000000000, 0.0000000000000000000 ) ) ;
#86 = DIRECTION ( 'NONE',  ( -1.224646799147353700E-16, -0.0000000000000000000, -1.000000000000000000 ) ) ;
#87 = EDGE_CURVE ( 'NONE', #150, #295, #281, .T. ) ;
#88 = FACE_OUTER_BOUND ( 'NONE', #172, .T. ) ;
#89 = CARTESIAN_POINT ( 'NONE',  ( 4.777463504919746737E-18, 0.0000000000000000000, 0.03901095000000000257 ) ) ;
#90 = AXIS2_PLACEMENT_3D ( 'NONE', #241, #137, #65 ) ;
#91 = CARTESIAN_POINT ( 'NONE',  ( -0.06249999999999997918, 0.0000000000000000000, 0.3212130222250907940 ) ) ;
#92 = EDGE_CURVE ( 'NONE', #126, #205, #282, .T. ) ;
#93 = DIRECTION ( 'NONE',  ( 1.000000000000000000, 0.0000000000000000000, 0.0000000000000000000 ) ) ;
#94 = ORIENTED_EDGE ( 'NONE', *, *, #51, .T. ) ;
#95 = ADVANCED_FACE ( 'NONE', ( #258 ), #288, .T. ) ;
#96 = ORIENTED_EDGE ( 'NONE', *, *, #31, .T. ) ;
#97 = ADVANCED_BREP_SHAPE_REPRESENTATION ( 'Micro_BEM-078-02', ( #41, #199 ), #259 ) ;
#98 = PRODUCT_DEFINITION_FORMATION_WITH_SPECIFIED_SOURCE ( 'ANY', '', #118, .NOT_KNOWN. ) ;
#99 = VECTOR ( 'NONE', #262, 39.37007874015747433 ) ;
#100 = EDGE_CURVE ( 'NONE', #25, #126, #37, .T. ) ;
#101 = CARTESIAN_POINT ( 'NONE',  ( 0.0000000000000000000, 0.0000000000000000000, 1.500000000000000222 ) ) ;
#102 = EDGE_LOOP ( 'NONE', ( #224, #274, #222 ) ) ;
#103 = DIRECTION ( 'NONE',  ( 1.224646799147353700E-16, 0.0000000000000000000, 1.000000000000000000 ) ) ;
#104 = ORIENTED_EDGE ( 'NONE', *, *, #191, .T. ) ;
#105 = ORIENTED_EDGE ( 'NONE', *, *, #5, .T. ) ;
#106 = ORIENTED_EDGE ( 'NONE', *, *, #291, .F. ) ;
#107 = DIRECTION ( 'NONE',  ( 0.0000000000000000000, 0.0000000000000000000, 1.000000000000000000 ) ) ;
#108 = CARTESIAN_POINT ( 'NONE',  ( 0.0000000000000000000, 0.0000000000000000000, 1.485000000000000764 ) ) ;
#109 = DIRECTION ( 'NONE',  ( -1.224646799147353700E-16, -0.0000000000000000000, -1.000000000000000000 ) ) ;
#110 = DIRECTION ( 'NONE',  ( -1.224646799147353700E-16, -0.0000000000000000000, -1.000000000000000000 ) ) ;
#111 = CARTESIAN_POINT ( 'NONE',  ( 4.777463504919746737E-18, 0.0000000000000000000, 0.03901095000000000257 ) ) ;
#112 = PRESENTATION_LAYER_ASSIGNMENT (  '', '', ( #299 ) ) ;
#113 = SPHERICAL_SURFACE ( 'NONE', #293, 0.03901095000000000257 ) ;
#114 = AXIS2_PLACEMENT_3D ( 'NONE', #215, #86, #115 ) ;
#115 = DIRECTION ( 'NONE',  ( 1.000000000000000000, 0.0000000000000000000, 0.0000000000000000000 ) ) ;
#116 = DIMENSIONAL_EXPONENTS ( 1.000000000000000000, 0.0000000000000000000, 0.0000000000000000000, 0.0000000000000000000, 0.0000000000000000000, 0.0000000000000000000, 0.0000000000000000000 ) ;
#117 = DIRECTION ( 'NONE',  ( 1.224646799147353700E-16, 0.0000000000000000000, 1.000000000000000000 ) ) ;
#118 = PRODUCT ( 'Micro_BEM-078-02', 'Micro_BEM-078-02', '', ( #81 ) ) ;
#119 = DIRECTION ( 'NONE',  ( 1.000000000000000000, 0.0000000000000000000, 0.0000000000000000000 ) ) ;
#120 = EDGE_LOOP ( 'NONE', ( #176, #21, #47, #228 ) ) ;
#121 =( NAMED_UNIT ( * ) PLANE_ANGLE_UNIT ( ) SI_UNIT ( $, .RADIAN. ) );
#122 = ORIENTED_EDGE ( 'NONE', *, *, #87, .T. ) ;
#123 = CARTESIAN_POINT ( 'NONE',  ( -0.04750000000000064587, 0.0000000000000000000, 1.500000000000000222 ) ) ;
#124 = ORIENTED_EDGE ( 'NONE', *, *, #208, .T. ) ;
#125 = CIRCLE ( 'NONE', #275, 0.03901095000000000257 ) ;
#126 = VERTEX_POINT ( 'NONE', #11 ) ;
#127 = AXIS2_PLACEMENT_3D ( 'NONE', #263, #103, #244 ) ;
#128 = FACE_OUTER_BOUND ( 'NONE', #247, .T. ) ;
#129 = AXIS2_PLACEMENT_3D ( 'NONE', #89, #217, #165 ) ;
#130 = SHAPE_DEFINITION_REPRESENTATION ( #186, #97 ) ;
#131 = DIRECTION ( 'NONE',  ( 0.1736481776669313859, 0.0000000000000000000, 0.9848077530122077983 ) ) ;
#132 = SURFACE_STYLE_FILL_AREA ( #302 ) ;
#133 = CIRCLE ( 'NONE', #114, 0.06250000000000002776 ) ;
#134 = SURFACE_SIDE_STYLE ('',( #132 ) ) ;
#135 = DIRECTION ( 'NONE',  ( 0.0000000000000000000, -1.000000000000000000, 0.0000000000000000000 ) ) ;
#136 = PRODUCT_DEFINITION_CONTEXT ( 'detailed design', #270, 'design' ) ;
#137 = DIRECTION ( 'NONE',  ( 0.0000000000000000000, 0.0000000000000000000, 1.000000000000000000 ) ) ;
#138 = CONICAL_SURFACE ( 'NONE', #22, 0.03901095000000000257, 0.1745329251994338915 ) ;
#139 = DIRECTION ( 'NONE',  ( -0.0000000000000000000, -0.0000000000000000000, -1.000000000000000000 ) ) ;
#140 = AXIS2_PLACEMENT_3D ( 'NONE', #35, #109, #178 ) ;
#141 = CARTESIAN_POINT ( 'NONE',  ( 2.302335982397025094E-17, 0.0000000000000000000, 0.1880000000000000282 ) ) ;
#142 = DIRECTION ( 'NONE',  ( -0.0000000000000000000, -0.0000000000000000000, -1.000000000000000000 ) ) ;
#143 = EDGE_LOOP ( 'NONE', ( #147, #153, #105, #104 ) ) ;
#144 = ADVANCED_FACE ( 'NONE', ( #260 ), #63, .T. ) ;
#145 = VECTOR ( 'NONE', #110, 39.37007874015748143 ) ;
#146 = FACE_OUTER_BOUND ( 'NONE', #72, .T. ) ;
#147 = ORIENTED_EDGE ( 'NONE', *, *, #87, .F. ) ;
#148 = PRESENTATION_STYLE_ASSIGNMENT (( #46 ) ) ;
#149 = EDGE_CURVE ( 'NONE', #1, #78, #33, .T. ) ;
#150 = VERTEX_POINT ( 'NONE', #168 ) ;
#151 =( NAMED_UNIT ( * ) PLANE_ANGLE_UNIT ( ) SI_UNIT ( $, .RADIAN. ) );
#152 = ORIENTED_EDGE ( 'NONE', *, *, #31, .F. ) ;
#153 = ORIENTED_EDGE ( 'NONE', *, *, #248, .F. ) ;
#154 = CARTESIAN_POINT ( 'NONE',  ( 0.0000000000000000000, 0.0000000000000000000, 1.485000000000000764 ) ) ;
#155 = DIRECTION ( 'NONE',  ( 1.000000000000000000, 0.0000000000000000000, 0.0000000000000000000 ) ) ;
#156 =( LENGTH_UNIT ( ) NAMED_UNIT ( * ) SI_UNIT ( $, .METRE. ) );
#157 = AXIS2_PLACEMENT_3D ( 'NONE', #154, #305, #34 ) ;
#158 = ADVANCED_FACE ( 'NONE', ( #88 ), #213, .T. ) ;
#159 = CARTESIAN_POINT ( 'NONE',  ( 0.03901095000000003032, 0.0000000000000000000, 0.1880000000000000282 ) ) ;
#160 = UNCERTAINTY_MEASURE_WITH_UNIT (LENGTH_MEASURE( 1.000000000000000082E-05 ), #173, 'distance_accuracy_value', 'NONE');
#161 = CARTESIAN_POINT ( 'NONE',  ( 0.03901095000000000257, 4.777463504919744426E-18, -4.777463504919746737E-18 ) ) ;
#162 = PRESENTATION_STYLE_ASSIGNMENT (( #56 ) ) ;
#163 = UNCERTAINTY_MEASURE_WITH_UNIT (LENGTH_MEASURE( 1.000000000000000082E-05 ), #303, 'distance_accuracy_value', 'NONE');
#164 = FACE_OUTER_BOUND ( 'NONE', #325, .T. ) ;
#165 = DIRECTION ( 'NONE',  ( 1.000000000000000000, 0.0000000000000000000, 0.0000000000000000000 ) ) ;
#166 = DIRECTION ( 'NONE',  ( 1.000000000000000000, 0.0000000000000000000, 0.0000000000000000000 ) ) ;
#167 = DIRECTION ( 'NONE',  ( -1.224646799147353700E-16, -0.0000000000000000000, -1.000000000000000000 ) ) ;
#168 = CARTESIAN_POINT ( 'NONE',  ( -0.03901094999999998175, 6.215752999795353296E-18, 0.1880000000000000282 ) ) ;
#169 = ORIENTED_EDGE ( 'NONE', *, *, #321, .F. ) ;
#170 = ORIENTED_EDGE ( 'NONE', *, *, #257, .T. ) ;
#171 = COLOUR_RGB ( '',0.7921568627450980005, 0.8196078431372548767, 0.9333333333333333481 ) ;
#172 = EDGE_LOOP ( 'NONE', ( #124, #300, #245, #152 ) ) ;
#173 =( CONVERSION_BASED_UNIT ( 'INCH', #323 ) LENGTH_UNIT ( ) NAMED_UNIT ( #58 ) );
#174 = ORIENTED_EDGE ( 'NONE', *, *, #321, .T. ) ;
#175 = CYLINDRICAL_SURFACE ( 'NONE', #29, 0.06250000000000002776 ) ;
#176 = ORIENTED_EDGE ( 'NONE', *, *, #26, .F. ) ;
#177 = AXIS2_PLACEMENT_3D ( 'NONE', #15, #193, #16 ) ;
#178 = DIRECTION ( 'NONE',  ( 1.000000000000000000, 0.0000000000000000000, 0.0000000000000000000 ) ) ;
#179 = EDGE_CURVE ( 'NONE', #1, #324, #194, .T. ) ;
#180 = DIRECTION ( 'NONE',  ( 0.0000000000000000000, 0.0000000000000000000, -1.000000000000000000 ) ) ;
#181 = LINE ( 'NONE', #30, #145 ) ;
#182 = VECTOR ( 'NONE', #139, 39.37007874015748143 ) ;
#183 = APPLICATION_PROTOCOL_DEFINITION ( 'draft international standard', 'automotive_design', 1998, #270 ) ;
#184 = CARTESIAN_POINT ( 'NONE',  ( 0.0000000000000000000, 0.0000000000000000000, 1.500000000000000222 ) ) ;
#185 = CARTESIAN_POINT ( 'NONE',  ( -0.03901094999999999563, 0.0000000000000000000, 0.03901095000000000951 ) ) ;
#186 = PRODUCT_DEFINITION_SHAPE ( 'NONE', 'NONE',  #267 ) ;
#187 = DIRECTION ( 'NONE',  ( -1.000000000000000000, 0.0000000000000000000, 0.0000000000000000000 ) ) ;
#188 = AXIS2_PLACEMENT_3D ( 'NONE', #207, #252, #304 ) ;
#189 = DIRECTION ( 'NONE',  ( -1.224646799147353700E-16, -0.0000000000000000000, -1.000000000000000000 ) ) ;
#190 = DIRECTION ( 'NONE',  ( 1.224646799147353700E-16, 0.0000000000000000000, 1.000000000000000000 ) ) ;
#191 = EDGE_CURVE ( 'NONE', #205, #295, #133, .T. ) ;
#192 = CARTESIAN_POINT ( 'NONE',  ( 4.777463504919746737E-18, 0.0000000000000000000, 0.03901095000000000257 ) ) ;
#193 = DIRECTION ( 'NONE',  ( -1.224646799147353700E-16, -0.0000000000000000000, -1.000000000000000000 ) ) ;
#194 = CIRCLE ( 'NONE', #253, 0.03901095000000000257 ) ;
#195 = ADVANCED_FACE ( 'NONE', ( #285 ), #113, .T. ) ;
#196 = CARTESIAN_POINT ( 'NONE',  ( 0.03901095000000000951, 4.777463504919744426E-18, 0.03901094999999999563 ) ) ;
#197 = DIRECTION ( 'NONE',  ( -1.000000000000000000, 0.0000000000000000000, 0.0000000000000000000 ) ) ;
#198 = ORIENTED_EDGE ( 'NONE', *, *, #49, .T. ) ;
#199 = AXIS2_PLACEMENT_3D ( 'NONE', #251, #107, #155 ) ;
#200 = ORIENTED_EDGE ( 'NONE', *, *, #5, .F. ) ;
#201 = SURFACE_STYLE_FILL_AREA ( #266 ) ;
#202 = VERTEX_POINT ( 'NONE', #236 ) ;
#203 =( CONVERSION_BASED_UNIT ( 'INCH', #273 ) LENGTH_UNIT ( ) NAMED_UNIT ( #116 ) );
#204 = ORIENTED_EDGE ( 'NONE', *, *, #20, .T. ) ;
#205 = VERTEX_POINT ( 'NONE', #14 ) ;
#206 = CARTESIAN_POINT ( 'NONE',  ( 0.04750000000000064587, 6.735557395310483192E-18, 1.500000000000000222 ) ) ;
#207 = CARTESIAN_POINT ( 'NONE',  ( 0.0000000000000000000, 0.0000000000000000000, 1.500000000000000222 ) ) ;
#208 = EDGE_CURVE ( 'NONE', #150, #202, #13, .T. ) ;
#209 = LINE ( 'NONE', #159, #2 ) ;
#210 = VECTOR ( 'NONE', #211, 39.37007874015748143 ) ;
#211 = DIRECTION ( 'NONE',  ( -1.224646799147353700E-16, -0.0000000000000000000, -1.000000000000000000 ) ) ;
#212 = CARTESIAN_POINT ( 'NONE',  ( 0.0000000000000000000, 0.0000000000000000000, 1.500000000000000222 ) ) ;
#213 = CYLINDRICAL_SURFACE ( 'NONE', #69, 0.03901095000000000257 ) ;
#214 = PRODUCT_RELATED_PRODUCT_CATEGORY ( 'part', '', ( #118 ) ) ;
#215 = CARTESIAN_POINT ( 'NONE',  ( 3.933724995124051744E-17, 0.0000000000000000000, 0.3212130222250907940 ) ) ;
#216 = CARTESIAN_POINT ( 'NONE',  ( 4.777463504919746737E-18, 0.0000000000000000000, 0.03901095000000000257 ) ) ;
#217 = DIRECTION ( 'NONE',  ( 0.0000000000000000000, 1.000000000000000000, 0.0000000000000000000 ) ) ;
#218 = COLOUR_RGB ( '',0.7921568627450980005, 0.8196078431372548767, 0.9333333333333333481 ) ;
#219 = DIRECTION ( 'NONE',  ( -1.224646799147353700E-16, -0.0000000000000000000, -1.000000000000000000 ) ) ;
#220 = ADVANCED_FACE ( 'NONE', ( #60 ), #50, .T. ) ;
#221 =( LENGTH_UNIT ( ) NAMED_UNIT ( * ) SI_UNIT ( $, .METRE. ) );
#222 = ORIENTED_EDGE ( 'NONE', *, *, #243, .F. ) ;
#223 = FACE_OUTER_BOUND ( 'NONE', #297, .T. ) ;
#224 = ORIENTED_EDGE ( 'NONE', *, *, #179, .F. ) ;
#225 = ORIENTED_EDGE ( 'NONE', *, *, #100, .F. ) ;
#226 = AXIS2_PLACEMENT_3D ( 'NONE', #111, #308, #313 ) ;
#227 = CARTESIAN_POINT ( 'NONE',  ( 2.302335982397025094E-17, 0.0000000000000000000, 0.1880000000000000282 ) ) ;
#228 = ORIENTED_EDGE ( 'NONE', *, *, #49, .F. ) ;
#229 = ORIENTED_EDGE ( 'NONE', *, *, #291, .T. ) ;
#230 = DIRECTION ( 'NONE',  ( -0.0000000000000000000, -0.0000000000000000000, -1.000000000000000000 ) ) ;
#231 =( GEOMETRIC_REPRESENTATION_CONTEXT ( 3 ) GLOBAL_UNCERTAINTY_ASSIGNED_CONTEXT ( ( #163 ) ) GLOBAL_UNIT_ASSIGNED_CONTEXT ( ( #303, #233, #7 ) ) REPRESENTATION_CONTEXT ( 'NONE', 'WORKASPACE' ) );
#232 = CYLINDRICAL_SURFACE ( 'NONE', #284, 0.06250000000000002776 ) ;
#233 =( NAMED_UNIT ( * ) PLANE_ANGLE_UNIT ( ) SI_UNIT ( $, .RADIAN. ) );
#234 = FILL_AREA_STYLE_COLOUR ( '', #171 ) ;
#235 = AXIS2_PLACEMENT_3D ( 'NONE', #261, #312, #42 ) ;
#236 = CARTESIAN_POINT ( 'NONE',  ( 0.03901095000000003032, 0.0000000000000000000, 0.1880000000000000282 ) ) ;
#237 = ADVANCED_FACE ( 'NONE', ( #164 ), #38, .T. ) ;
#238 = CARTESIAN_POINT ( 'NONE',  ( 4.777463504919746737E-18, 0.0000000000000000000, 0.03901095000000000257 ) ) ;
#239 = CIRCLE ( 'NONE', #188, 0.04750000000000064587 ) ;
#240 = DIRECTION ( 'NONE',  ( 1.000000000000000000, 0.0000000000000000000, 0.0000000000000000000 ) ) ;
#241 = CARTESIAN_POINT ( 'NONE',  ( 0.0000000000000000000, 0.0000000000000000000, 1.500000000000000222 ) ) ;
#242 = DIRECTION ( 'NONE',  ( 0.0000000000000000000, 0.0000000000000000000, 1.000000000000000000 ) ) ;
#243 = EDGE_CURVE ( 'NONE', #324, #78, #125, .T. ) ;
#244 = DIRECTION ( 'NONE',  ( -1.000000000000000000, 0.0000000000000000000, 2.188366338220633428E-16 ) ) ;
#245 = ORIENTED_EDGE ( 'NONE', *, *, #243, .T. ) ;
#246 = ORIENTED_EDGE ( 'NONE', *, *, #61, .F. ) ;
#247 = EDGE_LOOP ( 'NONE', ( #250, #3, #292, #106 ) ) ;
#248 = EDGE_CURVE ( 'NONE', #202, #150, #315, .T. ) ;
#249 = CONICAL_SURFACE ( 'NONE', #4, 0.04750000000000064587, 0.7853981633974466137 ) ;
#250 = ORIENTED_EDGE ( 'NONE', *, *, #53, .T. ) ;
#251 = CARTESIAN_POINT ( 'NONE',  ( 0.0000000000000000000, 0.0000000000000000000, 0.0000000000000000000 ) ) ;
#252 = DIRECTION ( 'NONE',  ( 0.0000000000000000000, 0.0000000000000000000, 1.000000000000000000 ) ) ;
#253 = AXIS2_PLACEMENT_3D ( 'NONE', #192, #135, #287 ) ;
#254 = DIRECTION ( 'NONE',  ( -0.7071067811865462405, 0.0000000000000000000, -0.7071067811865486830 ) ) ;
#255 = CARTESIAN_POINT ( 'NONE',  ( -0.04750000000000064587, 0.0000000000000000000, 1.500000000000000222 ) ) ;
#256 = FACE_OUTER_BOUND ( 'NONE', #18, .T. ) ;
#257 = EDGE_CURVE ( 'NONE', #318, #25, #36, .T. ) ;
#258 = FACE_OUTER_BOUND ( 'NONE', #143, .T. ) ;
#259 =( GEOMETRIC_REPRESENTATION_CONTEXT ( 3 ) GLOBAL_UNCERTAINTY_ASSIGNED_CONTEXT ( ( #66 ) ) GLOBAL_UNIT_ASSIGNED_CONTEXT ( ( #203, #121, #317 ) ) REPRESENTATION_CONTEXT ( 'NONE', 'WORKASPACE' ) );
#260 = FACE_OUTER_BOUND ( 'NONE', #102, .T. ) ;
#261 = CARTESIAN_POINT ( 'NONE',  ( 0.0000000000000000000, 0.0000000000000000000, 1.500000000000000222 ) ) ;
#262 = DIRECTION ( 'NONE',  ( -0.1736481776669311916, 2.126576849575783316E-17, 0.9848077530122080203 ) ) ;
#263 = CARTESIAN_POINT ( 'NONE',  ( 4.777463504919746737E-18, 0.0000000000000000000, 0.03901095000000000257 ) ) ;
#264 = ORIENTED_EDGE ( 'NONE', *, *, #179, .T. ) ;
#265 = AXIS2_PLACEMENT_3D ( 'NONE', #286, #117, #166 ) ;
#266 = FILL_AREA_STYLE ('',( #71 ) ) ;
#267 = PRODUCT_DEFINITION ( 'UNKNOWN', '', #98, #136 ) ;
#268 = APPLICATION_PROTOCOL_DEFINITION ( 'draft international standard', 'automotive_design', 1998, #84 ) ;
#269 = ORIENTED_EDGE ( 'NONE', *, *, #149, .F. ) ;
#270 = APPLICATION_CONTEXT ( 'automotive_design' ) ;
#271 = EDGE_LOOP ( 'NONE', ( #269, #264, #169 ) ) ;
#272 = VECTOR ( 'NONE', #142, 39.37007874015748143 ) ;
#273 = LENGTH_MEASURE_WITH_UNIT ( LENGTH_MEASURE( 0.02539999999999999897 ), #221 );
#274 = ORIENTED_EDGE ( 'NONE', *, *, #149, .T. ) ;
#275 = AXIS2_PLACEMENT_3D ( 'NONE', #238, #190, #62 ) ;
#276 = DIRECTION ( 'NONE',  ( -1.000000000000000000, 0.0000000000000000000, 0.0000000000000000000 ) ) ;
#277 = CIRCLE ( 'NONE', #127, 0.03901095000000000257 ) ;
#278 = ORIENTED_EDGE ( 'NONE', *, *, #92, .F. ) ;
#279 = PRESENTATION_LAYER_ASSIGNMENT (  '', '', ( #59 ) ) ;
#280 = LINE ( 'NONE', #161, #210 ) ;
#281 = LINE ( 'NONE', #306, #99 ) ;
#282 = LINE ( 'NONE', #39, #182 ) ;
#283 =( GEOMETRIC_REPRESENTATION_CONTEXT ( 3 ) GLOBAL_UNCERTAINTY_ASSIGNED_CONTEXT ( ( #160 ) ) GLOBAL_UNIT_ASSIGNED_CONTEXT ( ( #173, #151, #27 ) ) REPRESENTATION_CONTEXT ( 'NONE', 'WORKASPACE' ) );
#284 = AXIS2_PLACEMENT_3D ( 'NONE', #184, #230, #276 ) ;
#285 = FACE_OUTER_BOUND ( 'NONE', #271, .T. ) ;
#286 = CARTESIAN_POINT ( 'NONE',  ( 2.302335982397025094E-17, 0.0000000000000000000, 0.1880000000000000282 ) ) ;
#287 = DIRECTION ( 'NONE',  ( 0.0000000000000000000, 0.0000000000000000000, -1.000000000000000000 ) ) ;
#288 = CONICAL_SURFACE ( 'NONE', #265, 0.03901095000000000257, 0.1745329251994338915 ) ;
#289 = DIRECTION ( 'NONE',  ( -1.000000000000000000, 0.0000000000000000000, 1.224646799147353947E-16 ) ) ;
#290 = ADVANCED_FACE ( 'NONE', ( #256 ), #294, .T. ) ;
#291 = EDGE_CURVE ( 'NONE', #48, #295, #44, .T. ) ;
#292 = ORIENTED_EDGE ( 'NONE', *, *, #20, .F. ) ;
#293 = AXIS2_PLACEMENT_3D ( 'NONE', #216, #83, #240 ) ;
#294 = CYLINDRICAL_SURFACE ( 'NONE', #73, 0.03901095000000000257 ) ;
#295 = VERTEX_POINT ( 'NONE', #91 ) ;
#296 = SURFACE_SIDE_STYLE ('',( #201 ) ) ;
#297 = EDGE_LOOP ( 'NONE', ( #298, #122, #204, #200 ) ) ;
#298 = ORIENTED_EDGE ( 'NONE', *, *, #208, .F. ) ;
#299 = STYLED_ITEM ( 'NONE', ( #148 ), #97 ) ;
#300 = ORIENTED_EDGE ( 'NONE', *, *, #61, .T. ) ;
#301 = MECHANICAL_DESIGN_GEOMETRIC_PRESENTATION_REPRESENTATION (  '', ( #59 ), #231 ) ;
#302 = FILL_AREA_STYLE ('',( #234 ) ) ;
#303 =( CONVERSION_BASED_UNIT ( 'INCH', #8 ) LENGTH_UNIT ( ) NAMED_UNIT ( #310 ) );
#304 = DIRECTION ( 'NONE',  ( 1.000000000000000000, 0.0000000000000000000, 0.0000000000000000000 ) ) ;
#305 = DIRECTION ( 'NONE',  ( 0.0000000000000000000, 0.0000000000000000000, -1.000000000000000000 ) ) ;
#306 = CARTESIAN_POINT ( 'NONE',  ( -0.03901094999999998175, 4.777463504919744426E-18, 0.1880000000000000282 ) ) ;
#307 = ADVANCED_FACE ( 'NONE', ( #223 ), #138, .T. ) ;
#308 = DIRECTION ( 'NONE',  ( 1.224646799147353207E-16, 1.000000000000000000, -0.0000000000000000000 ) ) ;
#309 = ADVANCED_FACE ( 'NONE', ( #146 ), #175, .T. ) ;
#310 = DIMENSIONAL_EXPONENTS ( 1.000000000000000000, 0.0000000000000000000, 0.0000000000000000000, 0.0000000000000000000, 0.0000000000000000000, 0.0000000000000000000, 0.0000000000000000000 ) ;
#311 = AXIS2_PLACEMENT_3D ( 'NONE', #314, #242, #119 ) ;
#312 = DIRECTION ( 'NONE',  ( 0.0000000000000000000, 0.0000000000000000000, -1.000000000000000000 ) ) ;
#313 = DIRECTION ( 'NONE',  ( -1.000000000000000000, 1.224646799147353207E-16, 0.0000000000000000000 ) ) ;
#314 = CARTESIAN_POINT ( 'NONE',  ( 0.0000000000000000000, 0.0000000000000000000, 1.500000000000000222 ) ) ;
#315 = CIRCLE ( 'NONE', #177, 0.03901095000000000257 ) ;
#316 = DIRECTION ( 'NONE',  ( -1.000000000000000000, 0.0000000000000000000, 1.224646799147353947E-16 ) ) ;
#317 =( NAMED_UNIT ( * ) SI_UNIT ( $, .STERADIAN. ) SOLID_ANGLE_UNIT ( ) );
#318 = VERTEX_POINT ( 'NONE', #123 ) ;
#319 = CARTESIAN_POINT ( 'NONE',  ( 0.0000000000000000000, 0.0000000000000000000, 0.0000000000000000000 ) ) ;
#320 = ORIENTED_EDGE ( 'NONE', *, *, #248, .T. ) ;
#321 = EDGE_CURVE ( 'NONE', #78, #324, #277, .T. ) ;
#322 = AXIS2_PLACEMENT_3D ( 'NONE', #108, #180, #80 ) ;
#323 = LENGTH_MEASURE_WITH_UNIT ( LENGTH_MEASURE( 0.02539999999999999897 ), #67 );
#324 = VERTEX_POINT ( 'NONE', #196 ) ;
#325 = EDGE_LOOP ( 'NONE', ( #170, #45 ) ) ;
ENDSEC;
END-ISO-10303-21;
