ISO-10303-21;
HEADER;
FILE_DESCRIPTION (( 'STEP AP214' ),
    '1' );
FILE_NAME ('59703.STEP',
    '2023-07-24T15:53:55',
    ( '' ),
    ( '' ),
    'SwSTEP 2.0',
    'SolidWorks 2023',
    '' );
FILE_SCHEMA (( 'AUTOMOTIVE_DESIGN' ));
ENDSEC;

DATA;
#1 = ADVANCED_FACE ( 'NONE', ( #140 ), #260, .T. ) ;
#2 = LINE ( 'NONE', #154, #25 ) ;
#3 = MECHANICAL_DESIGN_GEOMETRIC_PRESENTATION_REPRESENTATION (  '', ( #271 ), #251 ) ;
#4 = STYLED_ITEM ( 'NONE', ( #105 ), #183 ) ;
#5 = DIRECTION ( 'NONE',  ( -1.000000000000000000, 3.061616997868382402E-17, 0.000000000000000000 ) ) ;
#6 = DIRECTION ( 'NONE',  ( -0.000000000000000000, -1.000000000000000000, -0.000000000000000000 ) ) ;
#7 = PRESENTATION_LAYER_ASSIGNMENT (  '', '', ( #271 ) ) ;
#8 = AXIS2_PLACEMENT_3D ( 'NONE', #22, #198, #107 ) ;
#9 = VERTEX_POINT ( 'NONE', #283 ) ;
#10 = ORIENTED_EDGE ( 'NONE', *, *, #230, .T. ) ;
#11 = CARTESIAN_POINT ( 'NONE',  ( -4.999999999999997335, 63.00000000000000000, 0.000000000000000000 ) ) ;
#12 = CYLINDRICAL_SURFACE ( 'NONE', #180, 5.000000000000000000 ) ;
#13 = DIRECTION ( 'NONE',  ( 3.061616997868382402E-17, 1.000000000000000000, -0.000000000000000000 ) ) ;
#14 = SHAPE_DEFINITION_REPRESENTATION ( #111, #68 ) ;
#15 = STYLED_ITEM ( 'NONE', ( #227 ), #197 ) ;
#16 = DIRECTION ( 'NONE',  ( -0.000000000000000000, -1.000000000000000000, -0.000000000000000000 ) ) ;
#17 = FILL_AREA_STYLE ('',( #151 ) ) ;
#18 = EDGE_CURVE ( 'NONE', #79, #50, #157, .T. ) ;
#19 = AXIS2_PLACEMENT_3D ( 'NONE', #56, #13, #5 ) ;
#20 = CARTESIAN_POINT ( 'NONE',  ( 0.000000000000000000, 15.00000000000000000, 0.000000000000000000 ) ) ;
#21 = VECTOR ( 'NONE', #40, 1000.000000000000000 ) ;
#22 = CARTESIAN_POINT ( 'NONE',  ( 1.469576158976823750E-15, 63.00000000000000000, 0.000000000000000000 ) ) ;
#23 = UNCERTAINTY_MEASURE_WITH_UNIT (LENGTH_MEASURE( 1.000000000000000082E-05 ), #136, 'distance_accuracy_value', 'NONE');
#24 =( NAMED_UNIT ( * ) PLANE_ANGLE_UNIT ( ) SI_UNIT ( $, .RADIAN. ) );
#25 = VECTOR ( 'NONE', #75, 1000.000000000000000 ) ;
#26 = DIRECTION ( 'NONE',  ( -1.000000000000000000, 0.000000000000000000, 0.000000000000000000 ) ) ;
#27 =( LENGTH_UNIT ( ) NAMED_UNIT ( * ) SI_UNIT ( .MILLI., .METRE. ) );
#28 =( NAMED_UNIT ( * ) PLANE_ANGLE_UNIT ( ) SI_UNIT ( $, .RADIAN. ) );
#29 = CARTESIAN_POINT ( 'NONE',  ( 5.000000000000000000, 63.00000000000000000, 6.123233995736766282E-16 ) ) ;
#30 = EDGE_LOOP ( 'NONE', ( #10, #200 ) ) ;
#31 = AXIS2_PLACEMENT_3D ( 'NONE', #119, #6, #188 ) ;
#32 = CIRCLE ( 'NONE', #8, 4.999999999999998224 ) ;
#33 = CIRCLE ( 'NONE', #175, 5.000000000000000000 ) ;
#34 = DIRECTION ( 'NONE',  ( 3.061616997868382402E-17, 1.000000000000000000, -0.000000000000000000 ) ) ;
#35 = LINE ( 'NONE', #11, #72 ) ;
#36 = ORIENTED_EDGE ( 'NONE', *, *, #18, .F. ) ;
#37 = PRODUCT_DEFINITION_CONTEXT ( 'detailed design', #89, 'design' ) ;
#38 = DIRECTION ( 'NONE',  ( 1.000000000000000000, 0.000000000000000000, 0.000000000000000000 ) ) ;
#39 = DIRECTION ( 'NONE',  ( -1.000000000000000000, 0.000000000000000000, 0.000000000000000000 ) ) ;
#40 = DIRECTION ( 'NONE',  ( -0.000000000000000000, -1.000000000000000000, -0.000000000000000000 ) ) ;
#41 = AXIS2_PLACEMENT_3D ( 'NONE', #181, #241, #38 ) ;
#42 = PRESENTATION_STYLE_ASSIGNMENT (( #195 ) ) ;
#43 = DIRECTION ( 'NONE',  ( 3.061616997868382402E-17, 1.000000000000000000, -0.000000000000000000 ) ) ;
#44 = ADVANCED_FACE ( 'NONE', ( #100 ), #191, .F. ) ;
#45 = CIRCLE ( 'NONE', #179, 5.000000000000000000 ) ;
#46 = CARTESIAN_POINT ( 'NONE',  ( 0.000000000000000000, 15.00000000000000000, 0.000000000000000000 ) ) ;
#47 =( NAMED_UNIT ( * ) PLANE_ANGLE_UNIT ( ) SI_UNIT ( $, .RADIAN. ) );
#48 = ADVANCED_FACE ( 'NONE', ( #256 ), #259, .F. ) ;
#49 = PRESENTATION_STYLE_ASSIGNMENT (( #66 ) ) ;
#50 = VERTEX_POINT ( 'NONE', #184 ) ;
#51 = FILL_AREA_STYLE ('',( #101 ) ) ;
#52 = EDGE_CURVE ( 'NONE', #78, #79, #276, .T. ) ;
#53 = CARTESIAN_POINT ( 'NONE',  ( 6.123233995736766282E-16, 0.000000000000000000, 5.000000000000000000 ) ) ;
#54 =( GEOMETRIC_REPRESENTATION_CONTEXT ( 3 ) GLOBAL_UNCERTAINTY_ASSIGNED_CONTEXT ( ( #23 ) ) GLOBAL_UNIT_ASSIGNED_CONTEXT ( ( #136, #24, #205 ) ) REPRESENTATION_CONTEXT ( 'NONE', 'WORKASPACE' ) );
#55 = ORIENTED_EDGE ( 'NONE', *, *, #106, .T. ) ;
#56 = CARTESIAN_POINT ( 'NONE',  ( 2.343374660409151486E-33, 15.00000000000000000, 0.000000000000000000 ) ) ;
#57 = EDGE_LOOP ( 'NONE', ( #141, #162, #226, #69 ) ) ;
#58 = COLOUR_RGB ( '',1.000000000000000000, 0.000000000000000000, 0.000000000000000000 ) ;
#59 = CARTESIAN_POINT ( 'NONE',  ( 0.000000000000000000, 0.000000000000000000, 0.000000000000000000 ) ) ;
#60 = VERTEX_POINT ( 'NONE', #53 ) ;
#61 =( NAMED_UNIT ( * ) SI_UNIT ( $, .STERADIAN. ) SOLID_ANGLE_UNIT ( ) );
#62 =( LENGTH_UNIT ( ) NAMED_UNIT ( * ) SI_UNIT ( .MILLI., .METRE. ) );
#63 = VECTOR ( 'NONE', #159, 1000.000000000000000 ) ;
#64 = FACE_OUTER_BOUND ( 'NONE', #124, .T. ) ;
#65 = DIRECTION ( 'NONE',  ( 0.000000000000000000, -0.000000000000000000, 1.000000000000000000 ) ) ;
#66 = SURFACE_STYLE_USAGE ( .BOTH. , #135 ) ;
#67 = FACE_OUTER_BOUND ( 'NONE', #76, .T. ) ;
#68 = ADVANCED_BREP_SHAPE_REPRESENTATION ( '59703', ( #197, #94, #41 ), #161 ) ;
#69 = ORIENTED_EDGE ( 'NONE', *, *, #263, .F. ) ;
#70 = SURFACE_STYLE_FILL_AREA ( #273 ) ;
#71 = UNCERTAINTY_MEASURE_WITH_UNIT (LENGTH_MEASURE( 1.000000000000000082E-05 ), #178, 'distance_accuracy_value', 'NONE');
#72 = VECTOR ( 'NONE', #123, 1000.000000000000000 ) ;
#73 = SURFACE_SIDE_STYLE ('',( #99 ) ) ;
#74 = CARTESIAN_POINT ( 'NONE',  ( 5.000000000000000888, 63.00000000000000000, 6.123233995736765296E-16 ) ) ;
#75 = DIRECTION ( 'NONE',  ( -0.000000000000000000, -1.000000000000000000, -0.000000000000000000 ) ) ;
#76 = EDGE_LOOP ( 'NONE', ( #210, #206 ) ) ;
#77 = AXIS2_PLACEMENT_3D ( 'NONE', #20, #43, #39 ) ;
#78 = VERTEX_POINT ( 'NONE', #139 ) ;
#79 = VERTEX_POINT ( 'NONE', #29 ) ;
#80 = EDGE_LOOP ( 'NONE', ( #282, #234 ) ) ;
#81 = EDGE_CURVE ( 'NONE', #97, #60, #228, .T. ) ;
#82 = UNCERTAINTY_MEASURE_WITH_UNIT (LENGTH_MEASURE( 1.000000000000000082E-05 ), #27, 'distance_accuracy_value', 'NONE');
#83 =( GEOMETRIC_REPRESENTATION_CONTEXT ( 3 ) GLOBAL_UNCERTAINTY_ASSIGNED_CONTEXT ( ( #71 ) ) GLOBAL_UNIT_ASSIGNED_CONTEXT ( ( #178, #47, #90 ) ) REPRESENTATION_CONTEXT ( 'NONE', 'WORKASPACE' ) );
#84 = DIRECTION ( 'NONE',  ( 0.000000000000000000, 0.000000000000000000, -1.000000000000000000 ) ) ;
#85 = CYLINDRICAL_SURFACE ( 'NONE', #133, 5.000000000000000000 ) ;
#86 = DIRECTION ( 'NONE',  ( 0.000000000000000000, 0.000000000000000000, -1.000000000000000000 ) ) ;
#87 = PRESENTATION_LAYER_ASSIGNMENT (  '', '', ( #15 ) ) ;
#88 =( NAMED_UNIT ( * ) PLANE_ANGLE_UNIT ( ) SI_UNIT ( $, .RADIAN. ) );
#89 = APPLICATION_CONTEXT ( 'automotive_design' ) ;
#90 =( NAMED_UNIT ( * ) SI_UNIT ( $, .STERADIAN. ) SOLID_ANGLE_UNIT ( ) );
#91 = COLOUR_RGB ( '',0.7921568627450980005, 0.8196078431372548767, 0.9333333333333333481 ) ;
#92 = UNCERTAINTY_MEASURE_WITH_UNIT (LENGTH_MEASURE( 1.000000000000000082E-05 ), #239, 'distance_accuracy_value', 'NONE');
#93 = PRODUCT_CONTEXT ( 'NONE', #232, 'mechanical' ) ;
#94 = MANIFOLD_SOLID_BREP ( 'Revolve - Tool Body (Straight Shanked)', #127 ) ;
#95 = ORIENTED_EDGE ( 'NONE', *, *, #213, .F. ) ;
#96 = CIRCLE ( 'NONE', #249, 5.000000000000000000 ) ;
#97 = VERTEX_POINT ( 'NONE', #115 ) ;
#98 = ADVANCED_FACE ( 'NONE', ( #137 ), #247, .T. ) ;
#99 = SURFACE_STYLE_FILL_AREA ( #51 ) ;
#100 = FACE_OUTER_BOUND ( 'NONE', #30, .T. ) ;
#101 = FILL_AREA_STYLE_COLOUR ( '', #248 ) ;
#102 = MECHANICAL_DESIGN_GEOMETRIC_PRESENTATION_REPRESENTATION (  '', ( #116 ), #54 ) ;
#103 = SURFACE_SIDE_STYLE ('',( #221 ) ) ;
#104 = SURFACE_SIDE_STYLE ('',( #146 ) ) ;
#105 = PRESENTATION_STYLE_ASSIGNMENT (( #193 ) ) ;
#106 = EDGE_CURVE ( 'NONE', #185, #50, #35, .T. ) ;
#107 = DIRECTION ( 'NONE',  ( -1.000000000000000000, 0.000000000000000000, 0.000000000000000000 ) ) ;
#108 = EDGE_CURVE ( 'NONE', #9, #281, #45, .T. ) ;
#109 = SURFACE_STYLE_USAGE ( .BOTH. , #131 ) ;
#110 = PRESENTATION_LAYER_ASSIGNMENT (  '', '', ( #117 ) ) ;
#111 = PRODUCT_DEFINITION_SHAPE ( 'NONE', 'NONE',  #144 ) ;
#112 = UNCERTAINTY_MEASURE_WITH_UNIT (LENGTH_MEASURE( 1.000000000000000082E-05 ), #176, 'distance_accuracy_value', 'NONE');
#113 = SURFACE_STYLE_USAGE ( .BOTH. , #253 ) ;
#114 =( LENGTH_UNIT ( ) NAMED_UNIT ( * ) SI_UNIT ( .MILLI., .METRE. ) );
#115 = CARTESIAN_POINT ( 'NONE',  ( 0.000000000000000000, 0.000000000000000000, -5.000000000000000000 ) ) ;
#116 = STYLED_ITEM ( 'NONE', ( #190 ), #128 ) ;
#117 = STYLED_ITEM ( 'NONE', ( #229 ), #203 ) ;
#118 = DIRECTION ( 'NONE',  ( -1.000000000000000000, 0.000000000000000000, 0.000000000000000000 ) ) ;
#119 = CARTESIAN_POINT ( 'NONE',  ( 0.000000000000000000, 0.000000000000000000, 0.000000000000000000 ) ) ;
#120 = EDGE_LOOP ( 'NONE', ( #130, #165, #278, #155 ) ) ;
#121 = EDGE_LOOP ( 'NONE', ( #164, #189 ) ) ;
#122 = PRODUCT_RELATED_PRODUCT_CATEGORY ( 'part', '', ( #163 ) ) ;
#123 = DIRECTION ( 'NONE',  ( 3.061616997868382402E-17, 1.000000000000000000, -0.000000000000000000 ) ) ;
#124 = EDGE_LOOP ( 'NONE', ( #138, #147, #240, #95 ) ) ;
#125 = CARTESIAN_POINT ( 'NONE',  ( 0.000000000000000000, 15.00000000000000000, 0.000000000000000000 ) ) ;
#126 = FILL_AREA_STYLE_COLOUR ( '', #280 ) ;
#127 = CLOSED_SHELL ( 'NONE', ( #1, #48, #98, #44 ) ) ;
#128 = ADVANCED_FACE ( 'NONE', ( #145 ), #168, .T. ) ;
#129 = DIRECTION ( 'NONE',  ( -0.000000000000000000, -1.000000000000000000, -0.000000000000000000 ) ) ;
#130 = ORIENTED_EDGE ( 'NONE', *, *, #174, .T. ) ;
#131 = SURFACE_SIDE_STYLE ('',( #153 ) ) ;
#132 = COLOUR_RGB ( '',0.7921568627450980005, 0.8196078431372548767, 0.9333333333333333481 ) ;
#133 = AXIS2_PLACEMENT_3D ( 'NONE', #170, #194, #286 ) ;
#134 =( NAMED_UNIT ( * ) SI_UNIT ( $, .STERADIAN. ) SOLID_ANGLE_UNIT ( ) );
#135 = SURFACE_SIDE_STYLE ('',( #270 ) ) ;
#136 =( LENGTH_UNIT ( ) NAMED_UNIT ( * ) SI_UNIT ( .MILLI., .METRE. ) );
#137 = FACE_OUTER_BOUND ( 'NONE', #212, .T. ) ;
#138 = ORIENTED_EDGE ( 'NONE', *, *, #254, .F. ) ;
#139 = CARTESIAN_POINT ( 'NONE',  ( 5.000000000000000000, 15.00000000000000000, 6.123233995736766282E-16 ) ) ;
#140 = FACE_OUTER_BOUND ( 'NONE', #120, .T. ) ;
#141 = ORIENTED_EDGE ( 'NONE', *, *, #108, .T. ) ;
#142 = AXIS2_PLACEMENT_3D ( 'NONE', #258, #262, #118 ) ;
#143 = PRESENTATION_LAYER_ASSIGNMENT (  '', '', ( #4 ) ) ;
#144 = PRODUCT_DEFINITION ( 'UNKNOWN', '', #236, #37 ) ;
#145 = FACE_OUTER_BOUND ( 'NONE', #80, .T. ) ;
#146 = SURFACE_STYLE_FILL_AREA ( #17 ) ;
#147 = ORIENTED_EDGE ( 'NONE', *, *, #218, .T. ) ;
#148 = PLANE ( 'NONE',  #187 ) ;
#149 = FILL_AREA_STYLE_COLOUR ( '', #91 ) ;
#150 = MECHANICAL_DESIGN_GEOMETRIC_PRESENTATION_REPRESENTATION (  '', ( #4 ), #261 ) ;
#151 = FILL_AREA_STYLE_COLOUR ( '', #58 ) ;
#152 = CARTESIAN_POINT ( 'NONE',  ( 0.000000000000000000, 0.000000000000000000, 0.000000000000000000 ) ) ;
#153 = SURFACE_STYLE_FILL_AREA ( #244 ) ;
#154 = CARTESIAN_POINT ( 'NONE',  ( 6.123233995736766282E-16, 0.000000000000000000, 5.000000000000000000 ) ) ;
#155 = ORIENTED_EDGE ( 'NONE', *, *, #106, .F. ) ;
#156 = UNCERTAINTY_MEASURE_WITH_UNIT (LENGTH_MEASURE( 1.000000000000000082E-05 ), #62, 'distance_accuracy_value', 'NONE');
#157 = CIRCLE ( 'NONE', #142, 4.999999999999998224 ) ;
#158 = ADVANCED_FACE ( 'NONE', ( #268 ), #12, .T. ) ;
#159 = DIRECTION ( 'NONE',  ( 3.061616997868382402E-17, 1.000000000000000000, -0.000000000000000000 ) ) ;
#160 = CARTESIAN_POINT ( 'NONE',  ( 6.123233995736766282E-16, 15.00000000000000000, 5.000000000000000000 ) ) ;
#161 =( GEOMETRIC_REPRESENTATION_CONTEXT ( 3 ) GLOBAL_UNCERTAINTY_ASSIGNED_CONTEXT ( ( #82 ) ) GLOBAL_UNIT_ASSIGNED_CONTEXT ( ( #27, #255, #61 ) ) REPRESENTATION_CONTEXT ( 'NONE', 'WORKASPACE' ) );
#162 = ORIENTED_EDGE ( 'NONE', *, *, #254, .T. ) ;
#163 = PRODUCT ( '59703', '59703', '', ( #93 ) ) ;
#164 = ORIENTED_EDGE ( 'NONE', *, *, #174, .F. ) ;
#165 = ORIENTED_EDGE ( 'NONE', *, *, #52, .T. ) ;
#166 = DIRECTION ( 'NONE',  ( -3.061616997868382402E-17, -1.000000000000000000, 0.000000000000000000 ) ) ;
#167 = MECHANICAL_DESIGN_GEOMETRIC_PRESENTATION_REPRESENTATION (  '', ( #172 ), #199 ) ;
#168 = PLANE ( 'NONE',  #252 ) ;
#169 = CARTESIAN_POINT ( 'NONE',  ( -5.000000000000000000, 15.00000000000000000, 0.000000000000000000 ) ) ;
#170 = CARTESIAN_POINT ( 'NONE',  ( 0.000000000000000000, 0.000000000000000000, 0.000000000000000000 ) ) ;
#171 =( NAMED_UNIT ( * ) SI_UNIT ( $, .STERADIAN. ) SOLID_ANGLE_UNIT ( ) );
#172 = STYLED_ITEM ( 'NONE', ( #42 ), #158 ) ;
#173 =( NAMED_UNIT ( * ) PLANE_ANGLE_UNIT ( ) SI_UNIT ( $, .RADIAN. ) );
#174 = EDGE_CURVE ( 'NONE', #185, #78, #209, .T. ) ;
#175 = AXIS2_PLACEMENT_3D ( 'NONE', #152, #272, #246 ) ;
#176 =( LENGTH_UNIT ( ) NAMED_UNIT ( * ) SI_UNIT ( .MILLI., .METRE. ) );
#177 = UNCERTAINTY_MEASURE_WITH_UNIT (LENGTH_MEASURE( 1.000000000000000082E-05 ), #114, 'distance_accuracy_value', 'NONE');
#178 =( LENGTH_UNIT ( ) NAMED_UNIT ( * ) SI_UNIT ( .MILLI., .METRE. ) );
#179 = AXIS2_PLACEMENT_3D ( 'NONE', #214, #192, #84 ) ;
#180 = AXIS2_PLACEMENT_3D ( 'NONE', #59, #16, #287 ) ;
#181 = CARTESIAN_POINT ( 'NONE',  ( 0.000000000000000000, 0.000000000000000000, 0.000000000000000000 ) ) ;
#182 = EDGE_CURVE ( 'NONE', #78, #185, #96, .T. ) ;
#183 = ADVANCED_FACE ( 'NONE', ( #64 ), #85, .T. ) ;
#184 = CARTESIAN_POINT ( 'NONE',  ( -4.999999999999996447, 63.00000000000000000, 0.000000000000000000 ) ) ;
#185 = VERTEX_POINT ( 'NONE', #169 ) ;
#186 = AXIS2_PLACEMENT_3D ( 'NONE', #237, #34, #26 ) ;
#187 = AXIS2_PLACEMENT_3D ( 'NONE', #269, #225, #65 ) ;
#188 = DIRECTION ( 'NONE',  ( 0.000000000000000000, 0.000000000000000000, -1.000000000000000000 ) ) ;
#189 = ORIENTED_EDGE ( 'NONE', *, *, #182, .F. ) ;
#190 = PRESENTATION_STYLE_ASSIGNMENT (( #277 ) ) ;
#191 = PLANE ( 'NONE',  #208 ) ;
#192 = DIRECTION ( 'NONE',  ( -0.000000000000000000, -1.000000000000000000, -0.000000000000000000 ) ) ;
#193 = SURFACE_STYLE_USAGE ( .BOTH. , #104 ) ;
#194 = DIRECTION ( 'NONE',  ( -0.000000000000000000, -1.000000000000000000, -0.000000000000000000 ) ) ;
#195 = SURFACE_STYLE_USAGE ( .BOTH. , #103 ) ;
#196 = COLOUR_RGB ( '',1.000000000000000000, 0.000000000000000000, 0.000000000000000000 ) ;
#197 = MANIFOLD_SOLID_BREP ( 'Revolve - Cutting Edge', #279 ) ;
#198 = DIRECTION ( 'NONE',  ( 3.061616997868382402E-17, 1.000000000000000000, -0.000000000000000000 ) ) ;
#199 =( GEOMETRIC_REPRESENTATION_CONTEXT ( 3 ) GLOBAL_UNCERTAINTY_ASSIGNED_CONTEXT ( ( #156 ) ) GLOBAL_UNIT_ASSIGNED_CONTEXT ( ( #62, #173, #171 ) ) REPRESENTATION_CONTEXT ( 'NONE', 'WORKASPACE' ) );
#200 = ORIENTED_EDGE ( 'NONE', *, *, #18, .T. ) ;
#201 =( NAMED_UNIT ( * ) PLANE_ANGLE_UNIT ( ) SI_UNIT ( $, .RADIAN. ) );
#202 = MECHANICAL_DESIGN_GEOMETRIC_PRESENTATION_REPRESENTATION (  '', ( #15 ), #220 ) ;
#203 = ADVANCED_FACE ( 'NONE', ( #67 ), #148, .T. ) ;
#204 = LINE ( 'NONE', #243, #21 ) ;
#205 =( NAMED_UNIT ( * ) SI_UNIT ( $, .STERADIAN. ) SOLID_ANGLE_UNIT ( ) );
#206 = ORIENTED_EDGE ( 'NONE', *, *, #218, .F. ) ;
#207 = ORIENTED_EDGE ( 'NONE', *, *, #182, .T. ) ;
#208 = AXIS2_PLACEMENT_3D ( 'NONE', #233, #166, #216 ) ;
#209 = CIRCLE ( 'NONE', #77, 5.000000000000000000 ) ;
#210 = ORIENTED_EDGE ( 'NONE', *, *, #108, .F. ) ;
#211 =( NAMED_UNIT ( * ) SI_UNIT ( $, .STERADIAN. ) SOLID_ANGLE_UNIT ( ) );
#212 = EDGE_LOOP ( 'NONE', ( #231, #207, #55, #36 ) ) ;
#213 = EDGE_CURVE ( 'NONE', #60, #97, #33, .T. ) ;
#214 = CARTESIAN_POINT ( 'NONE',  ( 0.000000000000000000, 15.00000000000000000, 0.000000000000000000 ) ) ;
#215 = DIRECTION ( 'NONE',  ( 0.000000000000000000, -1.000000000000000000, -0.000000000000000000 ) ) ;
#216 = DIRECTION ( 'NONE',  ( 1.000000000000000000, -3.061616997868382402E-17, 0.000000000000000000 ) ) ;
#217 = APPLICATION_PROTOCOL_DEFINITION ( 'draft international standard', 'automotive_design', 1998, #232 ) ;
#218 = EDGE_CURVE ( 'NONE', #281, #9, #285, .T. ) ;
#219 =( NAMED_UNIT ( * ) SI_UNIT ( $, .STERADIAN. ) SOLID_ANGLE_UNIT ( ) );
#220 =( GEOMETRIC_REPRESENTATION_CONTEXT ( 3 ) GLOBAL_UNCERTAINTY_ASSIGNED_CONTEXT ( ( #177 ) ) GLOBAL_UNIT_ASSIGNED_CONTEXT ( ( #114, #201, #134 ) ) REPRESENTATION_CONTEXT ( 'NONE', 'WORKASPACE' ) );
#221 = SURFACE_STYLE_FILL_AREA ( #242 ) ;
#222 = DIRECTION ( 'NONE',  ( 3.061616997868382402E-17, 1.000000000000000000, -0.000000000000000000 ) ) ;
#223 = MECHANICAL_DESIGN_GEOMETRIC_PRESENTATION_REPRESENTATION (  '', ( #117 ), #83 ) ;
#224 = DIRECTION ( 'NONE',  ( 0.000000000000000000, 0.000000000000000000, -1.000000000000000000 ) ) ;
#225 = DIRECTION ( 'NONE',  ( 0.000000000000000000, 1.000000000000000000, 0.000000000000000000 ) ) ;
#226 = ORIENTED_EDGE ( 'NONE', *, *, #81, .F. ) ;
#227 = PRESENTATION_STYLE_ASSIGNMENT (( #109 ) ) ;
#228 = CIRCLE ( 'NONE', #31, 5.000000000000000000 ) ;
#229 = PRESENTATION_STYLE_ASSIGNMENT (( #113 ) ) ;
#230 = EDGE_CURVE ( 'NONE', #50, #79, #32, .T. ) ;
#231 = ORIENTED_EDGE ( 'NONE', *, *, #52, .F. ) ;
#232 = APPLICATION_CONTEXT ( 'automotive_design' ) ;
#233 = CARTESIAN_POINT ( 'NONE',  ( 5.000000000000000000, 63.00000000000000000, 0.000000000000000000 ) ) ;
#234 = ORIENTED_EDGE ( 'NONE', *, *, #213, .T. ) ;
#235 = AXIS2_PLACEMENT_3D ( 'NONE', #264, #238, #284 ) ;
#236 = PRODUCT_DEFINITION_FORMATION_WITH_SPECIFIED_SOURCE ( 'ANY', '', #163, .NOT_KNOWN. ) ;
#237 = CARTESIAN_POINT ( 'NONE',  ( 1.469576158976823750E-15, 63.00000000000000000, 0.000000000000000000 ) ) ;
#238 = DIRECTION ( 'NONE',  ( 3.061616997868382402E-17, 1.000000000000000000, -0.000000000000000000 ) ) ;
#239 =( LENGTH_UNIT ( ) NAMED_UNIT ( * ) SI_UNIT ( .MILLI., .METRE. ) );
#240 = ORIENTED_EDGE ( 'NONE', *, *, #263, .T. ) ;
#241 = DIRECTION ( 'NONE',  ( 0.000000000000000000, 0.000000000000000000, 1.000000000000000000 ) ) ;
#242 = FILL_AREA_STYLE ('',( #126 ) ) ;
#243 = CARTESIAN_POINT ( 'NONE',  ( 0.000000000000000000, 0.000000000000000000, -5.000000000000000000 ) ) ;
#244 = FILL_AREA_STYLE ('',( #149 ) ) ;
#245 = PRESENTATION_LAYER_ASSIGNMENT (  '', '', ( #172 ) ) ;
#246 = DIRECTION ( 'NONE',  ( 0.000000000000000000, 0.000000000000000000, -1.000000000000000000 ) ) ;
#247 = CYLINDRICAL_SURFACE ( 'NONE', #235, 4.999999999999999112 ) ;
#248 = COLOUR_RGB ( '',1.000000000000000000, 0.000000000000000000, 0.000000000000000000 ) ;
#249 = AXIS2_PLACEMENT_3D ( 'NONE', #125, #222, #265 ) ;
#250 = FILL_AREA_STYLE_COLOUR ( '', #196 ) ;
#251 =( GEOMETRIC_REPRESENTATION_CONTEXT ( 3 ) GLOBAL_UNCERTAINTY_ASSIGNED_CONTEXT ( ( #112 ) ) GLOBAL_UNIT_ASSIGNED_CONTEXT ( ( #176, #28, #211 ) ) REPRESENTATION_CONTEXT ( 'NONE', 'WORKASPACE' ) );
#252 = AXIS2_PLACEMENT_3D ( 'NONE', #266, #215, #86 ) ;
#253 = SURFACE_SIDE_STYLE ('',( #70 ) ) ;
#254 = EDGE_CURVE ( 'NONE', #281, #60, #2, .T. ) ;
#255 =( NAMED_UNIT ( * ) PLANE_ANGLE_UNIT ( ) SI_UNIT ( $, .RADIAN. ) );
#256 = FACE_OUTER_BOUND ( 'NONE', #121, .T. ) ;
#257 = PRESENTATION_LAYER_ASSIGNMENT (  '', '', ( #116 ) ) ;
#258 = CARTESIAN_POINT ( 'NONE',  ( 1.469576158976823750E-15, 63.00000000000000000, 0.000000000000000000 ) ) ;
#259 = PLANE ( 'NONE',  #19 ) ;
#260 = CYLINDRICAL_SURFACE ( 'NONE', #186, 4.999999999999999112 ) ;
#261 =( GEOMETRIC_REPRESENTATION_CONTEXT ( 3 ) GLOBAL_UNCERTAINTY_ASSIGNED_CONTEXT ( ( #92 ) ) GLOBAL_UNIT_ASSIGNED_CONTEXT ( ( #239, #88, #219 ) ) REPRESENTATION_CONTEXT ( 'NONE', 'WORKASPACE' ) );
#262 = DIRECTION ( 'NONE',  ( 3.061616997868382402E-17, 1.000000000000000000, -0.000000000000000000 ) ) ;
#263 = EDGE_CURVE ( 'NONE', #9, #97, #204, .T. ) ;
#264 = CARTESIAN_POINT ( 'NONE',  ( 1.469576158976823750E-15, 63.00000000000000000, 0.000000000000000000 ) ) ;
#265 = DIRECTION ( 'NONE',  ( -1.000000000000000000, 0.000000000000000000, 0.000000000000000000 ) ) ;
#266 = CARTESIAN_POINT ( 'NONE',  ( 0.000000000000000000, 0.000000000000000000, 0.000000000000000000 ) ) ;
#267 = FILL_AREA_STYLE ('',( #288 ) ) ;
#268 = FACE_OUTER_BOUND ( 'NONE', #57, .T. ) ;
#269 = CARTESIAN_POINT ( 'NONE',  ( 0.000000000000000000, 15.00000000000000000, 0.000000000000000000 ) ) ;
#270 = SURFACE_STYLE_FILL_AREA ( #267 ) ;
#271 = STYLED_ITEM ( 'NONE', ( #49 ), #94 ) ;
#272 = DIRECTION ( 'NONE',  ( -0.000000000000000000, -1.000000000000000000, -0.000000000000000000 ) ) ;
#273 = FILL_AREA_STYLE ('',( #250 ) ) ;
#274 = AXIS2_PLACEMENT_3D ( 'NONE', #46, #129, #224 ) ;
#275 = APPLICATION_PROTOCOL_DEFINITION ( 'draft international standard', 'automotive_design', 1998, #89 ) ;
#276 = LINE ( 'NONE', #74, #63 ) ;
#277 = SURFACE_STYLE_USAGE ( .BOTH. , #73 ) ;
#278 = ORIENTED_EDGE ( 'NONE', *, *, #230, .F. ) ;
#279 = CLOSED_SHELL ( 'NONE', ( #158, #203, #183, #128 ) ) ;
#280 = COLOUR_RGB ( '',1.000000000000000000, 0.000000000000000000, 0.000000000000000000 ) ;
#281 = VERTEX_POINT ( 'NONE', #160 ) ;
#282 = ORIENTED_EDGE ( 'NONE', *, *, #81, .T. ) ;
#283 = CARTESIAN_POINT ( 'NONE',  ( 0.000000000000000000, 15.00000000000000000, -5.000000000000000000 ) ) ;
#284 = DIRECTION ( 'NONE',  ( -1.000000000000000000, 0.000000000000000000, 0.000000000000000000 ) ) ;
#285 = CIRCLE ( 'NONE', #274, 5.000000000000000000 ) ;
#286 = DIRECTION ( 'NONE',  ( 0.000000000000000000, 0.000000000000000000, -1.000000000000000000 ) ) ;
#287 = DIRECTION ( 'NONE',  ( 0.000000000000000000, 0.000000000000000000, -1.000000000000000000 ) ) ;
#288 = FILL_AREA_STYLE_COLOUR ( '', #132 ) ;
ENDSEC;
END-ISO-10303-21;
