ISO-10303-21;
HEADER;
FILE_DESCRIPTION (( 'STEP AP214' ),
    '1' );
FILE_NAME ('Micro_RTCM-040-2.STEP',
    '2021-09-03T18:20:52',
    ( '' ),
    ( '' ),
    'SwSTEP 2.0',
    'SolidWorks 2020',
    '' );
FILE_SCHEMA (( 'AUTOMOTIVE_DESIGN' ));
ENDSEC;

DATA;
#1 = EDGE_CURVE ( 'NONE', #131, #5, #179, .T. ) ;
#2 = ORIENTED_EDGE ( 'NONE', *, *, #233, .T. ) ;
#3 = PRODUCT_CONTEXT ( 'NONE', #51, 'mechanical' ) ;
#4 =( CONVERSION_BASED_UNIT ( 'INCH', #194 ) LENGTH_UNIT ( ) NAMED_UNIT ( #58 ) );
#5 = VERTEX_POINT ( 'NONE', #103 ) ;
#6 = CARTESIAN_POINT ( 'NONE',  ( 0.0000000000000000000, 0.0000000000000000000, 0.2791685965585736229 ) ) ;
#7 = STYLED_ITEM ( 'NONE', ( #86 ), #127 ) ;
#8 = CARTESIAN_POINT ( 'NONE',  ( 0.0000000000000000000, 0.0000000000000000000, 1.968503999999999809 ) ) ;
#9 = DIRECTION ( 'NONE',  ( 1.000000000000000000, 0.0000000000000000000, -0.0000000000000000000 ) ) ;
#10 = SURFACE_SIDE_STYLE ('',( #241 ) ) ;
#11 = CARTESIAN_POINT ( 'NONE',  ( 0.0000000000000000000, 0.0000000000000000000, 0.0000000000000000000 ) ) ;
#12 = CONICAL_SURFACE ( 'NONE', #20, 0.003936999999999995191, 0.2617993877991504625 ) ;
#13 =( LENGTH_UNIT ( ) NAMED_UNIT ( * ) SI_UNIT ( $, .METRE. ) );
#14 = FACE_OUTER_BOUND ( 'NONE', #87, .T. ) ;
#15 = PRODUCT_DEFINITION_SHAPE ( 'NONE', 'NONE',  #213 ) ;
#16 = CARTESIAN_POINT ( 'NONE',  ( -0.003936999999999995191, -4.821434448243123477E-19, 1.968503999999999809 ) ) ;
#17 = CARTESIAN_POINT ( 'NONE',  ( 0.0000000000000000000, 0.0000000000000000000, 1.689335403441426298 ) ) ;
#18 = CARTESIAN_POINT ( 'NONE',  ( 0.0000000000000000000, 0.0000000000000000000, 0.0000000000000000000 ) ) ;
#19 = ORIENTED_EDGE ( 'NONE', *, *, #1, .F. ) ;
#20 = AXIS2_PLACEMENT_3D ( 'NONE', #225, #199, #157 ) ;
#21 = APPLICATION_PROTOCOL_DEFINITION ( 'draft international standard', 'automotive_design', 1998, #51 ) ;
#22 = ORIENTED_EDGE ( 'NONE', *, *, #79, .F. ) ;
#23 = SURFACE_STYLE_FILL_AREA ( #43 ) ;
#24 = AXIS2_PLACEMENT_3D ( 'NONE', #57, #245, #37 ) ;
#25 = EDGE_CURVE ( 'NONE', #101, #85, #143, .T. ) ;
#26 = CARTESIAN_POINT ( 'NONE',  ( 0.0000000000000000000, 0.0000000000000000000, 0.0000000000000000000 ) ) ;
#27 = CARTESIAN_POINT ( 'NONE',  ( 0.0000000000000000000, 0.0000000000000000000, 1.968503999999999809 ) ) ;
#28 = ADVANCED_FACE ( 'NONE', ( #137 ), #69, .T. ) ;
#29 = UNCERTAINTY_MEASURE_WITH_UNIT (LENGTH_MEASURE( 1.000000000000000082E-05 ), #92, 'distance_accuracy_value', 'NONE');
#30 = AXIS2_PLACEMENT_3D ( 'NONE', #106, #228, #206 ) ;
#31 = EDGE_LOOP ( 'NONE', ( #195, #133, #236, #65 ) ) ;
#32 = DIRECTION ( 'NONE',  ( 0.0000000000000000000, 0.0000000000000000000, 1.000000000000000000 ) ) ;
#33 = LINE ( 'NONE', #224, #48 ) ;
#34 = LINE ( 'NONE', #93, #139 ) ;
#35 = AXIS2_PLACEMENT_3D ( 'NONE', #11, #32, #104 ) ;
#36 = AXIS2_PLACEMENT_3D ( 'NONE', #128, #161, #107 ) ;
#37 = DIRECTION ( 'NONE',  ( 1.000000000000000000, 0.0000000000000000000, 0.0000000000000000000 ) ) ;
#38 = VECTOR ( 'NONE', #164, 39.37007874015748143 ) ;
#39 = VECTOR ( 'NONE', #208, 39.37007874015748854 ) ;
#40 = LINE ( 'NONE', #126, #38 ) ;
#41 = DIMENSIONAL_EXPONENTS ( 1.000000000000000000, 0.0000000000000000000, 0.0000000000000000000, 0.0000000000000000000, 0.0000000000000000000, 0.0000000000000000000, 0.0000000000000000000 ) ;
#42 = ORIENTED_EDGE ( 'NONE', *, *, #184, .F. ) ;
#43 = FILL_AREA_STYLE ('',( #211 ) ) ;
#44 = ORIENTED_EDGE ( 'NONE', *, *, #188, .T. ) ;
#45 = DIRECTION ( 'NONE',  ( 1.000000000000000000, 0.0000000000000000000, 0.0000000000000000000 ) ) ;
#46 = ADVANCED_FACE ( 'NONE', ( #141 ), #82, .T. ) ;
#47 = DIRECTION ( 'NONE',  ( -1.000000000000000000, 0.0000000000000000000, 0.0000000000000000000 ) ) ;
#48 = VECTOR ( 'NONE', #136, 39.37007874015748854 ) ;
#49 = CARTESIAN_POINT ( 'NONE',  ( 0.0000000000000000000, 0.0000000000000000000, 1.968503999999999809 ) ) ;
#50 = DIRECTION ( 'NONE',  ( 0.2588190451025217387, 0.0000000000000000000, 0.9659258262890679791 ) ) ;
#51 = APPLICATION_CONTEXT ( 'automotive_design' ) ;
#52 = DIRECTION ( 'NONE',  ( 0.2588190451025217387, 0.0000000000000000000, -0.9659258262890679791 ) ) ;
#53 = ADVANCED_FACE ( 'NONE', ( #219 ), #12, .T. ) ;
#54 = COLOUR_RGB ( '',0.7921568627450980005, 0.8196078431372548767, 0.9333333333333333481 ) ;
#55 = DIRECTION ( 'NONE',  ( -1.000000000000000000, 0.0000000000000000000, 0.0000000000000000000 ) ) ;
#56 = CARTESIAN_POINT ( 'NONE',  ( 0.003936999999999995191, 0.0000000000000000000, 1.968503999999999809 ) ) ;
#57 = CARTESIAN_POINT ( 'NONE',  ( 0.0000000000000000000, 0.0000000000000000000, 1.968503999999999809 ) ) ;
#58 = DIMENSIONAL_EXPONENTS ( 1.000000000000000000, 0.0000000000000000000, 0.0000000000000000000, 0.0000000000000000000, 0.0000000000000000000, 0.0000000000000000000, 0.0000000000000000000 ) ;
#59 = APPLICATION_PROTOCOL_DEFINITION ( 'draft international standard', 'automotive_design', 1998, #88 ) ;
#60 = ORIENTED_EDGE ( 'NONE', *, *, #68, .T. ) ;
#61 = DIMENSIONAL_EXPONENTS ( 1.000000000000000000, 0.0000000000000000000, 0.0000000000000000000, 0.0000000000000000000, 0.0000000000000000000, 0.0000000000000000000, 0.0000000000000000000 ) ;
#62 = EDGE_LOOP ( 'NONE', ( #156, #232, #158, #19 ) ) ;
#63 = CIRCLE ( 'NONE', #109, 0.003936999999999995191 ) ;
#64 = DIRECTION ( 'NONE',  ( -1.000000000000000000, 0.0000000000000000000, 0.0000000000000000000 ) ) ;
#65 = ORIENTED_EDGE ( 'NONE', *, *, #150, .F. ) ;
#66 = EDGE_LOOP ( 'NONE', ( #201, #159 ) ) ;
#67 = VECTOR ( 'NONE', #50, 39.37007874015748854 ) ;
#68 = EDGE_CURVE ( 'NONE', #196, #5, #33, .T. ) ;
#69 = PLANE ( 'NONE',  #129 ) ;
#70 = ADVANCED_FACE ( 'NONE', ( #117 ), #209, .T. ) ;
#71 = CARTESIAN_POINT ( 'NONE',  ( 0.003936999999999995191, 0.0000000000000000000, 0.0000000000000000000 ) ) ;
#72 = EDGE_CURVE ( 'NONE', #169, #131, #173, .T. ) ;
#73 = DIRECTION ( 'NONE',  ( -0.0000000000000000000, -0.0000000000000000000, -1.000000000000000000 ) ) ;
#74 = CARTESIAN_POINT ( 'NONE',  ( 0.0000000000000000000, 0.0000000000000000000, 0.0000000000000000000 ) ) ;
#75 = FACE_OUTER_BOUND ( 'NONE', #114, .T. ) ;
#76 = CYLINDRICAL_SURFACE ( 'NONE', #197, 0.07874000000000000443 ) ;
#77 = CONICAL_SURFACE ( 'NONE', #115, 0.003936999999999995191, 0.2617993877991504625 ) ;
#78 =( CONVERSION_BASED_UNIT ( 'INCH', #210 ) LENGTH_UNIT ( ) NAMED_UNIT ( #61 ) );
#79 = EDGE_CURVE ( 'NONE', #5, #131, #154, .T. ) ;
#80 = ORIENTED_EDGE ( 'NONE', *, *, #150, .T. ) ;
#81 =( NAMED_UNIT ( * ) SI_UNIT ( $, .STERADIAN. ) SOLID_ANGLE_UNIT ( ) );
#82 = CYLINDRICAL_SURFACE ( 'NONE', #134, 0.07874000000000000443 ) ;
#83 = AXIS2_PLACEMENT_3D ( 'NONE', #90, #248, #89 ) ;
#84 = FILL_AREA_STYLE ('',( #174 ) ) ;
#85 = VERTEX_POINT ( 'NONE', #122 ) ;
#86 = PRESENTATION_STYLE_ASSIGNMENT (( #178 ) ) ;
#87 = EDGE_LOOP ( 'NONE', ( #167, #42, #147, #116 ) ) ;
#88 = APPLICATION_CONTEXT ( 'automotive_design' ) ;
#89 = DIRECTION ( 'NONE',  ( -1.000000000000000000, 0.0000000000000000000, 0.0000000000000000000 ) ) ;
#90 = CARTESIAN_POINT ( 'NONE',  ( 0.0000000000000000000, 0.0000000000000000000, 0.0000000000000000000 ) ) ;
#91 = CARTESIAN_POINT ( 'NONE',  ( -0.003936999999999995191, -5.062506170655286488E-18, 1.968503999999999809 ) ) ;
#92 =( CONVERSION_BASED_UNIT ( 'INCH', #110 ) LENGTH_UNIT ( ) NAMED_UNIT ( #41 ) );
#93 = CARTESIAN_POINT ( 'NONE',  ( -0.07874000000000000443, 0.0000000000000000000, 1.968503999999999809 ) ) ;
#94 = SHAPE_DEFINITION_REPRESENTATION ( #15, #163 ) ;
#95 = EDGE_LOOP ( 'NONE', ( #220, #60, #151, #217 ) ) ;
#96 = SURFACE_STYLE_USAGE ( .BOTH. , #149 ) ;
#97 = EDGE_LOOP ( 'NONE', ( #212, #2, #80, #215 ) ) ;
#98 = CONICAL_SURFACE ( 'NONE', #24, 0.003936999999999995191, 0.2617993877991504625 ) ;
#99 = VERTEX_POINT ( 'NONE', #138 ) ;
#100 = DIRECTION ( 'NONE',  ( 0.0000000000000000000, 0.0000000000000000000, 1.000000000000000000 ) ) ;
#101 = VERTEX_POINT ( 'NONE', #121 ) ;
#102 = DIRECTION ( 'NONE',  ( -0.0000000000000000000, -0.0000000000000000000, -1.000000000000000000 ) ) ;
#103 = CARTESIAN_POINT ( 'NONE',  ( -0.07874000000000000443, 0.0000000000000000000, 0.2791685965585736229 ) ) ;
#104 = DIRECTION ( 'NONE',  ( 1.000000000000000000, 0.0000000000000000000, -0.0000000000000000000 ) ) ;
#105 = AXIS2_PLACEMENT_3D ( 'NONE', #17, #160, #207 ) ;
#106 = CARTESIAN_POINT ( 'NONE',  ( 0.0000000000000000000, 0.0000000000000000000, 0.0000000000000000000 ) ) ;
#107 = DIRECTION ( 'NONE',  ( -1.000000000000000000, 0.0000000000000000000, 0.0000000000000000000 ) ) ;
#108 =( LENGTH_UNIT ( ) NAMED_UNIT ( * ) SI_UNIT ( $, .METRE. ) );
#109 = AXIS2_PLACEMENT_3D ( 'NONE', #27, #124, #246 ) ;
#110 = LENGTH_MEASURE_WITH_UNIT ( LENGTH_MEASURE( 0.02539999999999999897 ), #13 );
#111 = PRESENTATION_STYLE_ASSIGNMENT (( #96 ) ) ;
#112 =( LENGTH_UNIT ( ) NAMED_UNIT ( * ) SI_UNIT ( $, .METRE. ) );
#113 = ADVANCED_FACE ( 'NONE', ( #200 ), #177, .F. ) ;
#114 = EDGE_LOOP ( 'NONE', ( #193, #172, #22, #216 ) ) ;
#115 = AXIS2_PLACEMENT_3D ( 'NONE', #74, #230, #144 ) ;
#116 = ORIENTED_EDGE ( 'NONE', *, *, #1, .T. ) ;
#117 = FACE_OUTER_BOUND ( 'NONE', #95, .T. ) ;
#118 = DIRECTION ( 'NONE',  ( -0.0000000000000000000, -0.0000000000000000000, -1.000000000000000000 ) ) ;
#119 = DIRECTION ( 'NONE',  ( 0.0000000000000000000, 0.0000000000000000000, -1.000000000000000000 ) ) ;
#120 = AXIS2_PLACEMENT_3D ( 'NONE', #18, #130, #191 ) ;
#121 = CARTESIAN_POINT ( 'NONE',  ( -0.07874000000000000443, 0.0000000000000000000, 1.689335403441426298 ) ) ;
#122 = CARTESIAN_POINT ( 'NONE',  ( 0.07874000000000000443, 9.642868896486258509E-18, 1.689335403441426298 ) ) ;
#123 = AXIS2_PLACEMENT_3D ( 'NONE', #6, #102, #64 ) ;
#124 = DIRECTION ( 'NONE',  ( 0.0000000000000000000, 0.0000000000000000000, -1.000000000000000000 ) ) ;
#125 = UNCERTAINTY_MEASURE_WITH_UNIT (LENGTH_MEASURE( 1.000000000000000082E-05 ), #4, 'distance_accuracy_value', 'NONE');
#126 = CARTESIAN_POINT ( 'NONE',  ( 0.07874000000000000443, 9.642868896486258509E-18, 1.968503999999999809 ) ) ;
#127 = MANIFOLD_SOLID_BREP ( 'Mirror1', #148 ) ;
#128 = CARTESIAN_POINT ( 'NONE',  ( 0.0000000000000000000, 0.0000000000000000000, 1.968503999999999809 ) ) ;
#129 = AXIS2_PLACEMENT_3D ( 'NONE', #8, #176, #9 ) ;
#130 = DIRECTION ( 'NONE',  ( 0.0000000000000000000, 0.0000000000000000000, 1.000000000000000000 ) ) ;
#131 = VERTEX_POINT ( 'NONE', #227 ) ;
#132 = AXIS2_PLACEMENT_3D ( 'NONE', #244, #119, #153 ) ;
#133 = ORIENTED_EDGE ( 'NONE', *, *, #235, .T. ) ;
#134 = AXIS2_PLACEMENT_3D ( 'NONE', #49, #140, #239 ) ;
#135 = EDGE_CURVE ( 'NONE', #99, #237, #63, .T. ) ;
#136 = DIRECTION ( 'NONE',  ( -0.2588190451025217387, 3.169619151431776651E-17, 0.9659258262890679791 ) ) ;
#137 = FACE_OUTER_BOUND ( 'NONE', #66, .T. ) ;
#138 = CARTESIAN_POINT ( 'NONE',  ( 0.003936999999999995191, 0.0000000000000000000, 1.968503999999999809 ) ) ;
#139 = VECTOR ( 'NONE', #73, 39.37007874015748143 ) ;
#140 = DIRECTION ( 'NONE',  ( -0.0000000000000000000, -0.0000000000000000000, -1.000000000000000000 ) ) ;
#141 = FACE_OUTER_BOUND ( 'NONE', #62, .T. ) ;
#142 = CARTESIAN_POINT ( 'NONE',  ( 0.0000000000000000000, 0.0000000000000000000, 1.968503999999999809 ) ) ;
#143 = CIRCLE ( 'NONE', #132, 0.07874000000000000443 ) ;
#144 = DIRECTION ( 'NONE',  ( 1.000000000000000000, 0.0000000000000000000, 0.0000000000000000000 ) ) ;
#145 =( NAMED_UNIT ( * ) SI_UNIT ( $, .STERADIAN. ) SOLID_ANGLE_UNIT ( ) );
#146 =( NAMED_UNIT ( * ) SI_UNIT ( $, .STERADIAN. ) SOLID_ANGLE_UNIT ( ) );
#147 = ORIENTED_EDGE ( 'NONE', *, *, #72, .T. ) ;
#148 = CLOSED_SHELL ( 'NONE', ( #205, #70, #155, #46, #186, #113, #53, #28 ) ) ;
#149 = SURFACE_SIDE_STYLE ('',( #23 ) ) ;
#150 = EDGE_CURVE ( 'NONE', #99, #85, #183, .T. ) ;
#151 = ORIENTED_EDGE ( 'NONE', *, *, #79, .T. ) ;
#152 = ORIENTED_EDGE ( 'NONE', *, *, #184, .T. ) ;
#153 = DIRECTION ( 'NONE',  ( -1.000000000000000000, 0.0000000000000000000, 0.0000000000000000000 ) ) ;
#154 = CIRCLE ( 'NONE', #249, 0.07874000000000000443 ) ;
#155 = ADVANCED_FACE ( 'NONE', ( #75 ), #76, .T. ) ;
#156 = ORIENTED_EDGE ( 'NONE', *, *, #181, .F. ) ;
#157 = DIRECTION ( 'NONE',  ( 1.000000000000000000, 0.0000000000000000000, 0.0000000000000000000 ) ) ;
#158 = ORIENTED_EDGE ( 'NONE', *, *, #171, .T. ) ;
#159 = ORIENTED_EDGE ( 'NONE', *, *, #233, .F. ) ;
#160 = DIRECTION ( 'NONE',  ( 0.0000000000000000000, 0.0000000000000000000, -1.000000000000000000 ) ) ;
#161 = DIRECTION ( 'NONE',  ( 0.0000000000000000000, 0.0000000000000000000, -1.000000000000000000 ) ) ;
#162 = CIRCLE ( 'NONE', #83, 0.003936999999999995191 ) ;
#163 = ADVANCED_BREP_SHAPE_REPRESENTATION ( 'Micro_RTCM-040-2', ( #127, #120 ), #247 ) ;
#164 = DIRECTION ( 'NONE',  ( -0.0000000000000000000, -0.0000000000000000000, -1.000000000000000000 ) ) ;
#165 = PRESENTATION_LAYER_ASSIGNMENT (  '', '', ( #7 ) ) ;
#166 =( GEOMETRIC_REPRESENTATION_CONTEXT ( 3 ) GLOBAL_UNCERTAINTY_ASSIGNED_CONTEXT ( ( #125 ) ) GLOBAL_UNIT_ASSIGNED_CONTEXT ( ( #4, #168, #81 ) ) REPRESENTATION_CONTEXT ( 'NONE', 'WORKASPACE' ) );
#167 = ORIENTED_EDGE ( 'NONE', *, *, #68, .F. ) ;
#168 =( NAMED_UNIT ( * ) PLANE_ANGLE_UNIT ( ) SI_UNIT ( $, .RADIAN. ) );
#169 = VERTEX_POINT ( 'NONE', #71 ) ;
#170 = PRODUCT_DEFINITION_FORMATION_WITH_SPECIFIED_SOURCE ( 'ANY', '', #180, .NOT_KNOWN. ) ;
#171 = EDGE_CURVE ( 'NONE', #101, #5, #34, .T. ) ;
#172 = ORIENTED_EDGE ( 'NONE', *, *, #181, .T. ) ;
#173 = LINE ( 'NONE', #221, #67 ) ;
#174 = FILL_AREA_STYLE_COLOUR ( '', #54 ) ;
#175 = CIRCLE ( 'NONE', #36, 0.003936999999999995191 ) ;
#176 = DIRECTION ( 'NONE',  ( 0.0000000000000000000, 0.0000000000000000000, 1.000000000000000000 ) ) ;
#177 = PLANE ( 'NONE',  #35 ) ;
#178 = SURFACE_STYLE_USAGE ( .BOTH. , #10 ) ;
#179 = CIRCLE ( 'NONE', #123, 0.07874000000000000443 ) ;
#180 = PRODUCT ( 'Micro_RTCM-040-2', 'Micro_RTCM-040-2', '', ( #3 ) ) ;
#181 = EDGE_CURVE ( 'NONE', #85, #131, #40, .T. ) ;
#182 = CARTESIAN_POINT ( 'NONE',  ( -0.003936999999999995191, 5.062506170655285717E-18, 0.0000000000000000000 ) ) ;
#183 = LINE ( 'NONE', #56, #204 ) ;
#184 = EDGE_CURVE ( 'NONE', #169, #196, #190, .T. ) ;
#185 = LINE ( 'NONE', #16, #39 ) ;
#186 = ADVANCED_FACE ( 'NONE', ( #14 ), #77, .T. ) ;
#187 = AXIS2_PLACEMENT_3D ( 'NONE', #26, #100, #45 ) ;
#188 = EDGE_CURVE ( 'NONE', #196, #169, #162, .T. ) ;
#189 =( NAMED_UNIT ( * ) PLANE_ANGLE_UNIT ( ) SI_UNIT ( $, .RADIAN. ) );
#190 = CIRCLE ( 'NONE', #30, 0.003936999999999995191 ) ;
#191 = DIRECTION ( 'NONE',  ( 1.000000000000000000, 0.0000000000000000000, 0.0000000000000000000 ) ) ;
#192 = STYLED_ITEM ( 'NONE', ( #111 ), #163 ) ;
#193 = ORIENTED_EDGE ( 'NONE', *, *, #25, .T. ) ;
#194 = LENGTH_MEASURE_WITH_UNIT ( LENGTH_MEASURE( 0.02539999999999999897 ), #112 );
#195 = ORIENTED_EDGE ( 'NONE', *, *, #135, .T. ) ;
#196 = VERTEX_POINT ( 'NONE', #182 ) ;
#197 = AXIS2_PLACEMENT_3D ( 'NONE', #142, #203, #55 ) ;
#198 = EDGE_CURVE ( 'NONE', #85, #101, #218, .T. ) ;
#199 = DIRECTION ( 'NONE',  ( 0.0000000000000000000, 0.0000000000000000000, -1.000000000000000000 ) ) ;
#200 = FACE_OUTER_BOUND ( 'NONE', #243, .T. ) ;
#201 = ORIENTED_EDGE ( 'NONE', *, *, #135, .F. ) ;
#202 = CARTESIAN_POINT ( 'NONE',  ( 0.0000000000000000000, 0.0000000000000000000, 0.2791685965585736229 ) ) ;
#203 = DIRECTION ( 'NONE',  ( -0.0000000000000000000, -0.0000000000000000000, -1.000000000000000000 ) ) ;
#204 = VECTOR ( 'NONE', #52, 39.37007874015748854 ) ;
#205 = ADVANCED_FACE ( 'NONE', ( #229 ), #98, .T. ) ;
#206 = DIRECTION ( 'NONE',  ( -1.000000000000000000, 0.0000000000000000000, 0.0000000000000000000 ) ) ;
#207 = DIRECTION ( 'NONE',  ( -1.000000000000000000, 0.0000000000000000000, 0.0000000000000000000 ) ) ;
#208 = DIRECTION ( 'NONE',  ( -0.2588190451025217387, -3.169619151431776651E-17, -0.9659258262890679791 ) ) ;
#209 = CONICAL_SURFACE ( 'NONE', #187, 0.003936999999999995191, 0.2617993877991504625 ) ;
#210 = LENGTH_MEASURE_WITH_UNIT ( LENGTH_MEASURE( 0.02539999999999999897 ), #108 );
#211 = FILL_AREA_STYLE_COLOUR ( '', #223 ) ;
#212 = ORIENTED_EDGE ( 'NONE', *, *, #235, .F. ) ;
#213 = PRODUCT_DEFINITION ( 'UNKNOWN', '', #170, #238 ) ;
#214 = MECHANICAL_DESIGN_GEOMETRIC_PRESENTATION_REPRESENTATION (  '', ( #7 ), #222 ) ;
#215 = ORIENTED_EDGE ( 'NONE', *, *, #25, .F. ) ;
#216 = ORIENTED_EDGE ( 'NONE', *, *, #171, .F. ) ;
#217 = ORIENTED_EDGE ( 'NONE', *, *, #72, .F. ) ;
#218 = CIRCLE ( 'NONE', #105, 0.07874000000000000443 ) ;
#219 = FACE_OUTER_BOUND ( 'NONE', #97, .T. ) ;
#220 = ORIENTED_EDGE ( 'NONE', *, *, #188, .F. ) ;
#221 = CARTESIAN_POINT ( 'NONE',  ( 0.003936999999999995191, 0.0000000000000000000, 0.0000000000000000000 ) ) ;
#222 =( GEOMETRIC_REPRESENTATION_CONTEXT ( 3 ) GLOBAL_UNCERTAINTY_ASSIGNED_CONTEXT ( ( #29 ) ) GLOBAL_UNIT_ASSIGNED_CONTEXT ( ( #92, #189, #145 ) ) REPRESENTATION_CONTEXT ( 'NONE', 'WORKASPACE' ) );
#223 = COLOUR_RGB ( '',0.7921568627450980005, 0.8196078431372548767, 0.9333333333333333481 ) ;
#224 = CARTESIAN_POINT ( 'NONE',  ( -0.003936999999999995191, 4.821434448243123477E-19, 0.0000000000000000000 ) ) ;
#225 = CARTESIAN_POINT ( 'NONE',  ( 0.0000000000000000000, 0.0000000000000000000, 1.968503999999999809 ) ) ;
#226 = PRODUCT_RELATED_PRODUCT_CATEGORY ( 'part', '', ( #180 ) ) ;
#227 = CARTESIAN_POINT ( 'NONE',  ( 0.07874000000000000443, 9.642868896486258509E-18, 0.2791685965585736229 ) ) ;
#228 = DIRECTION ( 'NONE',  ( -0.0000000000000000000, -0.0000000000000000000, -1.000000000000000000 ) ) ;
#229 = FACE_OUTER_BOUND ( 'NONE', #31, .T. ) ;
#230 = DIRECTION ( 'NONE',  ( 0.0000000000000000000, 0.0000000000000000000, 1.000000000000000000 ) ) ;
#231 =( NAMED_UNIT ( * ) PLANE_ANGLE_UNIT ( ) SI_UNIT ( $, .RADIAN. ) );
#232 = ORIENTED_EDGE ( 'NONE', *, *, #198, .T. ) ;
#233 = EDGE_CURVE ( 'NONE', #237, #99, #175, .T. ) ;
#234 = MECHANICAL_DESIGN_GEOMETRIC_PRESENTATION_REPRESENTATION (  '', ( #192 ), #166 ) ;
#235 = EDGE_CURVE ( 'NONE', #237, #101, #185, .T. ) ;
#236 = ORIENTED_EDGE ( 'NONE', *, *, #198, .F. ) ;
#237 = VERTEX_POINT ( 'NONE', #91 ) ;
#238 = PRODUCT_DEFINITION_CONTEXT ( 'detailed design', #88, 'design' ) ;
#239 = DIRECTION ( 'NONE',  ( -1.000000000000000000, 0.0000000000000000000, 0.0000000000000000000 ) ) ;
#240 = PRESENTATION_LAYER_ASSIGNMENT (  '', '', ( #192 ) ) ;
#241 = SURFACE_STYLE_FILL_AREA ( #84 ) ;
#242 = UNCERTAINTY_MEASURE_WITH_UNIT (LENGTH_MEASURE( 1.000000000000000082E-05 ), #78, 'distance_accuracy_value', 'NONE');
#243 = EDGE_LOOP ( 'NONE', ( #152, #44 ) ) ;
#244 = CARTESIAN_POINT ( 'NONE',  ( 0.0000000000000000000, 0.0000000000000000000, 1.689335403441426298 ) ) ;
#245 = DIRECTION ( 'NONE',  ( 0.0000000000000000000, 0.0000000000000000000, -1.000000000000000000 ) ) ;
#246 = DIRECTION ( 'NONE',  ( -1.000000000000000000, 0.0000000000000000000, 0.0000000000000000000 ) ) ;
#247 =( GEOMETRIC_REPRESENTATION_CONTEXT ( 3 ) GLOBAL_UNCERTAINTY_ASSIGNED_CONTEXT ( ( #242 ) ) GLOBAL_UNIT_ASSIGNED_CONTEXT ( ( #78, #231, #146 ) ) REPRESENTATION_CONTEXT ( 'NONE', 'WORKASPACE' ) );
#248 = DIRECTION ( 'NONE',  ( -0.0000000000000000000, -0.0000000000000000000, -1.000000000000000000 ) ) ;
#249 = AXIS2_PLACEMENT_3D ( 'NONE', #202, #118, #47 ) ;
ENDSEC;
END-ISO-10303-21;
