ISO-10303-21;
HEADER;
FILE_DESCRIPTION (( 'STEP AP214' ),
    '1' );
FILE_NAME ('Micro_DM-250-2120X.STEP',
    '2021-09-02T16:00:48',
    ( '' ),
    ( '' ),
    'SwSTEP 2.0',
    'SolidWorks 2020',
    '' );
FILE_SCHEMA (( 'AUTOMOTIVE_DESIGN' ));
ENDSEC;

DATA;
#1 = FACE_OUTER_BOUND ( 'NONE', #98, .T. ) ;
#2 = ORIENTED_EDGE ( 'NONE', *, *, #38, .F. ) ;
#3 = SURFACE_STYLE_USAGE ( .BOTH. , #250 ) ;
#4 = ORIENTED_EDGE ( 'NONE', *, *, #224, .F. ) ;
#5 =( NAMED_UNIT ( * ) SI_UNIT ( $, .STERADIAN. ) SOLID_ANGLE_UNIT ( ) );
#6 = VERTEX_POINT ( 'NONE', #265 ) ;
#7 = ADVANCED_FACE ( 'NONE', ( #114 ), #39, .T. ) ;
#8 = DIRECTION ( 'NONE',  ( -1.000000000000000000, 0.0000000000000000000, 0.0000000000000000000 ) ) ;
#9 = DIRECTION ( 'NONE',  ( 0.0000000000000000000, 0.0000000000000000000, -1.000000000000000000 ) ) ;
#10 = PRESENTATION_LAYER_ASSIGNMENT (  '', '', ( #291 ) ) ;
#11 = CARTESIAN_POINT ( 'NONE',  ( 0.0000000000000000000, 0.0000000000000000000, 0.0000000000000000000 ) ) ;
#12 = ADVANCED_FACE ( 'NONE', ( #154 ), #100, .T. ) ;
#13 = CYLINDRICAL_SURFACE ( 'NONE', #279, 0.1249500000000000610 ) ;
#14 = CARTESIAN_POINT ( 'NONE',  ( 0.0000000000000000000, 0.0000000000000000000, 0.7499999999999998890 ) ) ;
#15 = FACE_BOUND ( 'NONE', #51, .T. ) ;
#16 = DIRECTION ( 'NONE',  ( -0.0000000000000000000, -0.0000000000000000000, -1.000000000000000000 ) ) ;
#17 = LINE ( 'NONE', #91, #140 ) ;
#18 = AXIS2_PLACEMENT_3D ( 'NONE', #222, #68, #223 ) ;
#19 = DIRECTION ( 'NONE',  ( -1.000000000000000000, 0.0000000000000000000, 0.0000000000000000000 ) ) ;
#20 = APPLICATION_PROTOCOL_DEFINITION ( 'draft international standard', 'automotive_design', 1998, #50 ) ;
#21 =( LENGTH_UNIT ( ) NAMED_UNIT ( * ) SI_UNIT ( $, .METRE. ) );
#22 = EDGE_LOOP ( 'NONE', ( #2, #102, #329, #26 ) ) ;
#23 = EDGE_CURVE ( 'NONE', #49, #31, #238, .T. ) ;
#24 = AXIS2_PLACEMENT_3D ( 'NONE', #234, #229, #197 ) ;
#25 = EDGE_LOOP ( 'NONE', ( #253, #73, #277, #230 ) ) ;
#26 = ORIENTED_EDGE ( 'NONE', *, *, #79, .F. ) ;
#27 =( CONVERSION_BASED_UNIT ( 'INCH', #303 ) LENGTH_UNIT ( ) NAMED_UNIT ( #139 ) );
#28 = ORIENTED_EDGE ( 'NONE', *, *, #212, .T. ) ;
#29 = EDGE_CURVE ( 'NONE', #6, #259, #94, .T. ) ;
#30 = AXIS2_PLACEMENT_3D ( 'NONE', #298, #70, #123 ) ;
#31 = VERTEX_POINT ( 'NONE', #158 ) ;
#32 = DIRECTION ( 'NONE',  ( -0.0000000000000000000, -0.0000000000000000000, -1.000000000000000000 ) ) ;
#33 = EDGE_CURVE ( 'NONE', #282, #280, #153, .T. ) ;
#34 = DIRECTION ( 'NONE',  ( 0.0000000000000000000, 0.0000000000000000000, 1.000000000000000000 ) ) ;
#35 = DIRECTION ( 'NONE',  ( 1.000000000000000000, 0.0000000000000000000, 0.0000000000000000000 ) ) ;
#36 = PRODUCT ( 'Micro_DM-250-2120X', 'Micro_DM-250-2120X', '', ( #155 ) ) ;
#37 = DIRECTION ( 'NONE',  ( 1.000000000000000000, 0.0000000000000000000, 0.0000000000000000000 ) ) ;
#38 = EDGE_CURVE ( 'NONE', #301, #304, #99, .T. ) ;
#39 = CYLINDRICAL_SURFACE ( 'NONE', #192, 0.1249500000000000610 ) ;
#40 = CARTESIAN_POINT ( 'NONE',  ( 0.1249500000000001027, 0.0000000000000000000, 0.7500000000000001110 ) ) ;
#41 = AXIS2_PLACEMENT_3D ( 'NONE', #160, #32, #209 ) ;
#42 = CYLINDRICAL_SURFACE ( 'NONE', #164, 0.1250000000000000000 ) ;
#43 = ADVANCED_FACE ( 'NONE', ( #88 ), #328, .T. ) ;
#44 = DIRECTION ( 'NONE',  ( -0.0000000000000000000, -0.0000000000000000000, -1.000000000000000000 ) ) ;
#45 = DIRECTION ( 'NONE',  ( -1.000000000000000000, 0.0000000000000000000, 0.0000000000000000000 ) ) ;
#46 = AXIS2_PLACEMENT_3D ( 'NONE', #292, #34, #37 ) ;
#47 = LENGTH_MEASURE_WITH_UNIT ( LENGTH_MEASURE( 0.02539999999999999897 ), #306 );
#48 = EDGE_CURVE ( 'NONE', #75, #71, #82, .T. ) ;
#49 = VERTEX_POINT ( 'NONE', #132 ) ;
#50 = APPLICATION_CONTEXT ( 'automotive_design' ) ;
#51 = EDGE_LOOP ( 'NONE', ( #125, #101 ) ) ;
#52 = EDGE_LOOP ( 'NONE', ( #276, #54 ) ) ;
#53 = VERTEX_POINT ( 'NONE', #60 ) ;
#54 = ORIENTED_EDGE ( 'NONE', *, *, #324, .T. ) ;
#55 = VECTOR ( 'NONE', #290, 39.37007874015748143 ) ;
#56 = DIRECTION ( 'NONE',  ( -1.000000000000000000, 0.0000000000000000000, 0.0000000000000000000 ) ) ;
#57 = DIRECTION ( 'NONE',  ( 0.0000000000000000000, 0.0000000000000000000, -1.000000000000000000 ) ) ;
#58 = CARTESIAN_POINT ( 'NONE',  ( 0.0000000000000000000, 0.0000000000000000000, 2.485000000000000320 ) ) ;
#59 = VECTOR ( 'NONE', #220, 39.37007874015748143 ) ;
#60 = CARTESIAN_POINT ( 'NONE',  ( -0.1249500000000000333, 1.530196175534618327E-17, 0.06780978911632114248 ) ) ;
#61 =( GEOMETRIC_REPRESENTATION_CONTEXT ( 3 ) GLOBAL_UNCERTAINTY_ASSIGNED_CONTEXT ( ( #97 ) ) GLOBAL_UNIT_ASSIGNED_CONTEXT ( ( #310, #141, #326 ) ) REPRESENTATION_CONTEXT ( 'NONE', 'WORKASPACE' ) );
#62 = EDGE_CURVE ( 'NONE', #71, #53, #183, .T. ) ;
#63 = FACE_OUTER_BOUND ( 'NONE', #176, .T. ) ;
#64 = CARTESIAN_POINT ( 'NONE',  ( -0.1100000000000001948, 0.0000000000000000000, 2.500000000000000000 ) ) ;
#65 = AXIS2_PLACEMENT_3D ( 'NONE', #264, #151, #258 ) ;
#66 = SURFACE_STYLE_FILL_AREA ( #267 ) ;
#67 = PRESENTATION_STYLE_ASSIGNMENT (( #90 ) ) ;
#68 = DIRECTION ( 'NONE',  ( 0.0000000000000000000, 0.0000000000000000000, 1.000000000000000000 ) ) ;
#69 = ADVANCED_BREP_SHAPE_REPRESENTATION ( 'Micro_DM-250-2120X', ( #210, #65 ), #61 ) ;
#70 = DIRECTION ( 'NONE',  ( -0.0000000000000000000, -0.0000000000000000000, -1.000000000000000000 ) ) ;
#71 = VERTEX_POINT ( 'NONE', #288 ) ;
#72 =( NAMED_UNIT ( * ) PLANE_ANGLE_UNIT ( ) SI_UNIT ( $, .RADIAN. ) );
#73 = ORIENTED_EDGE ( 'NONE', *, *, #33, .T. ) ;
#74 = CARTESIAN_POINT ( 'NONE',  ( -0.007499999999999999722, 8.110223427353346529E-18, 1.707404996040164512E-17 ) ) ;
#75 = VERTEX_POINT ( 'NONE', #215 ) ;
#76 = AXIS2_PLACEMENT_3D ( 'NONE', #226, #179, #255 ) ;
#77 = DIRECTION ( 'NONE',  ( 1.000000000000000000, 0.0000000000000000000, -0.0000000000000000000 ) ) ;
#78 = ORIENTED_EDGE ( 'NONE', *, *, #281, .T. ) ;
#79 = EDGE_CURVE ( 'NONE', #304, #71, #89, .T. ) ;
#80 = CARTESIAN_POINT ( 'NONE',  ( 0.1250000000000000000, 1.530808498934191509E-17, 2.485000000000000320 ) ) ;
#81 = EDGE_LOOP ( 'NONE', ( #127, #105, #327, #145 ) ) ;
#82 = LINE ( 'NONE', #262, #135 ) ;
#83 = CIRCLE ( 'NONE', #159, 0.1249500000000000194 ) ;
#84 = CONICAL_SURFACE ( 'NONE', #18, 0.007499999999999999722, 1.047197551196600518 ) ;
#85 = DIRECTION ( 'NONE',  ( -1.000000000000000000, 0.0000000000000000000, 0.0000000000000000000 ) ) ;
#86 = CARTESIAN_POINT ( 'NONE',  ( 0.0000000000000000000, 0.0000000000000000000, 2.500000000000000000 ) ) ;
#87 = SHAPE_DEFINITION_REPRESENTATION ( #269, #69 ) ;
#88 = FACE_OUTER_BOUND ( 'NONE', #205, .T. ) ;
#89 = LINE ( 'NONE', #314, #211 ) ;
#90 = SURFACE_STYLE_USAGE ( .BOTH. , #136 ) ;
#91 = CARTESIAN_POINT ( 'NONE',  ( 0.1250000000000000000, 1.530808498934191509E-17, 2.500000000000000000 ) ) ;
#92 = PRODUCT_RELATED_PRODUCT_CATEGORY ( 'part', '', ( #36 ) ) ;
#93 = PLANE ( 'NONE',  #163 ) ;
#94 = CIRCLE ( 'NONE', #287, 0.1250000000000000000 ) ;
#95 = CIRCLE ( 'NONE', #30, 0.1249500000000001027 ) ;
#96 = CARTESIAN_POINT ( 'NONE',  ( -0.1250000000000000000, 0.0000000000000000000, 2.485000000000000320 ) ) ;
#97 = UNCERTAINTY_MEASURE_WITH_UNIT (LENGTH_MEASURE( 1.000000000000000082E-05 ), #310, 'distance_accuracy_value', 'NONE');
#98 = EDGE_LOOP ( 'NONE', ( #249, #149 ) ) ;
#99 = CIRCLE ( 'NONE', #198, 0.007499999999999999722 ) ;
#100 = CONICAL_SURFACE ( 'NONE', #295, 0.007499999999999999722, 1.047197551196600518 ) ;
#101 = ORIENTED_EDGE ( 'NONE', *, *, #281, .F. ) ;
#102 = ORIENTED_EDGE ( 'NONE', *, *, #224, .T. ) ;
#103 = DIRECTION ( 'NONE',  ( 0.0000000000000000000, 0.0000000000000000000, 1.000000000000000000 ) ) ;
#104 = EDGE_CURVE ( 'NONE', #31, #282, #189, .T. ) ;
#105 = ORIENTED_EDGE ( 'NONE', *, *, #48, .T. ) ;
#106 = AXIS2_PLACEMENT_3D ( 'NONE', #321, #242, #19 ) ;
#107 = ORIENTED_EDGE ( 'NONE', *, *, #147, .F. ) ;
#108 = DIRECTION ( 'NONE',  ( -0.0000000000000000000, -0.0000000000000000000, -1.000000000000000000 ) ) ;
#109 = DIRECTION ( 'NONE',  ( 0.0000000000000000000, 0.0000000000000000000, 1.000000000000000000 ) ) ;
#110 = AXIS2_PLACEMENT_3D ( 'NONE', #248, #274, #134 ) ;
#111 = CARTESIAN_POINT ( 'NONE',  ( 0.0000000000000000000, 0.0000000000000000000, 2.485000000000000320 ) ) ;
#112 = EDGE_CURVE ( 'NONE', #280, #6, #261, .T. ) ;
#113 = DIRECTION ( 'NONE',  ( 1.000000000000000000, 0.0000000000000000000, 0.0000000000000000000 ) ) ;
#114 = FACE_OUTER_BOUND ( 'NONE', #311, .T. ) ;
#115 = COLOUR_RGB ( '',0.7921568627450980005, 0.8196078431372548767, 0.9333333333333333481 ) ;
#116 = DIRECTION ( 'NONE',  ( -0.0000000000000000000, 0.0000000000000000000, -1.000000000000000000 ) ) ;
#117 = LINE ( 'NONE', #166, #59 ) ;
#118 = DIRECTION ( 'NONE',  ( -1.000000000000000000, 0.0000000000000000000, 0.0000000000000000000 ) ) ;
#119 = VECTOR ( 'NONE', #156, 39.37007874015748143 ) ;
#120 = FACE_OUTER_BOUND ( 'NONE', #256, .T. ) ;
#121 = ADVANCED_FACE ( 'NONE', ( #318 ), #13, .T. ) ;
#122 = SURFACE_STYLE_FILL_AREA ( #142 ) ;
#123 = DIRECTION ( 'NONE',  ( -1.000000000000000000, 0.0000000000000000000, 0.0000000000000000000 ) ) ;
#124 = EDGE_LOOP ( 'NONE', ( #180, #126, #178, #172 ) ) ;
#125 = ORIENTED_EDGE ( 'NONE', *, *, #302, .F. ) ;
#126 = ORIENTED_EDGE ( 'NONE', *, *, #240, .T. ) ;
#127 = ORIENTED_EDGE ( 'NONE', *, *, #302, .T. ) ;
#128 = ORIENTED_EDGE ( 'NONE', *, *, #33, .F. ) ;
#129 = CARTESIAN_POINT ( 'NONE',  ( 0.0000000000000000000, 0.0000000000000000000, 1.707404996040164512E-17 ) ) ;
#130 = CARTESIAN_POINT ( 'NONE',  ( -0.1250000000000000000, 0.0000000000000000000, 2.500000000000000000 ) ) ;
#131 = VECTOR ( 'NONE', #169, 39.37007874015748143 ) ;
#132 = CARTESIAN_POINT ( 'NONE',  ( -0.1100000000000001948, 0.0000000000000000000, 2.500000000000000000 ) ) ;
#133 = DIRECTION ( 'NONE',  ( 0.0000000000000000000, 0.0000000000000000000, -1.000000000000000000 ) ) ;
#134 = DIRECTION ( 'NONE',  ( -1.000000000000000000, 0.0000000000000000000, 0.0000000000000000000 ) ) ;
#135 = VECTOR ( 'NONE', #186, 39.37007874015748143 ) ;
#136 = SURFACE_SIDE_STYLE ('',( #66 ) ) ;
#137 =( NAMED_UNIT ( * ) PLANE_ANGLE_UNIT ( ) SI_UNIT ( $, .RADIAN. ) );
#138 =( LENGTH_UNIT ( ) NAMED_UNIT ( * ) SI_UNIT ( $, .METRE. ) );
#139 = DIMENSIONAL_EXPONENTS ( 1.000000000000000000, 0.0000000000000000000, 0.0000000000000000000, 0.0000000000000000000, 0.0000000000000000000, 0.0000000000000000000, 0.0000000000000000000 ) ;
#140 = VECTOR ( 'NONE', #191, 39.37007874015748143 ) ;
#141 =( NAMED_UNIT ( * ) PLANE_ANGLE_UNIT ( ) SI_UNIT ( $, .RADIAN. ) );
#142 = FILL_AREA_STYLE ('',( #252 ) ) ;
#143 = ORIENTED_EDGE ( 'NONE', *, *, #104, .F. ) ;
#144 = CARTESIAN_POINT ( 'NONE',  ( 0.0000000000000000000, 0.0000000000000000000, 0.0000000000000000000 ) ) ;
#145 = ORIENTED_EDGE ( 'NONE', *, *, #315, .F. ) ;
#146 = AXIS2_PLACEMENT_3D ( 'NONE', #312, #16, #323 ) ;
#147 = EDGE_CURVE ( 'NONE', #280, #282, #204, .T. ) ;
#148 = ORIENTED_EDGE ( 'NONE', *, *, #212, .F. ) ;
#149 = ORIENTED_EDGE ( 'NONE', *, *, #38, .T. ) ;
#150 = ADVANCED_FACE ( 'NONE', ( #63 ), #241, .T. ) ;
#151 = DIRECTION ( 'NONE',  ( 0.0000000000000000000, 0.0000000000000000000, 1.000000000000000000 ) ) ;
#152 = ORIENTED_EDGE ( 'NONE', *, *, #62, .T. ) ;
#153 = CIRCLE ( 'NONE', #268, 0.1250000000000000000 ) ;
#154 = FACE_OUTER_BOUND ( 'NONE', #22, .T. ) ;
#155 = PRODUCT_CONTEXT ( 'NONE', #50, 'mechanical' ) ;
#156 = DIRECTION ( 'NONE',  ( 0.7071067811865499042, 8.659560562354961208E-17, -0.7071067811865451302 ) ) ;
#157 = UNCERTAINTY_MEASURE_WITH_UNIT (LENGTH_MEASURE( 1.000000000000000082E-05 ), #244, 'distance_accuracy_value', 'NONE');
#158 = CARTESIAN_POINT ( 'NONE',  ( 0.1100000000000001948, 1.438959988998141146E-17, 2.500000000000000000 ) ) ;
#159 = AXIS2_PLACEMENT_3D ( 'NONE', #266, #108, #208 ) ;
#160 = CARTESIAN_POINT ( 'NONE',  ( 0.0000000000000000000, 0.0000000000000000000, 0.06780978911632114248 ) ) ;
#161 = CARTESIAN_POINT ( 'NONE',  ( 0.0000000000000000000, 0.0000000000000000000, 2.500000000000000000 ) ) ;
#162 = FACE_OUTER_BOUND ( 'NONE', #25, .T. ) ;
#163 = AXIS2_PLACEMENT_3D ( 'NONE', #40, #116, #45 ) ;
#164 = AXIS2_PLACEMENT_3D ( 'NONE', #271, #44, #118 ) ;
#165 = LENGTH_MEASURE_WITH_UNIT ( LENGTH_MEASURE( 0.02539999999999999897 ), #138 );
#166 = CARTESIAN_POINT ( 'NONE',  ( -0.007499999999999999722, 9.184850993605147975E-19, 1.707404996040164512E-17 ) ) ;
#167 = EDGE_CURVE ( 'NONE', #53, #71, #83, .T. ) ;
#168 = LINE ( 'NONE', #64, #131 ) ;
#169 = DIRECTION ( 'NONE',  ( -0.7071067811865499042, 0.0000000000000000000, -0.7071067811865451302 ) ) ;
#170 = AXIS2_PLACEMENT_3D ( 'NONE', #161, #214, #187 ) ;
#171 = MECHANICAL_DESIGN_GEOMETRIC_PRESENTATION_REPRESENTATION (  '', ( #247 ), #285 ) ;
#172 = ORIENTED_EDGE ( 'NONE', *, *, #112, .F. ) ;
#173 = EDGE_CURVE ( 'NONE', #304, #301, #313, .T. ) ;
#174 = ORIENTED_EDGE ( 'NONE', *, *, #184, .F. ) ;
#175 = CARTESIAN_POINT ( 'NONE',  ( -0.1249500000000001027, 0.0000000000000000000, 0.7500000000000001110 ) ) ;
#176 = EDGE_LOOP ( 'NONE', ( #251, #28 ) ) ;
#177 = DIRECTION ( 'NONE',  ( -0.0000000000000000000, -0.0000000000000000000, -1.000000000000000000 ) ) ;
#178 = ORIENTED_EDGE ( 'NONE', *, *, #29, .F. ) ;
#179 = DIRECTION ( 'NONE',  ( -0.0000000000000000000, -0.0000000000000000000, -1.000000000000000000 ) ) ;
#180 = ORIENTED_EDGE ( 'NONE', *, *, #147, .T. ) ;
#181 = ADVANCED_FACE ( 'NONE', ( #15, #322 ), #93, .T. ) ;
#182 = CARTESIAN_POINT ( 'NONE',  ( 0.0000000000000000000, 0.0000000000000000000, 0.0000000000000000000 ) ) ;
#183 = CIRCLE ( 'NONE', #41, 0.1249500000000000194 ) ;
#184 = EDGE_CURVE ( 'NONE', #49, #280, #168, .T. ) ;
#185 = DIRECTION ( 'NONE',  ( 0.8660254037844400399, 0.0000000000000000000, 0.4999999999999976685 ) ) ;
#186 = DIRECTION ( 'NONE',  ( -0.0000000000000000000, -0.0000000000000000000, -1.000000000000000000 ) ) ;
#187 = DIRECTION ( 'NONE',  ( 1.000000000000000000, 0.0000000000000000000, -0.0000000000000000000 ) ) ;
#188 = CIRCLE ( 'NONE', #76, 0.1250000000000000000 ) ;
#189 = LINE ( 'NONE', #237, #119 ) ;
#190 = APPLICATION_CONTEXT ( 'automotive_design' ) ;
#191 = DIRECTION ( 'NONE',  ( -0.0000000000000000000, -0.0000000000000000000, -1.000000000000000000 ) ) ;
#192 = AXIS2_PLACEMENT_3D ( 'NONE', #182, #239, #260 ) ;
#193 = MECHANICAL_DESIGN_GEOMETRIC_PRESENTATION_REPRESENTATION (  '', ( #291 ), #221 ) ;
#194 =( NAMED_UNIT ( * ) SI_UNIT ( $, .STERADIAN. ) SOLID_ANGLE_UNIT ( ) );
#195 = ADVANCED_FACE ( 'NONE', ( #162 ), #293, .T. ) ;
#196 = CARTESIAN_POINT ( 'NONE',  ( 0.0000000000000000000, 0.0000000000000000000, 2.500000000000000000 ) ) ;
#197 = DIRECTION ( 'NONE',  ( -1.000000000000000000, 0.0000000000000000000, 0.0000000000000000000 ) ) ;
#198 = AXIS2_PLACEMENT_3D ( 'NONE', #129, #236, #85 ) ;
#199 = ORIENTED_EDGE ( 'NONE', *, *, #173, .F. ) ;
#200 = ORIENTED_EDGE ( 'NONE', *, *, #23, .F. ) ;
#201 = CARTESIAN_POINT ( 'NONE',  ( -0.1249500000000000610, 0.0000000000000000000, 0.0000000000000000000 ) ) ;
#202 = ORIENTED_EDGE ( 'NONE', *, *, #104, .T. ) ;
#203 = ORIENTED_EDGE ( 'NONE', *, *, #62, .F. ) ;
#204 = CIRCLE ( 'NONE', #319, 0.1250000000000000000 ) ;
#205 = EDGE_LOOP ( 'NONE', ( #148, #202, #107, #174 ) ) ;
#206 = PRODUCT_DEFINITION ( 'UNKNOWN', '', #263, #305 ) ;
#207 = APPLICATION_PROTOCOL_DEFINITION ( 'draft international standard', 'automotive_design', 1998, #190 ) ;
#208 = DIRECTION ( 'NONE',  ( -1.000000000000000000, 0.0000000000000000000, 0.0000000000000000000 ) ) ;
#209 = DIRECTION ( 'NONE',  ( -1.000000000000000000, 0.0000000000000000000, 0.0000000000000000000 ) ) ;
#210 = MANIFOLD_SOLID_BREP ( 'Cut-Revolve4', #294 ) ;
#211 = VECTOR ( 'NONE', #185, 39.37007874015748143 ) ;
#212 = EDGE_CURVE ( 'NONE', #31, #49, #217, .T. ) ;
#213 = DIRECTION ( 'NONE',  ( -0.0000000000000000000, -0.0000000000000000000, -1.000000000000000000 ) ) ;
#214 = DIRECTION ( 'NONE',  ( 0.0000000000000000000, 0.0000000000000000000, 1.000000000000000000 ) ) ;
#215 = CARTESIAN_POINT ( 'NONE',  ( 0.1249500000000001027, 1.530196175534619251E-17, 0.7500000000000001110 ) ) ;
#216 = ADVANCED_FACE ( 'NONE', ( #245 ), #246, .T. ) ;
#217 = CIRCLE ( 'NONE', #299, 0.1100000000000001948 ) ;
#218 = CIRCLE ( 'NONE', #24, 0.1249500000000001027 ) ;
#219 = FILL_AREA_STYLE_COLOUR ( '', #115 ) ;
#220 = DIRECTION ( 'NONE',  ( -0.8660254037844400399, 1.060575238724908640E-16, 0.4999999999999976685 ) ) ;
#221 =( GEOMETRIC_REPRESENTATION_CONTEXT ( 3 ) GLOBAL_UNCERTAINTY_ASSIGNED_CONTEXT ( ( #157 ) ) GLOBAL_UNIT_ASSIGNED_CONTEXT ( ( #244, #137, #194 ) ) REPRESENTATION_CONTEXT ( 'NONE', 'WORKASPACE' ) );
#222 = CARTESIAN_POINT ( 'NONE',  ( 0.0000000000000000000, 0.0000000000000000000, 1.707404996040164512E-17 ) ) ;
#223 = DIRECTION ( 'NONE',  ( 1.000000000000000000, 0.0000000000000000000, 0.0000000000000000000 ) ) ;
#224 = EDGE_CURVE ( 'NONE', #301, #53, #117, .T. ) ;
#225 = AXIS2_PLACEMENT_3D ( 'NONE', #86, #9, #56 ) ;
#226 = CARTESIAN_POINT ( 'NONE',  ( 0.0000000000000000000, 0.0000000000000000000, 0.7499999999999998890 ) ) ;
#227 = AXIS2_PLACEMENT_3D ( 'NONE', #144, #103, #77 ) ;
#228 = ORIENTED_EDGE ( 'NONE', *, *, #48, .F. ) ;
#229 = DIRECTION ( 'NONE',  ( -0.0000000000000000000, -0.0000000000000000000, -1.000000000000000000 ) ) ;
#230 = ORIENTED_EDGE ( 'NONE', *, *, #324, .F. ) ;
#231 = CARTESIAN_POINT ( 'NONE',  ( 0.007499999999999999722, 0.0000000000000000000, 1.707404996040164512E-17 ) ) ;
#232 = ORIENTED_EDGE ( 'NONE', *, *, #184, .T. ) ;
#233 = DIMENSIONAL_EXPONENTS ( 1.000000000000000000, 0.0000000000000000000, 0.0000000000000000000, 0.0000000000000000000, 0.0000000000000000000, 0.0000000000000000000, 0.0000000000000000000 ) ;
#234 = CARTESIAN_POINT ( 'NONE',  ( 0.0000000000000000000, 0.0000000000000000000, 0.7500000000000001110 ) ) ;
#235 = DIRECTION ( 'NONE',  ( -0.0000000000000000000, -0.0000000000000000000, -1.000000000000000000 ) ) ;
#236 = DIRECTION ( 'NONE',  ( -0.0000000000000000000, -0.0000000000000000000, -1.000000000000000000 ) ) ;
#237 = CARTESIAN_POINT ( 'NONE',  ( 0.1100000000000001948, 1.347111479062090784E-17, 2.500000000000000000 ) ) ;
#238 = CIRCLE ( 'NONE', #46, 0.1100000000000001948 ) ;
#239 = DIRECTION ( 'NONE',  ( -0.0000000000000000000, -0.0000000000000000000, -1.000000000000000000 ) ) ;
#240 = EDGE_CURVE ( 'NONE', #282, #259, #17, .T. ) ;
#241 = PLANE ( 'NONE',  #170 ) ;
#242 = DIRECTION ( 'NONE',  ( 0.0000000000000000000, 0.0000000000000000000, -1.000000000000000000 ) ) ;
#243 = ADVANCED_FACE ( 'NONE', ( #270 ), #42, .T. ) ;
#244 =( CONVERSION_BASED_UNIT ( 'INCH', #165 ) LENGTH_UNIT ( ) NAMED_UNIT ( #233 ) );
#245 = FACE_OUTER_BOUND ( 'NONE', #283, .T. ) ;
#246 = CONICAL_SURFACE ( 'NONE', #106, 0.1100000000000001948, 0.7853981633974517207 ) ;
#247 = STYLED_ITEM ( 'NONE', ( #308 ), #69 ) ;
#248 = CARTESIAN_POINT ( 'NONE',  ( 0.0000000000000000000, 0.0000000000000000000, 2.500000000000000000 ) ) ;
#249 = ORIENTED_EDGE ( 'NONE', *, *, #173, .T. ) ;
#250 = SURFACE_SIDE_STYLE ('',( #122 ) ) ;
#251 = ORIENTED_EDGE ( 'NONE', *, *, #23, .T. ) ;
#252 = FILL_AREA_STYLE_COLOUR ( '', #273 ) ;
#253 = ORIENTED_EDGE ( 'NONE', *, *, #240, .F. ) ;
#254 = ADVANCED_FACE ( 'NONE', ( #120 ), #84, .T. ) ;
#255 = DIRECTION ( 'NONE',  ( -1.000000000000000000, 0.0000000000000000000, 0.0000000000000000000 ) ) ;
#256 = EDGE_LOOP ( 'NONE', ( #4, #199, #309, #152 ) ) ;
#257 = UNCERTAINTY_MEASURE_WITH_UNIT (LENGTH_MEASURE( 1.000000000000000082E-05 ), #27, 'distance_accuracy_value', 'NONE');
#258 = DIRECTION ( 'NONE',  ( 1.000000000000000000, 0.0000000000000000000, 0.0000000000000000000 ) ) ;
#259 = VERTEX_POINT ( 'NONE', #325 ) ;
#260 = DIRECTION ( 'NONE',  ( -1.000000000000000000, 0.0000000000000000000, 0.0000000000000000000 ) ) ;
#261 = LINE ( 'NONE', #130, #55 ) ;
#262 = CARTESIAN_POINT ( 'NONE',  ( 0.1249500000000000610, 1.530196175534618635E-17, 0.0000000000000000000 ) ) ;
#263 = PRODUCT_DEFINITION_FORMATION_WITH_SPECIFIED_SOURCE ( 'ANY', '', #36, .NOT_KNOWN. ) ;
#264 = CARTESIAN_POINT ( 'NONE',  ( 0.0000000000000000000, 0.0000000000000000000, 0.0000000000000000000 ) ) ;
#265 = CARTESIAN_POINT ( 'NONE',  ( -0.1250000000000000000, 0.0000000000000000000, 0.7499999999999998890 ) ) ;
#266 = CARTESIAN_POINT ( 'NONE',  ( 0.0000000000000000000, 0.0000000000000000000, 0.06780978911632114248 ) ) ;
#267 = FILL_AREA_STYLE ('',( #219 ) ) ;
#268 = AXIS2_PLACEMENT_3D ( 'NONE', #111, #57, #286 ) ;
#269 = PRODUCT_DEFINITION_SHAPE ( 'NONE', 'NONE',  #206 ) ;
#270 = FACE_OUTER_BOUND ( 'NONE', #124, .T. ) ;
#271 = CARTESIAN_POINT ( 'NONE',  ( 0.0000000000000000000, 0.0000000000000000000, 2.500000000000000000 ) ) ;
#272 = DIRECTION ( 'NONE',  ( 1.000000000000000000, 0.0000000000000000000, 0.0000000000000000000 ) ) ;
#273 = COLOUR_RGB ( '',0.7921568627450980005, 0.8196078431372548767, 0.9333333333333333481 ) ;
#274 = DIRECTION ( 'NONE',  ( -0.0000000000000000000, -0.0000000000000000000, -1.000000000000000000 ) ) ;
#275 = LINE ( 'NONE', #201, #296 ) ;
#276 = ORIENTED_EDGE ( 'NONE', *, *, #29, .T. ) ;
#277 = ORIENTED_EDGE ( 'NONE', *, *, #112, .T. ) ;
#278 = DIMENSIONAL_EXPONENTS ( 1.000000000000000000, 0.0000000000000000000, 0.0000000000000000000, 0.0000000000000000000, 0.0000000000000000000, 0.0000000000000000000, 0.0000000000000000000 ) ;
#279 = AXIS2_PLACEMENT_3D ( 'NONE', #11, #213, #289 ) ;
#280 = VERTEX_POINT ( 'NONE', #96 ) ;
#281 = EDGE_CURVE ( 'NONE', #75, #316, #95, .T. ) ;
#282 = VERTEX_POINT ( 'NONE', #80 ) ;
#283 = EDGE_LOOP ( 'NONE', ( #143, #200, #232, #128 ) ) ;
#284 = ADVANCED_FACE ( 'NONE', ( #1 ), #300, .F. ) ;
#285 =( GEOMETRIC_REPRESENTATION_CONTEXT ( 3 ) GLOBAL_UNCERTAINTY_ASSIGNED_CONTEXT ( ( #257 ) ) GLOBAL_UNIT_ASSIGNED_CONTEXT ( ( #27, #72, #5 ) ) REPRESENTATION_CONTEXT ( 'NONE', 'WORKASPACE' ) );
#286 = DIRECTION ( 'NONE',  ( 1.000000000000000000, 0.0000000000000000000, 0.0000000000000000000 ) ) ;
#287 = AXIS2_PLACEMENT_3D ( 'NONE', #14, #235, #8 ) ;
#288 = CARTESIAN_POINT ( 'NONE',  ( 0.1249500000000000333, 0.0000000000000000000, 0.06780978911632114248 ) ) ;
#289 = DIRECTION ( 'NONE',  ( -1.000000000000000000, 0.0000000000000000000, 0.0000000000000000000 ) ) ;
#290 = DIRECTION ( 'NONE',  ( -0.0000000000000000000, -0.0000000000000000000, -1.000000000000000000 ) ) ;
#291 = STYLED_ITEM ( 'NONE', ( #67 ), #210 ) ;
#292 = CARTESIAN_POINT ( 'NONE',  ( 0.0000000000000000000, 0.0000000000000000000, 2.500000000000000000 ) ) ;
#293 = CYLINDRICAL_SURFACE ( 'NONE', #110, 0.1250000000000000000 ) ;
#294 = CLOSED_SHELL ( 'NONE', ( #121, #12, #43, #243, #195, #150, #216, #181, #254, #7, #284 ) ) ;
#295 = AXIS2_PLACEMENT_3D ( 'NONE', #317, #109, #35 ) ;
#296 = VECTOR ( 'NONE', #177, 39.37007874015748143 ) ;
#297 = DIRECTION ( 'NONE',  ( 0.0000000000000000000, 0.0000000000000000000, 1.000000000000000000 ) ) ;
#298 = CARTESIAN_POINT ( 'NONE',  ( 0.0000000000000000000, 0.0000000000000000000, 0.7500000000000001110 ) ) ;
#299 = AXIS2_PLACEMENT_3D ( 'NONE', #196, #297, #272 ) ;
#300 = PLANE ( 'NONE',  #227 ) ;
#301 = VERTEX_POINT ( 'NONE', #74 ) ;
#302 = EDGE_CURVE ( 'NONE', #316, #75, #218, .T. ) ;
#303 = LENGTH_MEASURE_WITH_UNIT ( LENGTH_MEASURE( 0.02539999999999999897 ), #21 );
#304 = VERTEX_POINT ( 'NONE', #231 ) ;
#305 = PRODUCT_DEFINITION_CONTEXT ( 'detailed design', #190, 'design' ) ;
#306 =( LENGTH_UNIT ( ) NAMED_UNIT ( * ) SI_UNIT ( $, .METRE. ) );
#307 = ORIENTED_EDGE ( 'NONE', *, *, #315, .T. ) ;
#308 = PRESENTATION_STYLE_ASSIGNMENT (( #3 ) ) ;
#309 = ORIENTED_EDGE ( 'NONE', *, *, #79, .T. ) ;
#310 =( CONVERSION_BASED_UNIT ( 'INCH', #47 ) LENGTH_UNIT ( ) NAMED_UNIT ( #278 ) );
#311 = EDGE_LOOP ( 'NONE', ( #228, #78, #307, #203 ) ) ;
#312 = CARTESIAN_POINT ( 'NONE',  ( 0.0000000000000000000, 0.0000000000000000000, 1.707404996040164512E-17 ) ) ;
#313 = CIRCLE ( 'NONE', #146, 0.007499999999999999722 ) ;
#314 = CARTESIAN_POINT ( 'NONE',  ( 0.007499999999999999722, 0.0000000000000000000, 1.707404996040164512E-17 ) ) ;
#315 = EDGE_CURVE ( 'NONE', #316, #53, #275, .T. ) ;
#316 = VERTEX_POINT ( 'NONE', #175 ) ;
#317 = CARTESIAN_POINT ( 'NONE',  ( 0.0000000000000000000, 0.0000000000000000000, 1.707404996040164512E-17 ) ) ;
#318 = FACE_OUTER_BOUND ( 'NONE', #81, .T. ) ;
#319 = AXIS2_PLACEMENT_3D ( 'NONE', #58, #133, #113 ) ;
#320 = PRESENTATION_LAYER_ASSIGNMENT (  '', '', ( #247 ) ) ;
#321 = CARTESIAN_POINT ( 'NONE',  ( 0.0000000000000000000, 0.0000000000000000000, 2.500000000000000000 ) ) ;
#322 = FACE_OUTER_BOUND ( 'NONE', #52, .T. ) ;
#323 = DIRECTION ( 'NONE',  ( -1.000000000000000000, 0.0000000000000000000, 0.0000000000000000000 ) ) ;
#324 = EDGE_CURVE ( 'NONE', #259, #6, #188, .T. ) ;
#325 = CARTESIAN_POINT ( 'NONE',  ( 0.1250000000000000000, 1.530808498934191509E-17, 0.7499999999999998890 ) ) ;
#326 =( NAMED_UNIT ( * ) SI_UNIT ( $, .STERADIAN. ) SOLID_ANGLE_UNIT ( ) );
#327 = ORIENTED_EDGE ( 'NONE', *, *, #167, .F. ) ;
#328 = CONICAL_SURFACE ( 'NONE', #225, 0.1100000000000001948, 0.7853981633974517207 ) ;
#329 = ORIENTED_EDGE ( 'NONE', *, *, #167, .T. ) ;
ENDSEC;
END-ISO-10303-21;
