ISO-10303-21;
HEADER;
FILE_DESCRIPTION (( 'STEP AP214' ),
    '1' );
FILE_NAME ('86062.STEP',
    '2023-06-23T16:04:10',
    ( '' ),
    ( '' ),
    'SwSTEP 2.0',
    'SolidWorks 2023',
    '' );
FILE_SCHEMA (( 'AUTOMOTIVE_DESIGN' ));
ENDSEC;

DATA;
#1 = MECHANICAL_DESIGN_GEOMETRIC_PRESENTATION_REPRESENTATION (  '', ( #214 ), #198 ) ;
#2 = CARTESIAN_POINT ( 'NONE',  ( 0.09374999999999998612, 4.000000000000000000, 1.148106374200643247E-17 ) ) ;
#3 = ORIENTED_EDGE ( 'NONE', *, *, #212, .T. ) ;
#4 = CARTESIAN_POINT ( 'NONE',  ( 0.000000000000000000, 1.562500000000000000, 0.000000000000000000 ) ) ;
#5 =( GEOMETRIC_REPRESENTATION_CONTEXT ( 3 ) GLOBAL_UNCERTAINTY_ASSIGNED_CONTEXT ( ( #275 ) ) GLOBAL_UNIT_ASSIGNED_CONTEXT ( ( #51, #253, #158 ) ) REPRESENTATION_CONTEXT ( 'NONE', 'WORKASPACE' ) );
#6 = CARTESIAN_POINT ( 'NONE',  ( 1.224646799147353207E-16, 4.000000000000000000, 0.000000000000000000 ) ) ;
#7 =( NAMED_UNIT ( * ) PLANE_ANGLE_UNIT ( ) SI_UNIT ( $, .RADIAN. ) );
#8 = SHAPE_DEFINITION_REPRESENTATION ( #17, #234 ) ;
#9 = PRESENTATION_LAYER_ASSIGNMENT (  '', '', ( #148 ) ) ;
#10 = PRODUCT_RELATED_PRODUCT_CATEGORY ( 'part', '', ( #161 ) ) ;
#11 = DIRECTION ( 'NONE',  ( 0.000000000000000000, 0.000000000000000000, -1.000000000000000000 ) ) ;
#12 = SURFACE_SIDE_STYLE ('',( #42 ) ) ;
#13 = ORIENTED_EDGE ( 'NONE', *, *, #288, .T. ) ;
#14 = CLOSED_SHELL ( 'NONE', ( #79, #252, #182, #200 ) ) ;
#15 = DIRECTION ( 'NONE',  ( -1.000000000000000000, 0.000000000000000000, 0.000000000000000000 ) ) ;
#16 = SURFACE_STYLE_FILL_AREA ( #46 ) ;
#17 = PRODUCT_DEFINITION_SHAPE ( 'NONE', 'NONE',  #135 ) ;
#18 = APPLICATION_CONTEXT ( 'automotive_design' ) ;
#19 = PRESENTATION_LAYER_ASSIGNMENT (  '', '', ( #214 ) ) ;
#20 = UNCERTAINTY_MEASURE_WITH_UNIT (LENGTH_MEASURE( 1.000000000000000082E-05 ), #74, 'distance_accuracy_value', 'NONE');
#21 = LENGTH_MEASURE_WITH_UNIT ( LENGTH_MEASURE( 0.02539999999999999897 ), #98 );
#22 = MECHANICAL_DESIGN_GEOMETRIC_PRESENTATION_REPRESENTATION (  '', ( #104 ), #220 ) ;
#23 = VECTOR ( 'NONE', #141, 39.37007874015748143 ) ;
#24 = CARTESIAN_POINT ( 'NONE',  ( 0.000000000000000000, 0.000000000000000000, -0.09374999999999998612 ) ) ;
#25 = DIRECTION ( 'NONE',  ( 0.000000000000000000, 0.000000000000000000, -1.000000000000000000 ) ) ;
#26 = CARTESIAN_POINT ( 'NONE',  ( 0.000000000000000000, 0.000000000000000000, 0.000000000000000000 ) ) ;
#27 = CARTESIAN_POINT ( 'NONE',  ( 1.224646799147353207E-16, 4.000000000000000000, 0.000000000000000000 ) ) ;
#28 = ORIENTED_EDGE ( 'NONE', *, *, #94, .F. ) ;
#29 = COLOUR_RGB ( '',1.000000000000000000, 0.000000000000000000, 0.000000000000000000 ) ;
#30 = CARTESIAN_POINT ( 'NONE',  ( -0.09374999999999980571, 4.000000000000000000, 0.000000000000000000 ) ) ;
#31 = DIRECTION ( 'NONE',  ( 5.024191996501961812E-17, 1.000000000000000000, -0.000000000000000000 ) ) ;
#32 = PRODUCT_CONTEXT ( 'NONE', #37, 'mechanical' ) ;
#33 = VERTEX_POINT ( 'NONE', #107 ) ;
#34 = ADVANCED_FACE ( 'NONE', ( #269 ), #302, .F. ) ;
#35 = ORIENTED_EDGE ( 'NONE', *, *, #288, .F. ) ;
#36 = MECHANICAL_DESIGN_GEOMETRIC_PRESENTATION_REPRESENTATION (  '', ( #228 ), #142 ) ;
#37 = APPLICATION_CONTEXT ( 'automotive_design' ) ;
#38 = SURFACE_STYLE_USAGE ( .BOTH. , #154 ) ;
#39 =( LENGTH_UNIT ( ) NAMED_UNIT ( * ) SI_UNIT ( $, .METRE. ) );
#40 = DIMENSIONAL_EXPONENTS ( 1.000000000000000000, 0.000000000000000000, 0.000000000000000000, 0.000000000000000000, 0.000000000000000000, 0.000000000000000000, 0.000000000000000000 ) ;
#41 = CYLINDRICAL_SURFACE ( 'NONE', #285, 0.09374999999999998612 ) ;
#42 = SURFACE_STYLE_FILL_AREA ( #246 ) ;
#43 =( LENGTH_UNIT ( ) NAMED_UNIT ( * ) SI_UNIT ( $, .METRE. ) );
#44 = PRESENTATION_STYLE_ASSIGNMENT (( #70 ) ) ;
#45 = LENGTH_MEASURE_WITH_UNIT ( LENGTH_MEASURE( 0.02539999999999999897 ), #230 );
#46 = FILL_AREA_STYLE ('',( #282 ) ) ;
#47 = AXIS2_PLACEMENT_3D ( 'NONE', #194, #145, #262 ) ;
#48 = UNCERTAINTY_MEASURE_WITH_UNIT (LENGTH_MEASURE( 1.000000000000000082E-05 ), #255, 'distance_accuracy_value', 'NONE');
#49 = SURFACE_SIDE_STYLE ('',( #16 ) ) ;
#50 = DIMENSIONAL_EXPONENTS ( 1.000000000000000000, 0.000000000000000000, 0.000000000000000000, 0.000000000000000000, 0.000000000000000000, 0.000000000000000000, 0.000000000000000000 ) ;
#51 =( CONVERSION_BASED_UNIT ( 'INCH', #63 ) LENGTH_UNIT ( ) NAMED_UNIT ( #86 ) );
#52 = DIRECTION ( 'NONE',  ( 0.000000000000000000, 0.000000000000000000, 1.000000000000000000 ) ) ;
#53 = ORIENTED_EDGE ( 'NONE', *, *, #193, .F. ) ;
#54 = DIRECTION ( 'NONE',  ( -1.000000000000000000, 0.000000000000000000, 0.000000000000000000 ) ) ;
#55 = VERTEX_POINT ( 'NONE', #180 ) ;
#56 = DIRECTION ( 'NONE',  ( 0.000000000000000000, 0.000000000000000000, -1.000000000000000000 ) ) ;
#57 = APPLICATION_PROTOCOL_DEFINITION ( 'draft international standard', 'automotive_design', 1998, #18 ) ;
#58 = EDGE_CURVE ( 'NONE', #33, #226, #291, .T. ) ;
#59 = DIRECTION ( 'NONE',  ( 0.000000000000000000, -0.000000000000000000, 1.000000000000000000 ) ) ;
#60 = FACE_OUTER_BOUND ( 'NONE', #204, .T. ) ;
#61 = ORIENTED_EDGE ( 'NONE', *, *, #193, .T. ) ;
#62 =( NAMED_UNIT ( * ) SI_UNIT ( $, .STERADIAN. ) SOLID_ANGLE_UNIT ( ) );
#63 = LENGTH_MEASURE_WITH_UNIT ( LENGTH_MEASURE( 0.02539999999999999897 ), #43 );
#64 = FILL_AREA_STYLE_COLOUR ( '', #176 ) ;
#65 = FILL_AREA_STYLE_COLOUR ( '', #153 ) ;
#66 = SURFACE_STYLE_FILL_AREA ( #277 ) ;
#67 =( GEOMETRIC_REPRESENTATION_CONTEXT ( 3 ) GLOBAL_UNCERTAINTY_ASSIGNED_CONTEXT ( ( #20 ) ) GLOBAL_UNIT_ASSIGNED_CONTEXT ( ( #74, #168, #292 ) ) REPRESENTATION_CONTEXT ( 'NONE', 'WORKASPACE' ) );
#68 = PLANE ( 'NONE',  #271 ) ;
#69 = PRESENTATION_STYLE_ASSIGNMENT (( #91 ) ) ;
#70 = SURFACE_STYLE_USAGE ( .BOTH. , #93 ) ;
#71 = AXIS2_PLACEMENT_3D ( 'NONE', #307, #52, #258 ) ;
#72 = EDGE_CURVE ( 'NONE', #235, #267, #244, .T. ) ;
#73 = DIRECTION ( 'NONE',  ( 5.024191996501961812E-17, 1.000000000000000000, -0.000000000000000000 ) ) ;
#74 =( CONVERSION_BASED_UNIT ( 'INCH', #192 ) LENGTH_UNIT ( ) NAMED_UNIT ( #187 ) );
#75 =( NAMED_UNIT ( * ) SI_UNIT ( $, .STERADIAN. ) SOLID_ANGLE_UNIT ( ) );
#76 = EDGE_LOOP ( 'NONE', ( #53, #101 ) ) ;
#77 = COLOUR_RGB ( '',0.7921568627450980005, 0.8196078431372548767, 0.9333333333333333481 ) ;
#78 = DIRECTION ( 'NONE',  ( 0.000000000000000000, 0.000000000000000000, -1.000000000000000000 ) ) ;
#79 = ADVANCED_FACE ( 'NONE', ( #274 ), #128, .T. ) ;
#80 = EDGE_LOOP ( 'NONE', ( #61, #201, #157, #133 ) ) ;
#81 = CARTESIAN_POINT ( 'NONE',  ( 0.000000000000000000, 0.000000000000000000, 0.000000000000000000 ) ) ;
#82 = AXIS2_PLACEMENT_3D ( 'NONE', #108, #89, #184 ) ;
#83 = VERTEX_POINT ( 'NONE', #24 ) ;
#84 = CARTESIAN_POINT ( 'NONE',  ( 0.09375000000000004163, 4.000000000000000000, 1.148106374200642630E-17 ) ) ;
#85 = DIRECTION ( 'NONE',  ( -5.024191996501961812E-17, -1.000000000000000000, 0.000000000000000000 ) ) ;
#86 = DIMENSIONAL_EXPONENTS ( 1.000000000000000000, 0.000000000000000000, 0.000000000000000000, 0.000000000000000000, 0.000000000000000000, 0.000000000000000000, 0.000000000000000000 ) ;
#87 = PRESENTATION_STYLE_ASSIGNMENT (( #286 ) ) ;
#88 = CARTESIAN_POINT ( 'NONE',  ( 0.000000000000000000, 1.562500000000000000, 0.000000000000000000 ) ) ;
#89 = DIRECTION ( 'NONE',  ( -0.000000000000000000, -1.000000000000000000, -0.000000000000000000 ) ) ;
#90 = DIMENSIONAL_EXPONENTS ( 1.000000000000000000, 0.000000000000000000, 0.000000000000000000, 0.000000000000000000, 0.000000000000000000, 0.000000000000000000, 0.000000000000000000 ) ;
#91 = SURFACE_STYLE_USAGE ( .BOTH. , #303 ) ;
#92 = ADVANCED_FACE ( 'NONE', ( #170 ), #167, .F. ) ;
#93 = SURFACE_SIDE_STYLE ('',( #281 ) ) ;
#94 = EDGE_CURVE ( 'NONE', #55, #83, #190, .T. ) ;
#95 = AXIS2_PLACEMENT_3D ( 'NONE', #266, #309, #56 ) ;
#96 = AXIS2_PLACEMENT_3D ( 'NONE', #97, #73, #54 ) ;
#97 = CARTESIAN_POINT ( 'NONE',  ( 0.000000000000000000, 1.562500000000000000, 0.000000000000000000 ) ) ;
#98 =( LENGTH_UNIT ( ) NAMED_UNIT ( * ) SI_UNIT ( $, .METRE. ) );
#99 = CIRCLE ( 'NONE', #162, 0.09374999999999987510 ) ;
#100 = PRESENTATION_LAYER_ASSIGNMENT (  '', '', ( #164 ) ) ;
#101 = ORIENTED_EDGE ( 'NONE', *, *, #58, .F. ) ;
#102 = FACE_OUTER_BOUND ( 'NONE', #306, .T. ) ;
#103 = CARTESIAN_POINT ( 'NONE',  ( -0.09374999999999998612, 1.562500000000000000, 0.000000000000000000 ) ) ;
#104 = STYLED_ITEM ( 'NONE', ( #69 ), #200 ) ;
#105 = FILL_AREA_STYLE ('',( #219 ) ) ;
#106 = DIRECTION ( 'NONE',  ( 0.000000000000000000, 1.000000000000000000, 0.000000000000000000 ) ) ;
#107 = CARTESIAN_POINT ( 'NONE',  ( 1.148106374200643401E-17, 1.562500000000000000, 0.09374999999999998612 ) ) ;
#108 = CARTESIAN_POINT ( 'NONE',  ( 0.000000000000000000, 1.562500000000000000, 0.000000000000000000 ) ) ;
#109 = ORIENTED_EDGE ( 'NONE', *, *, #227, .F. ) ;
#110 = EDGE_LOOP ( 'NONE', ( #137, #126 ) ) ;
#111 = PRESENTATION_STYLE_ASSIGNMENT (( #152 ) ) ;
#112 = DIRECTION ( 'NONE',  ( 1.000000000000000000, -5.024191996501961812E-17, 0.000000000000000000 ) ) ;
#113 = SURFACE_STYLE_FILL_AREA ( #136 ) ;
#114 = DIRECTION ( 'NONE',  ( 5.024191996501961812E-17, 1.000000000000000000, -0.000000000000000000 ) ) ;
#115 = CIRCLE ( 'NONE', #82, 0.09374999999999998612 ) ;
#116 = CIRCLE ( 'NONE', #264, 0.09374999999999987510 ) ;
#117 =( LENGTH_UNIT ( ) NAMED_UNIT ( * ) SI_UNIT ( $, .METRE. ) );
#118 = APPLICATION_PROTOCOL_DEFINITION ( 'draft international standard', 'automotive_design', 1998, #37 ) ;
#119 = FILL_AREA_STYLE_COLOUR ( '', #29 ) ;
#120 = CARTESIAN_POINT ( 'NONE',  ( 0.000000000000000000, 0.000000000000000000, 0.000000000000000000 ) ) ;
#121 = EDGE_LOOP ( 'NONE', ( #261, #151 ) ) ;
#122 = VECTOR ( 'NONE', #276, 39.37007874015748143 ) ;
#123 = LINE ( 'NONE', #216, #283 ) ;
#124 = EDGE_CURVE ( 'NONE', #203, #267, #99, .T. ) ;
#125 = MECHANICAL_DESIGN_GEOMETRIC_PRESENTATION_REPRESENTATION (  '', ( #148 ), #293 ) ;
#126 = ORIENTED_EDGE ( 'NONE', *, *, #124, .T. ) ;
#127 = DIRECTION ( 'NONE',  ( 5.024191996501961812E-17, 1.000000000000000000, -0.000000000000000000 ) ) ;
#128 = CYLINDRICAL_SURFACE ( 'NONE', #270, 0.09374999999999998612 ) ;
#129 = PRODUCT_DEFINITION_CONTEXT ( 'detailed design', #18, 'design' ) ;
#130 = ORIENTED_EDGE ( 'NONE', *, *, #143, .T. ) ;
#131 = AXIS2_PLACEMENT_3D ( 'NONE', #225, #114, #305 ) ;
#132 =( CONVERSION_BASED_UNIT ( 'INCH', #301 ) LENGTH_UNIT ( ) NAMED_UNIT ( #210 ) );
#133 = ORIENTED_EDGE ( 'NONE', *, *, #212, .F. ) ;
#134 = MANIFOLD_SOLID_BREP ( 'Revolve - Tool Body (Straight Shanked)', #254 ) ;
#135 = PRODUCT_DEFINITION ( 'UNKNOWN', '', #249, #129 ) ;
#136 = FILL_AREA_STYLE ('',( #155 ) ) ;
#137 = ORIENTED_EDGE ( 'NONE', *, *, #280, .T. ) ;
#138 = DIRECTION ( 'NONE',  ( -0.000000000000000000, -1.000000000000000000, -0.000000000000000000 ) ) ;
#139 = AXIS2_PLACEMENT_3D ( 'NONE', #6, #127, #195 ) ;
#140 =( NAMED_UNIT ( * ) SI_UNIT ( $, .STERADIAN. ) SOLID_ANGLE_UNIT ( ) );
#141 = DIRECTION ( 'NONE',  ( -0.000000000000000000, -1.000000000000000000, -0.000000000000000000 ) ) ;
#142 =( GEOMETRIC_REPRESENTATION_CONTEXT ( 3 ) GLOBAL_UNCERTAINTY_ASSIGNED_CONTEXT ( ( #245 ) ) GLOBAL_UNIT_ASSIGNED_CONTEXT ( ( #189, #287, #140 ) ) REPRESENTATION_CONTEXT ( 'NONE', 'WORKASPACE' ) );
#143 = EDGE_CURVE ( 'NONE', #294, #203, #181, .T. ) ;
#144 = DIRECTION ( 'NONE',  ( 5.024191996501961812E-17, 1.000000000000000000, -0.000000000000000000 ) ) ;
#145 = DIRECTION ( 'NONE',  ( 5.024191996501961812E-17, 1.000000000000000000, -0.000000000000000000 ) ) ;
#146 = CARTESIAN_POINT ( 'NONE',  ( -0.09374999999999975020, 4.000000000000000000, 0.000000000000000000 ) ) ;
#147 = AXIS2_PLACEMENT_3D ( 'NONE', #272, #85, #112 ) ;
#148 = STYLED_ITEM ( 'NONE', ( #290 ), #232 ) ;
#149 = DIRECTION ( 'NONE',  ( -0.000000000000000000, -1.000000000000000000, -0.000000000000000000 ) ) ;
#150 = CARTESIAN_POINT ( 'NONE',  ( 0.09374999999999998612, 1.562500000000000000, 1.148106374200643247E-17 ) ) ;
#151 = ORIENTED_EDGE ( 'NONE', *, *, #94, .T. ) ;
#152 = SURFACE_STYLE_USAGE ( .BOTH. , #12 ) ;
#153 = COLOUR_RGB ( '',1.000000000000000000, 0.000000000000000000, 0.000000000000000000 ) ;
#154 = SURFACE_SIDE_STYLE ('',( #66 ) ) ;
#155 = FILL_AREA_STYLE_COLOUR ( '', #296 ) ;
#156 = FILL_AREA_STYLE ('',( #119 ) ) ;
#157 = ORIENTED_EDGE ( 'NONE', *, *, #260, .F. ) ;
#158 =( NAMED_UNIT ( * ) SI_UNIT ( $, .STERADIAN. ) SOLID_ANGLE_UNIT ( ) );
#159 = PRESENTATION_LAYER_ASSIGNMENT (  '', '', ( #104 ) ) ;
#160 = UNCERTAINTY_MEASURE_WITH_UNIT (LENGTH_MEASURE( 1.000000000000000082E-05 ), #213, 'distance_accuracy_value', 'NONE');
#161 = PRODUCT ( '86062', '86062', '', ( #32 ) ) ;
#162 = AXIS2_PLACEMENT_3D ( 'NONE', #27, #144, #237 ) ;
#163 = PRESENTATION_LAYER_ASSIGNMENT (  '', '', ( #228 ) ) ;
#164 = STYLED_ITEM ( 'NONE', ( #44 ), #252 ) ;
#165 = UNCERTAINTY_MEASURE_WITH_UNIT (LENGTH_MEASURE( 1.000000000000000082E-05 ), #243, 'distance_accuracy_value', 'NONE');
#166 = DIRECTION ( 'NONE',  ( 0.000000000000000000, 0.000000000000000000, -1.000000000000000000 ) ) ;
#167 = PLANE ( 'NONE',  #47 ) ;
#168 =( NAMED_UNIT ( * ) PLANE_ANGLE_UNIT ( ) SI_UNIT ( $, .RADIAN. ) );
#169 = AXIS2_PLACEMENT_3D ( 'NONE', #88, #149, #242 ) ;
#170 = FACE_OUTER_BOUND ( 'NONE', #205, .T. ) ;
#171 = CYLINDRICAL_SURFACE ( 'NONE', #215, 0.09374999999999991673 ) ;
#172 = SURFACE_SIDE_STYLE ('',( #199 ) ) ;
#173 = DIRECTION ( 'NONE',  ( 0.000000000000000000, -1.000000000000000000, -0.000000000000000000 ) ) ;
#174 = ORIENTED_EDGE ( 'NONE', *, *, #72, .F. ) ;
#175 = LENGTH_MEASURE_WITH_UNIT ( LENGTH_MEASURE( 0.02539999999999999897 ), #117 );
#176 = COLOUR_RGB ( '',1.000000000000000000, 0.000000000000000000, 0.000000000000000000 ) ;
#177 = FACE_OUTER_BOUND ( 'NONE', #76, .T. ) ;
#178 = ORIENTED_EDGE ( 'NONE', *, *, #143, .F. ) ;
#179 = UNCERTAINTY_MEASURE_WITH_UNIT (LENGTH_MEASURE( 1.000000000000000082E-05 ), #132, 'distance_accuracy_value', 'NONE');
#180 = CARTESIAN_POINT ( 'NONE',  ( 1.148106374200643401E-17, 0.000000000000000000, 0.09374999999999998612 ) ) ;
#181 = LINE ( 'NONE', #84, #122 ) ;
#182 = ADVANCED_FACE ( 'NONE', ( #188 ), #41, .T. ) ;
#183 = DIRECTION ( 'NONE',  ( 5.024191996501961812E-17, 1.000000000000000000, -0.000000000000000000 ) ) ;
#184 = DIRECTION ( 'NONE',  ( 0.000000000000000000, 0.000000000000000000, -1.000000000000000000 ) ) ;
#185 = VECTOR ( 'NONE', #183, 39.37007874015748143 ) ;
#186 = AXIS2_PLACEMENT_3D ( 'NONE', #4, #106, #59 ) ;
#187 = DIMENSIONAL_EXPONENTS ( 1.000000000000000000, 0.000000000000000000, 0.000000000000000000, 0.000000000000000000, 0.000000000000000000, 0.000000000000000000, 0.000000000000000000 ) ;
#188 = FACE_OUTER_BOUND ( 'NONE', #251, .T. ) ;
#189 =( CONVERSION_BASED_UNIT ( 'INCH', #45 ) LENGTH_UNIT ( ) NAMED_UNIT ( #40 ) );
#190 = CIRCLE ( 'NONE', #95, 0.09374999999999998612 ) ;
#191 = MECHANICAL_DESIGN_GEOMETRIC_PRESENTATION_REPRESENTATION (  '', ( #164 ), #67 ) ;
#192 = LENGTH_MEASURE_WITH_UNIT ( LENGTH_MEASURE( 0.02539999999999999897 ), #229 );
#193 = EDGE_CURVE ( 'NONE', #226, #33, #115, .T. ) ;
#194 = CARTESIAN_POINT ( 'NONE',  ( 1.183242432080360929E-34, 1.562500000000000000, 0.000000000000000000 ) ) ;
#195 = DIRECTION ( 'NONE',  ( -1.000000000000000000, 0.000000000000000000, 0.000000000000000000 ) ) ;
#196 = DIRECTION ( 'NONE',  ( -0.000000000000000000, -1.000000000000000000, -0.000000000000000000 ) ) ;
#197 = DIRECTION ( 'NONE',  ( -0.000000000000000000, -1.000000000000000000, -0.000000000000000000 ) ) ;
#198 =( GEOMETRIC_REPRESENTATION_CONTEXT ( 3 ) GLOBAL_UNCERTAINTY_ASSIGNED_CONTEXT ( ( #179 ) ) GLOBAL_UNIT_ASSIGNED_CONTEXT ( ( #132, #202, #62 ) ) REPRESENTATION_CONTEXT ( 'NONE', 'WORKASPACE' ) );
#199 = SURFACE_STYLE_FILL_AREA ( #105 ) ;
#200 = ADVANCED_FACE ( 'NONE', ( #278 ), #68, .T. ) ;
#201 = ORIENTED_EDGE ( 'NONE', *, *, #227, .T. ) ;
#202 =( NAMED_UNIT ( * ) PLANE_ANGLE_UNIT ( ) SI_UNIT ( $, .RADIAN. ) );
#203 = VERTEX_POINT ( 'NONE', #2 ) ;
#204 = EDGE_LOOP ( 'NONE', ( #178, #13, #248, #236 ) ) ;
#205 = EDGE_LOOP ( 'NONE', ( #259, #35 ) ) ;
#206 = COLOUR_RGB ( '',0.7921568627450980005, 0.8196078431372548767, 0.9333333333333333481 ) ;
#207 = CIRCLE ( 'NONE', #131, 0.09374999999999998612 ) ;
#208 = CIRCLE ( 'NONE', #96, 0.09374999999999998612 ) ;
#209 = DIRECTION ( 'NONE',  ( 5.024191996501961812E-17, 1.000000000000000000, -0.000000000000000000 ) ) ;
#210 = DIMENSIONAL_EXPONENTS ( 1.000000000000000000, 0.000000000000000000, 0.000000000000000000, 0.000000000000000000, 0.000000000000000000, 0.000000000000000000, 0.000000000000000000 ) ;
#211 =( GEOMETRIC_REPRESENTATION_CONTEXT ( 3 ) GLOBAL_UNCERTAINTY_ASSIGNED_CONTEXT ( ( #48 ) ) GLOBAL_UNIT_ASSIGNED_CONTEXT ( ( #255, #7, #224 ) ) REPRESENTATION_CONTEXT ( 'NONE', 'WORKASPACE' ) );
#212 = EDGE_CURVE ( 'NONE', #226, #83, #217, .T. ) ;
#213 =( CONVERSION_BASED_UNIT ( 'INCH', #21 ) LENGTH_UNIT ( ) NAMED_UNIT ( #90 ) );
#214 = STYLED_ITEM ( 'NONE', ( #111 ), #182 ) ;
#215 = AXIS2_PLACEMENT_3D ( 'NONE', #297, #209, #304 ) ;
#216 = CARTESIAN_POINT ( 'NONE',  ( 1.148106374200643401E-17, 0.000000000000000000, 0.09374999999999998612 ) ) ;
#217 = LINE ( 'NONE', #289, #23 ) ;
#218 =( NAMED_UNIT ( * ) SI_UNIT ( $, .STERADIAN. ) SOLID_ANGLE_UNIT ( ) );
#219 = FILL_AREA_STYLE_COLOUR ( '', #206 ) ;
#220 =( GEOMETRIC_REPRESENTATION_CONTEXT ( 3 ) GLOBAL_UNCERTAINTY_ASSIGNED_CONTEXT ( ( #165 ) ) GLOBAL_UNIT_ASSIGNED_CONTEXT ( ( #243, #239, #218 ) ) REPRESENTATION_CONTEXT ( 'NONE', 'WORKASPACE' ) );
#221 = CARTESIAN_POINT ( 'NONE',  ( 0.000000000000000000, 0.000000000000000000, 0.000000000000000000 ) ) ;
#222 = MECHANICAL_DESIGN_GEOMETRIC_PRESENTATION_REPRESENTATION (  '', ( #279 ), #211 ) ;
#223 = PRESENTATION_STYLE_ASSIGNMENT (( #38 ) ) ;
#224 =( NAMED_UNIT ( * ) SI_UNIT ( $, .STERADIAN. ) SOLID_ANGLE_UNIT ( ) );
#225 = CARTESIAN_POINT ( 'NONE',  ( 0.000000000000000000, 1.562500000000000000, 0.000000000000000000 ) ) ;
#226 = VERTEX_POINT ( 'NONE', #265 ) ;
#227 = EDGE_CURVE ( 'NONE', #33, #55, #123, .T. ) ;
#228 = STYLED_ITEM ( 'NONE', ( #223 ), #79 ) ;
#229 =( LENGTH_UNIT ( ) NAMED_UNIT ( * ) SI_UNIT ( $, .METRE. ) );
#230 =( LENGTH_UNIT ( ) NAMED_UNIT ( * ) SI_UNIT ( $, .METRE. ) );
#231 = ADVANCED_FACE ( 'NONE', ( #60 ), #241, .T. ) ;
#232 = MANIFOLD_SOLID_BREP ( 'Revolve - Cutting Edge', #14 ) ;
#233 = AXIS2_PLACEMENT_3D ( 'NONE', #26, #197, #78 ) ;
#234 = ADVANCED_BREP_SHAPE_REPRESENTATION ( '86062', ( #232, #134, #71 ), #5 ) ;
#235 = VERTEX_POINT ( 'NONE', #103 ) ;
#236 = ORIENTED_EDGE ( 'NONE', *, *, #124, .F. ) ;
#237 = DIRECTION ( 'NONE',  ( -1.000000000000000000, 0.000000000000000000, 0.000000000000000000 ) ) ;
#238 = ADVANCED_FACE ( 'NONE', ( #102 ), #171, .T. ) ;
#239 =( NAMED_UNIT ( * ) PLANE_ANGLE_UNIT ( ) SI_UNIT ( $, .RADIAN. ) );
#240 = CARTESIAN_POINT ( 'NONE',  ( 1.224646799147353207E-16, 4.000000000000000000, 0.000000000000000000 ) ) ;
#241 = CYLINDRICAL_SURFACE ( 'NONE', #139, 0.09374999999999991673 ) ;
#242 = DIRECTION ( 'NONE',  ( 0.000000000000000000, 0.000000000000000000, -1.000000000000000000 ) ) ;
#243 =( CONVERSION_BASED_UNIT ( 'INCH', #175 ) LENGTH_UNIT ( ) NAMED_UNIT ( #284 ) );
#244 = LINE ( 'NONE', #30, #185 ) ;
#245 = UNCERTAINTY_MEASURE_WITH_UNIT (LENGTH_MEASURE( 1.000000000000000082E-05 ), #189, 'distance_accuracy_value', 'NONE');
#246 = FILL_AREA_STYLE ('',( #65 ) ) ;
#247 =( NAMED_UNIT ( * ) PLANE_ANGLE_UNIT ( ) SI_UNIT ( $, .RADIAN. ) );
#248 = ORIENTED_EDGE ( 'NONE', *, *, #72, .T. ) ;
#249 = PRODUCT_DEFINITION_FORMATION_WITH_SPECIFIED_SOURCE ( 'ANY', '', #161, .NOT_KNOWN. ) ;
#250 = ORIENTED_EDGE ( 'NONE', *, *, #308, .T. ) ;
#251 = EDGE_LOOP ( 'NONE', ( #109, #300, #3, #28 ) ) ;
#252 = ADVANCED_FACE ( 'NONE', ( #177 ), #268, .T. ) ;
#253 =( NAMED_UNIT ( * ) PLANE_ANGLE_UNIT ( ) SI_UNIT ( $, .RADIAN. ) );
#254 = CLOSED_SHELL ( 'NONE', ( #238, #92, #231, #34 ) ) ;
#255 =( CONVERSION_BASED_UNIT ( 'INCH', #299 ) LENGTH_UNIT ( ) NAMED_UNIT ( #50 ) );
#256 = PRESENTATION_LAYER_ASSIGNMENT (  '', '', ( #279 ) ) ;
#257 = CIRCLE ( 'NONE', #233, 0.09374999999999998612 ) ;
#258 = DIRECTION ( 'NONE',  ( 1.000000000000000000, 0.000000000000000000, 0.000000000000000000 ) ) ;
#259 = ORIENTED_EDGE ( 'NONE', *, *, #308, .F. ) ;
#260 = EDGE_CURVE ( 'NONE', #83, #55, #257, .T. ) ;
#261 = ORIENTED_EDGE ( 'NONE', *, *, #260, .T. ) ;
#262 = DIRECTION ( 'NONE',  ( -1.000000000000000000, 5.024191996501961812E-17, 0.000000000000000000 ) ) ;
#263 = SURFACE_STYLE_USAGE ( .BOTH. , #49 ) ;
#264 = AXIS2_PLACEMENT_3D ( 'NONE', #240, #31, #15 ) ;
#265 = CARTESIAN_POINT ( 'NONE',  ( 0.000000000000000000, 1.562500000000000000, -0.09374999999999998612 ) ) ;
#266 = CARTESIAN_POINT ( 'NONE',  ( 0.000000000000000000, 0.000000000000000000, 0.000000000000000000 ) ) ;
#267 = VERTEX_POINT ( 'NONE', #146 ) ;
#268 = PLANE ( 'NONE',  #186 ) ;
#269 = FACE_OUTER_BOUND ( 'NONE', #110, .T. ) ;
#270 = AXIS2_PLACEMENT_3D ( 'NONE', #120, #196, #25 ) ;
#271 = AXIS2_PLACEMENT_3D ( 'NONE', #81, #173, #166 ) ;
#272 = CARTESIAN_POINT ( 'NONE',  ( 0.09374999999999998612, 4.000000000000000000, 0.000000000000000000 ) ) ;
#273 =( LENGTH_UNIT ( ) NAMED_UNIT ( * ) SI_UNIT ( $, .METRE. ) );
#274 = FACE_OUTER_BOUND ( 'NONE', #80, .T. ) ;
#275 = UNCERTAINTY_MEASURE_WITH_UNIT (LENGTH_MEASURE( 1.000000000000000082E-05 ), #51, 'distance_accuracy_value', 'NONE');
#276 = DIRECTION ( 'NONE',  ( 5.024191996501961812E-17, 1.000000000000000000, -0.000000000000000000 ) ) ;
#277 = FILL_AREA_STYLE ('',( #64 ) ) ;
#278 = FACE_OUTER_BOUND ( 'NONE', #121, .T. ) ;
#279 = STYLED_ITEM ( 'NONE', ( #87 ), #134 ) ;
#280 = EDGE_CURVE ( 'NONE', #267, #203, #116, .T. ) ;
#281 = SURFACE_STYLE_FILL_AREA ( #156 ) ;
#282 = FILL_AREA_STYLE_COLOUR ( '', #77 ) ;
#283 = VECTOR ( 'NONE', #295, 39.37007874015748143 ) ;
#284 = DIMENSIONAL_EXPONENTS ( 1.000000000000000000, 0.000000000000000000, 0.000000000000000000, 0.000000000000000000, 0.000000000000000000, 0.000000000000000000, 0.000000000000000000 ) ;
#285 = AXIS2_PLACEMENT_3D ( 'NONE', #221, #138, #11 ) ;
#286 = SURFACE_STYLE_USAGE ( .BOTH. , #172 ) ;
#287 =( NAMED_UNIT ( * ) PLANE_ANGLE_UNIT ( ) SI_UNIT ( $, .RADIAN. ) );
#288 = EDGE_CURVE ( 'NONE', #294, #235, #208, .T. ) ;
#289 = CARTESIAN_POINT ( 'NONE',  ( 0.000000000000000000, 0.000000000000000000, -0.09374999999999998612 ) ) ;
#290 = PRESENTATION_STYLE_ASSIGNMENT (( #263 ) ) ;
#291 = CIRCLE ( 'NONE', #169, 0.09374999999999998612 ) ;
#292 =( NAMED_UNIT ( * ) SI_UNIT ( $, .STERADIAN. ) SOLID_ANGLE_UNIT ( ) );
#293 =( GEOMETRIC_REPRESENTATION_CONTEXT ( 3 ) GLOBAL_UNCERTAINTY_ASSIGNED_CONTEXT ( ( #160 ) ) GLOBAL_UNIT_ASSIGNED_CONTEXT ( ( #213, #247, #75 ) ) REPRESENTATION_CONTEXT ( 'NONE', 'WORKASPACE' ) );
#294 = VERTEX_POINT ( 'NONE', #150 ) ;
#295 = DIRECTION ( 'NONE',  ( -0.000000000000000000, -1.000000000000000000, -0.000000000000000000 ) ) ;
#296 = COLOUR_RGB ( '',1.000000000000000000, 0.000000000000000000, 0.000000000000000000 ) ;
#297 = CARTESIAN_POINT ( 'NONE',  ( 1.224646799147353207E-16, 4.000000000000000000, 0.000000000000000000 ) ) ;
#298 = ORIENTED_EDGE ( 'NONE', *, *, #280, .F. ) ;
#299 = LENGTH_MEASURE_WITH_UNIT ( LENGTH_MEASURE( 0.02539999999999999897 ), #39 );
#300 = ORIENTED_EDGE ( 'NONE', *, *, #58, .T. ) ;
#301 = LENGTH_MEASURE_WITH_UNIT ( LENGTH_MEASURE( 0.02539999999999999897 ), #273 );
#302 = PLANE ( 'NONE',  #147 ) ;
#303 = SURFACE_SIDE_STYLE ('',( #113 ) ) ;
#304 = DIRECTION ( 'NONE',  ( -1.000000000000000000, 0.000000000000000000, 0.000000000000000000 ) ) ;
#305 = DIRECTION ( 'NONE',  ( -1.000000000000000000, 0.000000000000000000, 0.000000000000000000 ) ) ;
#306 = EDGE_LOOP ( 'NONE', ( #250, #130, #298, #174 ) ) ;
#307 = CARTESIAN_POINT ( 'NONE',  ( 0.000000000000000000, 0.000000000000000000, 0.000000000000000000 ) ) ;
#308 = EDGE_CURVE ( 'NONE', #235, #294, #207, .T. ) ;
#309 = DIRECTION ( 'NONE',  ( -0.000000000000000000, -1.000000000000000000, -0.000000000000000000 ) ) ;
ENDSEC;
END-ISO-10303-21;
