ISO-10303-21;
HEADER;
FILE_DESCRIPTION (( 'STEP AP214' ),
    '1' );
FILE_NAME ('83758.STEP',
    '2023-07-05T19:23:58',
    ( '' ),
    ( '' ),
    'SwSTEP 2.0',
    'SolidWorks 2023',
    '' );
FILE_SCHEMA (( 'AUTOMOTIVE_DESIGN' ));
ENDSEC;

DATA;
#1 = DIRECTION ( 'NONE',  ( 1.000000000000000000, 0.000000000000000000, 0.000000000000000000 ) ) ;
#2 = PRODUCT_DEFINITION_CONTEXT ( 'detailed design', #53, 'design' ) ;
#3 =( GEOMETRIC_REPRESENTATION_CONTEXT ( 3 ) GLOBAL_UNCERTAINTY_ASSIGNED_CONTEXT ( ( #33 ) ) GLOBAL_UNIT_ASSIGNED_CONTEXT ( ( #219, #293, #243 ) ) REPRESENTATION_CONTEXT ( 'NONE', 'WORKASPACE' ) );
#4 = CARTESIAN_POINT ( 'NONE',  ( 3.061616997868383018E-17, 0.000000000000000000, 0.2500000000000000000 ) ) ;
#5 = DIMENSIONAL_EXPONENTS ( 1.000000000000000000, 0.000000000000000000, 0.000000000000000000, 0.000000000000000000, 0.000000000000000000, 0.000000000000000000, 0.000000000000000000 ) ;
#6 = LENGTH_MEASURE_WITH_UNIT ( LENGTH_MEASURE( 0.02539999999999999897 ), #278 );
#7 = AXIS2_PLACEMENT_3D ( 'NONE', #19, #326, #319 ) ;
#8 = EDGE_CURVE ( 'NONE', #210, #332, #110, .T. ) ;
#9 = SURFACE_SIDE_STYLE ('',( #253 ) ) ;
#10 = MANIFOLD_SOLID_BREP ( 'Revolve - Cutting Edge', #26 ) ;
#11 = COLOUR_RGB ( '',1.000000000000000000, 0.000000000000000000, 0.000000000000000000 ) ;
#12 = SURFACE_STYLE_FILL_AREA ( #181 ) ;
#13 = CYLINDRICAL_SURFACE ( 'NONE', #206, 0.2500000000000000000 ) ;
#14 =( NAMED_UNIT ( * ) SI_UNIT ( $, .STERADIAN. ) SOLID_ANGLE_UNIT ( ) );
#15 = AXIS2_PLACEMENT_3D ( 'NONE', #251, #121, #305 ) ;
#16 = DIRECTION ( 'NONE',  ( -1.000000000000000000, 0.000000000000000000, 0.000000000000000000 ) ) ;
#17 = LINE ( 'NONE', #240, #215 ) ;
#18 = ORIENTED_EDGE ( 'NONE', *, *, #152, .T. ) ;
#19 = CARTESIAN_POINT ( 'NONE',  ( -6.123233995736770966E-17, 3.000000000000000444, 0.000000000000000000 ) ) ;
#20 = LENGTH_MEASURE_WITH_UNIT ( LENGTH_MEASURE( 0.02539999999999999897 ), #50 );
#21 = PRODUCT_RELATED_PRODUCT_CATEGORY ( 'part', '', ( #351 ) ) ;
#22 = FILL_AREA_STYLE ('',( #263 ) ) ;
#23 = CARTESIAN_POINT ( 'NONE',  ( 0.000000000000000000, 0.000000000000000000, 0.000000000000000000 ) ) ;
#24 = LENGTH_MEASURE_WITH_UNIT ( LENGTH_MEASURE( 0.02539999999999999897 ), #313 );
#25 = PRESENTATION_STYLE_ASSIGNMENT (( #128 ) ) ;
#26 = CLOSED_SHELL ( 'NONE', ( #247, #102, #56, #70, #49 ) ) ;
#27 =( GEOMETRIC_REPRESENTATION_CONTEXT ( 3 ) GLOBAL_UNCERTAINTY_ASSIGNED_CONTEXT ( ( #142 ) ) GLOBAL_UNIT_ASSIGNED_CONTEXT ( ( #187, #267, #217 ) ) REPRESENTATION_CONTEXT ( 'NONE', 'WORKASPACE' ) );
#28 = EDGE_CURVE ( 'NONE', #106, #76, #322, .T. ) ;
#29 =( NAMED_UNIT ( * ) SI_UNIT ( $, .STERADIAN. ) SOLID_ANGLE_UNIT ( ) );
#30 = ORIENTED_EDGE ( 'NONE', *, *, #152, .F. ) ;
#31 = AXIS2_PLACEMENT_3D ( 'NONE', #73, #124, #258 ) ;
#32 = CARTESIAN_POINT ( 'NONE',  ( 0.000000000000000000, 1.000000000000000000, 0.000000000000000000 ) ) ;
#33 = UNCERTAINTY_MEASURE_WITH_UNIT (LENGTH_MEASURE( 1.000000000000000082E-05 ), #219, 'distance_accuracy_value', 'NONE');
#34 = LINE ( 'NONE', #4, #92 ) ;
#35 = CARTESIAN_POINT ( 'NONE',  ( -0.2499999999999995837, 1.000000000000000000, 0.000000000000000000 ) ) ;
#36 = SURFACE_SIDE_STYLE ('',( #68 ) ) ;
#37 = FILL_AREA_STYLE ('',( #58 ) ) ;
#38 =( GEOMETRIC_REPRESENTATION_CONTEXT ( 3 ) GLOBAL_UNCERTAINTY_ASSIGNED_CONTEXT ( ( #328 ) ) GLOBAL_UNIT_ASSIGNED_CONTEXT ( ( #144, #271, #333 ) ) REPRESENTATION_CONTEXT ( 'NONE', 'WORKASPACE' ) );
#39 = PRESENTATION_STYLE_ASSIGNMENT (( #172 ) ) ;
#40 = CARTESIAN_POINT ( 'NONE',  ( 3.061616997868382402E-17, 1.000000000000000000, 0.2499999999999999722 ) ) ;
#41 = COLOUR_RGB ( '',1.000000000000000000, 0.000000000000000000, 0.000000000000000000 ) ;
#42 =( NAMED_UNIT ( * ) PLANE_ANGLE_UNIT ( ) SI_UNIT ( $, .RADIAN. ) );
#43 = VECTOR ( 'NONE', #301, 39.37007874015748143 ) ;
#44 =( LENGTH_UNIT ( ) NAMED_UNIT ( * ) SI_UNIT ( $, .METRE. ) );
#45 = CIRCLE ( 'NONE', #31, 0.2499999999999999722 ) ;
#46 = LENGTH_MEASURE_WITH_UNIT ( LENGTH_MEASURE( 0.02539999999999999897 ), #44 );
#47 = CIRCLE ( 'NONE', #145, 0.2499999999999998057 ) ;
#48 = AXIS2_PLACEMENT_3D ( 'NONE', #32, #136, #327 ) ;
#49 = ADVANCED_FACE ( 'NONE', ( #83 ), #284, .T. ) ;
#50 =( LENGTH_UNIT ( ) NAMED_UNIT ( * ) SI_UNIT ( $, .METRE. ) );
#51 = SURFACE_STYLE_FILL_AREA ( #325 ) ;
#52 = PRODUCT_CONTEXT ( 'NONE', #59, 'mechanical' ) ;
#53 = APPLICATION_CONTEXT ( 'automotive_design' ) ;
#54 = CARTESIAN_POINT ( 'NONE',  ( 3.061616997868383018E-17, 0.2499999999999991118, 0.2500000000000000000 ) ) ;
#55 = VERTEX_POINT ( 'NONE', #202 ) ;
#56 = ADVANCED_FACE ( 'NONE', ( #309 ), #252, .T. ) ;
#57 = PRESENTATION_LAYER_ASSIGNMENT (  '', '', ( #296 ) ) ;
#58 = FILL_AREA_STYLE_COLOUR ( '', #100 ) ;
#59 = APPLICATION_CONTEXT ( 'automotive_design' ) ;
#60 = CARTESIAN_POINT ( 'NONE',  ( 0.000000000000000000, 0.000000000000000000, 0.000000000000000000 ) ) ;
#61 = UNCERTAINTY_MEASURE_WITH_UNIT (LENGTH_MEASURE( 1.000000000000000082E-05 ), #286, 'distance_accuracy_value', 'NONE');
#62 = VERTEX_POINT ( 'NONE', #35 ) ;
#63 = SURFACE_STYLE_FILL_AREA ( #86 ) ;
#64 = DIRECTION ( 'NONE',  ( 0.000000000000000000, 0.000000000000000000, 1.000000000000000000 ) ) ;
#65 = LINE ( 'NONE', #169, #277 ) ;
#66 = MECHANICAL_DESIGN_GEOMETRIC_PRESENTATION_REPRESENTATION (  '', ( #209 ), #306 ) ;
#67 = SURFACE_SIDE_STYLE ('',( #63 ) ) ;
#68 = SURFACE_STYLE_FILL_AREA ( #168 ) ;
#69 = CARTESIAN_POINT ( 'NONE',  ( -6.123233995736770966E-17, 3.000000000000000444, 0.000000000000000000 ) ) ;
#70 = ADVANCED_FACE ( 'NONE', ( #120 ), #229, .T. ) ;
#71 = EDGE_LOOP ( 'NONE', ( #125, #176 ) ) ;
#72 = DIRECTION ( 'NONE',  ( -0.000000000000000000, -1.000000000000000000, -0.000000000000000000 ) ) ;
#73 = CARTESIAN_POINT ( 'NONE',  ( 0.000000000000000000, 1.000000000000000000, 0.000000000000000000 ) ) ;
#74 =( LENGTH_UNIT ( ) NAMED_UNIT ( * ) SI_UNIT ( $, .METRE. ) );
#75 = EDGE_CURVE ( 'NONE', #210, #163, #17, .T. ) ;
#76 = VERTEX_POINT ( 'NONE', #40 ) ;
#77 = COLOUR_RGB ( '',0.7921568627450980005, 0.8196078431372548767, 0.9333333333333333481 ) ;
#78 = ORIENTED_EDGE ( 'NONE', *, *, #8, .T. ) ;
#79 = CARTESIAN_POINT ( 'NONE',  ( 0.000000000000000000, 0.000000000000000000, 0.000000000000000000 ) ) ;
#80 = ORIENTED_EDGE ( 'NONE', *, *, #291, .T. ) ;
#81 =( CONVERSION_BASED_UNIT ( 'INCH', #24 ) LENGTH_UNIT ( ) NAMED_UNIT ( #162 ) );
#82 = CARTESIAN_POINT ( 'NONE',  ( 1.878145495644181332E-16, 1.000000000000000000, 0.000000000000000000 ) ) ;
#83 = FACE_OUTER_BOUND ( 'NONE', #195, .T. ) ;
#84 = ORIENTED_EDGE ( 'NONE', *, *, #275, .T. ) ;
#85 = EDGE_CURVE ( 'NONE', #76, #106, #45, .T. ) ;
#86 = FILL_AREA_STYLE ('',( #167 ) ) ;
#87 = COLOUR_RGB ( '',1.000000000000000000, 0.000000000000000000, 0.000000000000000000 ) ;
#88 = CARTESIAN_POINT ( 'NONE',  ( 0.2499999999999999722, 3.000000000000000444, 0.000000000000000000 ) ) ;
#89 =( NAMED_UNIT ( * ) SI_UNIT ( $, .STERADIAN. ) SOLID_ANGLE_UNIT ( ) );
#90 =( NAMED_UNIT ( * ) PLANE_ANGLE_UNIT ( ) SI_UNIT ( $, .RADIAN. ) );
#91 = DIRECTION ( 'NONE',  ( -0.000000000000000000, -1.000000000000000000, -0.000000000000000000 ) ) ;
#92 = VECTOR ( 'NONE', #198, 39.37007874015748143 ) ;
#93 =( NAMED_UNIT ( * ) SI_UNIT ( $, .STERADIAN. ) SOLID_ANGLE_UNIT ( ) );
#94 = CARTESIAN_POINT ( 'NONE',  ( 0.000000000000000000, 0.000000000000000000, 0.000000000000000000 ) ) ;
#95 = MECHANICAL_DESIGN_GEOMETRIC_PRESENTATION_REPRESENTATION (  '', ( #235 ), #107 ) ;
#96 = DIRECTION ( 'NONE',  ( 0.000000000000000000, 0.000000000000000000, -1.000000000000000000 ) ) ;
#97 = ORIENTED_EDGE ( 'NONE', *, *, #85, .T. ) ;
#98 = STYLED_ITEM ( 'NONE', ( #279 ), #70 ) ;
#99 = DIRECTION ( 'NONE',  ( 0.000000000000000000, 0.000000000000000000, -1.000000000000000000 ) ) ;
#100 = COLOUR_RGB ( '',1.000000000000000000, 0.000000000000000000, 0.000000000000000000 ) ;
#101 =( NAMED_UNIT ( * ) SI_UNIT ( $, .STERADIAN. ) SOLID_ANGLE_UNIT ( ) );
#102 = ADVANCED_FACE ( 'NONE', ( #256 ), #13, .T. ) ;
#103 = DIRECTION ( 'NONE',  ( 0.000000000000000000, 0.000000000000000000, 1.000000000000000000 ) ) ;
#104 = EDGE_LOOP ( 'NONE', ( #207, #343, #80, #183 ) ) ;
#105 = PLANE ( 'NONE',  #149 ) ;
#106 = VERTEX_POINT ( 'NONE', #153 ) ;
#107 =( GEOMETRIC_REPRESENTATION_CONTEXT ( 3 ) GLOBAL_UNCERTAINTY_ASSIGNED_CONTEXT ( ( #193 ) ) GLOBAL_UNIT_ASSIGNED_CONTEXT ( ( #122, #90, #93 ) ) REPRESENTATION_CONTEXT ( 'NONE', 'WORKASPACE' ) );
#108 = CARTESIAN_POINT ( 'NONE',  ( -6.123233995736772199E-17, 3.000000000000000444, 0.000000000000000000 ) ) ;
#109 = MECHANICAL_DESIGN_GEOMETRIC_PRESENTATION_REPRESENTATION (  '', ( #255 ), #27 ) ;
#110 = LINE ( 'NONE', #23, #330 ) ;
#111 = EDGE_LOOP ( 'NONE', ( #349, #323 ) ) ;
#112 = DIRECTION ( 'NONE',  ( -1.245234447608929030E-16, 1.000000000000000000, -0.000000000000000000 ) ) ;
#113 =( LENGTH_UNIT ( ) NAMED_UNIT ( * ) SI_UNIT ( $, .METRE. ) );
#114 = APPLICATION_PROTOCOL_DEFINITION ( 'draft international standard', 'automotive_design', 1998, #59 ) ;
#115 = COLOUR_RGB ( '',0.7921568627450980005, 0.8196078431372548767, 0.9333333333333333481 ) ;
#116 = UNCERTAINTY_MEASURE_WITH_UNIT (LENGTH_MEASURE( 1.000000000000000082E-05 ), #81, 'distance_accuracy_value', 'NONE');
#117 = CARTESIAN_POINT ( 'NONE',  ( -0.2499999999999999722, 3.000000000000000444, 0.000000000000000000 ) ) ;
#118 = DIMENSIONAL_EXPONENTS ( 1.000000000000000000, 0.000000000000000000, 0.000000000000000000, 0.000000000000000000, 0.000000000000000000, 0.000000000000000000, 0.000000000000000000 ) ;
#119 = FACE_OUTER_BOUND ( 'NONE', #262, .T. ) ;
#120 = FACE_OUTER_BOUND ( 'NONE', #141, .T. ) ;
#121 = DIRECTION ( 'NONE',  ( 0.000000000000000000, 1.000000000000000000, 0.000000000000000000 ) ) ;
#122 =( CONVERSION_BASED_UNIT ( 'INCH', #280 ) LENGTH_UNIT ( ) NAMED_UNIT ( #138 ) );
#123 = MECHANICAL_DESIGN_GEOMETRIC_PRESENTATION_REPRESENTATION (  '', ( #98 ), #165 ) ;
#124 = DIRECTION ( 'NONE',  ( -0.000000000000000000, -1.000000000000000000, -0.000000000000000000 ) ) ;
#125 = ORIENTED_EDGE ( 'NONE', *, *, #226, .T. ) ;
#126 = CARTESIAN_POINT ( 'NONE',  ( 0.000000000000000000, 0.2499999999999991118, 0.000000000000000000 ) ) ;
#127 = DIRECTION ( 'NONE',  ( 0.000000000000000000, 0.000000000000000000, -1.000000000000000000 ) ) ;
#128 = SURFACE_STYLE_USAGE ( .BOTH. , #131 ) ;
#129 =( GEOMETRIC_REPRESENTATION_CONTEXT ( 3 ) GLOBAL_UNCERTAINTY_ASSIGNED_CONTEXT ( ( #299 ) ) GLOBAL_UNIT_ASSIGNED_CONTEXT ( ( #310, #42, #14 ) ) REPRESENTATION_CONTEXT ( 'NONE', 'WORKASPACE' ) );
#130 = EDGE_LOOP ( 'NONE', ( #273, #84, #260, #257 ) ) ;
#131 = SURFACE_SIDE_STYLE ('',( #265 ) ) ;
#132 = SURFACE_SIDE_STYLE ('',( #51 ) ) ;
#133 = ADVANCED_FACE ( 'NONE', ( #205 ), #238, .T. ) ;
#134 =( CONVERSION_BASED_UNIT ( 'INCH', #345 ) LENGTH_UNIT ( ) NAMED_UNIT ( #5 ) );
#135 = PRESENTATION_LAYER_ASSIGNMENT (  '', '', ( #255 ) ) ;
#136 = DIRECTION ( 'NONE',  ( -0.000000000000000000, -1.000000000000000000, -0.000000000000000000 ) ) ;
#137 = SHAPE_DEFINITION_REPRESENTATION ( #174, #285 ) ;
#138 = DIMENSIONAL_EXPONENTS ( 1.000000000000000000, 0.000000000000000000, 0.000000000000000000, 0.000000000000000000, 0.000000000000000000, 0.000000000000000000, 0.000000000000000000 ) ;
#139 = CIRCLE ( 'NONE', #186, 0.2500000000000000555 ) ;
#140 = EDGE_CURVE ( 'NONE', #244, #55, #139, .T. ) ;
#141 = EDGE_LOOP ( 'NONE', ( #160, #97, #288, #316 ) ) ;
#142 = UNCERTAINTY_MEASURE_WITH_UNIT (LENGTH_MEASURE( 1.000000000000000082E-05 ), #187, 'distance_accuracy_value', 'NONE');
#143 = CIRCLE ( 'NONE', #7, 0.2500000000000000555 ) ;
#144 =( CONVERSION_BASED_UNIT ( 'INCH', #6 ) LENGTH_UNIT ( ) NAMED_UNIT ( #159 ) );
#145 = AXIS2_PLACEMENT_3D ( 'NONE', #82, #112, #242 ) ;
#146 = EDGE_CURVE ( 'NONE', #163, #332, #180, .T. ) ;
#147 = DIRECTION ( 'NONE',  ( 0.000000000000000000, 0.7071067811865462405, 0.7071067811865486830 ) ) ;
#148 = ORIENTED_EDGE ( 'NONE', *, *, #75, .T. ) ;
#149 = AXIS2_PLACEMENT_3D ( 'NONE', #274, #246, #234 ) ;
#150 = DIRECTION ( 'NONE',  ( -1.000000000000000000, 0.000000000000000000, 0.000000000000000000 ) ) ;
#151 = PRESENTATION_LAYER_ASSIGNMENT (  '', '', ( #232 ) ) ;
#152 = EDGE_CURVE ( 'NONE', #332, #163, #300, .T. ) ;
#153 = CARTESIAN_POINT ( 'NONE',  ( 0.000000000000000000, 1.000000000000000000, -0.2499999999999999722 ) ) ;
#154 = EDGE_LOOP ( 'NONE', ( #264, #78, #18 ) ) ;
#155 = MECHANICAL_DESIGN_GEOMETRIC_PRESENTATION_REPRESENTATION (  '', ( #232 ), #249 ) ;
#156 = DIRECTION ( 'NONE',  ( -1.000000000000000000, 0.000000000000000000, 0.000000000000000000 ) ) ;
#157 = ORIENTED_EDGE ( 'NONE', *, *, #146, .T. ) ;
#158 = DIRECTION ( 'NONE',  ( -1.000000000000000000, 0.000000000000000000, 0.000000000000000000 ) ) ;
#159 = DIMENSIONAL_EXPONENTS ( 1.000000000000000000, 0.000000000000000000, 0.000000000000000000, 0.000000000000000000, 0.000000000000000000, 0.000000000000000000, 0.000000000000000000 ) ;
#160 = ORIENTED_EDGE ( 'NONE', *, *, #282, .F. ) ;
#161 = SURFACE_STYLE_USAGE ( .BOTH. , #287 ) ;
#162 = DIMENSIONAL_EXPONENTS ( 1.000000000000000000, 0.000000000000000000, 0.000000000000000000, 0.000000000000000000, 0.000000000000000000, 0.000000000000000000, 0.000000000000000000 ) ;
#163 = VERTEX_POINT ( 'NONE', #54 ) ;
#164 = ORIENTED_EDGE ( 'NONE', *, *, #331, .F. ) ;
#165 =( GEOMETRIC_REPRESENTATION_CONTEXT ( 3 ) GLOBAL_UNCERTAINTY_ASSIGNED_CONTEXT ( ( #61 ) ) GLOBAL_UNIT_ASSIGNED_CONTEXT ( ( #286, #341, #101 ) ) REPRESENTATION_CONTEXT ( 'NONE', 'WORKASPACE' ) );
#166 = CARTESIAN_POINT ( 'NONE',  ( 0.2499999999999998335, 3.000000000000000444, 3.061616997868381785E-17 ) ) ;
#167 = FILL_AREA_STYLE_COLOUR ( '', #11 ) ;
#168 = FILL_AREA_STYLE ('',( #230 ) ) ;
#169 = CARTESIAN_POINT ( 'NONE',  ( 0.000000000000000000, 0.000000000000000000, -0.2500000000000000000 ) ) ;
#170 =( LENGTH_UNIT ( ) NAMED_UNIT ( * ) SI_UNIT ( $, .METRE. ) );
#171 =( LENGTH_UNIT ( ) NAMED_UNIT ( * ) SI_UNIT ( $, .METRE. ) );
#172 = SURFACE_STYLE_USAGE ( .BOTH. , #36 ) ;
#173 = PRESENTATION_LAYER_ASSIGNMENT (  '', '', ( #222 ) ) ;
#174 = PRODUCT_DEFINITION_SHAPE ( 'NONE', 'NONE',  #336 ) ;
#175 = DIRECTION ( 'NONE',  ( 0.000000000000000000, 0.000000000000000000, -1.000000000000000000 ) ) ;
#176 = ORIENTED_EDGE ( 'NONE', *, *, #140, .T. ) ;
#177 = PRODUCT_DEFINITION_FORMATION_WITH_SPECIFIED_SOURCE ( 'ANY', '', #351, .NOT_KNOWN. ) ;
#178 = FILL_AREA_STYLE_COLOUR ( '', #87 ) ;
#179 = ORIENTED_EDGE ( 'NONE', *, *, #8, .F. ) ;
#180 = CIRCLE ( 'NONE', #318, 0.2500000000000000000 ) ;
#181 = FILL_AREA_STYLE ('',( #178 ) ) ;
#182 = DIRECTION ( 'NONE',  ( -1.245234447608929030E-16, 1.000000000000000000, -0.000000000000000000 ) ) ;
#183 = ORIENTED_EDGE ( 'NONE', *, *, #140, .F. ) ;
#184 = CLOSED_SHELL ( 'NONE', ( #224, #272, #133, #315 ) ) ;
#185 = FACE_OUTER_BOUND ( 'NONE', #130, .T. ) ;
#186 = AXIS2_PLACEMENT_3D ( 'NONE', #69, #283, #150 ) ;
#187 =( CONVERSION_BASED_UNIT ( 'INCH', #20 ) LENGTH_UNIT ( ) NAMED_UNIT ( #118 ) );
#188 = LENGTH_MEASURE_WITH_UNIT ( LENGTH_MEASURE( 0.02539999999999999897 ), #113 );
#189 = CYLINDRICAL_SURFACE ( 'NONE', #335, 0.2499999999999998890 ) ;
#190 = EDGE_CURVE ( 'NONE', #62, #295, #47, .T. ) ;
#191 = CARTESIAN_POINT ( 'NONE',  ( 0.000000000000000000, 39.37007874015748143, 0.000000000000000000 ) ) ;
#192 = DIMENSIONAL_EXPONENTS ( 1.000000000000000000, 0.000000000000000000, 0.000000000000000000, 0.000000000000000000, 0.000000000000000000, 0.000000000000000000, 0.000000000000000000 ) ;
#193 = UNCERTAINTY_MEASURE_WITH_UNIT (LENGTH_MEASURE( 1.000000000000000082E-05 ), #122, 'distance_accuracy_value', 'NONE');
#194 = FACE_OUTER_BOUND ( 'NONE', #154, .T. ) ;
#195 = EDGE_LOOP ( 'NONE', ( #179, #148, #157 ) ) ;
#196 = LINE ( 'NONE', #117, #43 ) ;
#197 = AXIS2_PLACEMENT_3D ( 'NONE', #289, #182, #158 ) ;
#198 = DIRECTION ( 'NONE',  ( -0.000000000000000000, -1.000000000000000000, -0.000000000000000000 ) ) ;
#199 = CARTESIAN_POINT ( 'NONE',  ( 0.000000000000000000, 0.2499999999999991118, -0.2500000000000000000 ) ) ;
#200 = PRESENTATION_STYLE_ASSIGNMENT (( #233 ) ) ;
#201 = DIRECTION ( 'NONE',  ( 0.000000000000000000, 1.000000000000000000, 0.000000000000000000 ) ) ;
#202 = CARTESIAN_POINT ( 'NONE',  ( -0.2500000000000001110, 3.000000000000000444, 0.000000000000000000 ) ) ;
#203 = EDGE_CURVE ( 'NONE', #295, #62, #344, .T. ) ;
#204 = MECHANICAL_DESIGN_GEOMETRIC_PRESENTATION_REPRESENTATION (  '', ( #296 ), #3 ) ;
#205 = FACE_OUTER_BOUND ( 'NONE', #104, .T. ) ;
#206 = AXIS2_PLACEMENT_3D ( 'NONE', #94, #72, #96 ) ;
#207 = ORIENTED_EDGE ( 'NONE', *, *, #275, .F. ) ;
#208 = CARTESIAN_POINT ( 'NONE',  ( -6.123233995736772199E-17, 3.000000000000000444, 0.000000000000000000 ) ) ;
#209 = STYLED_ITEM ( 'NONE', ( #25 ), #247 ) ;
#210 = VERTEX_POINT ( 'NONE', #79 ) ;
#211 = CARTESIAN_POINT ( 'NONE',  ( 0.000000000000000000, 0.2499999999999991118, 0.000000000000000000 ) ) ;
#212 = ORIENTED_EDGE ( 'NONE', *, *, #28, .T. ) ;
#213 = PRESENTATION_LAYER_ASSIGNMENT (  '', '', ( #98 ) ) ;
#214 = FILL_AREA_STYLE_COLOUR ( '', #77 ) ;
#215 = VECTOR ( 'NONE', #147, 39.37007874015748854 ) ;
#216 = ORIENTED_EDGE ( 'NONE', *, *, #190, .F. ) ;
#217 =( NAMED_UNIT ( * ) SI_UNIT ( $, .STERADIAN. ) SOLID_ANGLE_UNIT ( ) );
#218 = CONICAL_SURFACE ( 'NONE', #307, 39.37007874015762354, 0.7853981633974500554 ) ;
#219 =( CONVERSION_BASED_UNIT ( 'INCH', #188 ) LENGTH_UNIT ( ) NAMED_UNIT ( #269 ) );
#220 = DIRECTION ( 'NONE',  ( 0.000000000000000000, 0.000000000000000000, 1.000000000000000000 ) ) ;
#221 = SURFACE_STYLE_FILL_AREA ( #320 ) ;
#222 = STYLED_ITEM ( 'NONE', ( #281 ), #102 ) ;
#223 = DIRECTION ( 'NONE',  ( -1.245234447608929030E-16, 1.000000000000000000, -0.000000000000000000 ) ) ;
#224 = ADVANCED_FACE ( 'NONE', ( #185 ), #189, .T. ) ;
#225 = PRESENTATION_STYLE_ASSIGNMENT (( #346 ) ) ;
#226 = EDGE_CURVE ( 'NONE', #55, #244, #143, .T. ) ;
#227 = ORIENTED_EDGE ( 'NONE', *, *, #282, .T. ) ;
#228 = DIRECTION ( 'NONE',  ( 1.245234447608929030E-16, -1.000000000000000000, 0.000000000000000000 ) ) ;
#229 = CYLINDRICAL_SURFACE ( 'NONE', #254, 0.2500000000000000000 ) ;
#230 = FILL_AREA_STYLE_COLOUR ( '', #266 ) ;
#231 = CARTESIAN_POINT ( 'NONE',  ( 0.2500000000000000000, 1.000000000000000000, 3.061616997868382402E-17 ) ) ;
#232 = STYLED_ITEM ( 'NONE', ( #39 ), #56 ) ;
#233 = SURFACE_STYLE_USAGE ( .BOTH. , #9 ) ;
#234 = DIRECTION ( 'NONE',  ( -1.000000000000000000, -1.245234447608929030E-16, 0.000000000000000000 ) ) ;
#235 = STYLED_ITEM ( 'NONE', ( #200 ), #49 ) ;
#236 = CARTESIAN_POINT ( 'NONE',  ( 0.000000000000000000, 0.000000000000000000, 0.000000000000000000 ) ) ;
#237 = PRESENTATION_LAYER_ASSIGNMENT (  '', '', ( #235 ) ) ;
#238 = CYLINDRICAL_SURFACE ( 'NONE', #292, 0.2499999999999998890 ) ;
#239 = DIRECTION ( 'NONE',  ( -0.000000000000000000, -1.000000000000000000, -0.000000000000000000 ) ) ;
#240 = CARTESIAN_POINT ( 'NONE',  ( 0.000000000000000000, 0.000000000000000000, 0.000000000000000000 ) ) ;
#241 = FILL_AREA_STYLE_COLOUR ( '', #115 ) ;
#242 = DIRECTION ( 'NONE',  ( -1.000000000000000000, 0.000000000000000000, 0.000000000000000000 ) ) ;
#243 =( NAMED_UNIT ( * ) SI_UNIT ( $, .STERADIAN. ) SOLID_ANGLE_UNIT ( ) );
#244 = VERTEX_POINT ( 'NONE', #261 ) ;
#245 = DIRECTION ( 'NONE',  ( 1.000000000000000000, 1.245234447608929030E-16, 0.000000000000000000 ) ) ;
#246 = DIRECTION ( 'NONE',  ( -1.245234447608929030E-16, 1.000000000000000000, 0.000000000000000000 ) ) ;
#247 = ADVANCED_FACE ( 'NONE', ( #194 ), #218, .T. ) ;
#248 = DIRECTION ( 'NONE',  ( -1.245234447608929030E-16, 1.000000000000000000, -0.000000000000000000 ) ) ;
#249 =( GEOMETRIC_REPRESENTATION_CONTEXT ( 3 ) GLOBAL_UNCERTAINTY_ASSIGNED_CONTEXT ( ( #116 ) ) GLOBAL_UNIT_ASSIGNED_CONTEXT ( ( #81, #302, #89 ) ) REPRESENTATION_CONTEXT ( 'NONE', 'WORKASPACE' ) );
#250 = MANIFOLD_SOLID_BREP ( 'Revolve - Tool Body (Straight Shanked)', #184 ) ;
#251 = CARTESIAN_POINT ( 'NONE',  ( 0.000000000000000000, 1.000000000000000000, 0.000000000000000000 ) ) ;
#252 = PLANE ( 'NONE',  #15 ) ;
#253 = SURFACE_STYLE_FILL_AREA ( #37 ) ;
#254 = AXIS2_PLACEMENT_3D ( 'NONE', #236, #259, #175 ) ;
#255 = STYLED_ITEM ( 'NONE', ( #324 ), #250 ) ;
#256 = FACE_OUTER_BOUND ( 'NONE', #268, .T. ) ;
#257 = ORIENTED_EDGE ( 'NONE', *, *, #291, .F. ) ;
#258 = DIRECTION ( 'NONE',  ( 0.000000000000000000, 0.000000000000000000, -1.000000000000000000 ) ) ;
#259 = DIRECTION ( 'NONE',  ( -0.000000000000000000, -1.000000000000000000, -0.000000000000000000 ) ) ;
#260 = ORIENTED_EDGE ( 'NONE', *, *, #226, .F. ) ;
#261 = CARTESIAN_POINT ( 'NONE',  ( 0.2499999999999999722, 3.000000000000000444, 3.061616997868382402E-17 ) ) ;
#262 = EDGE_LOOP ( 'NONE', ( #216, #290 ) ) ;
#263 = FILL_AREA_STYLE_COLOUR ( '', #41 ) ;
#264 = ORIENTED_EDGE ( 'NONE', *, *, #75, .F. ) ;
#265 = SURFACE_STYLE_FILL_AREA ( #22 ) ;
#266 = COLOUR_RGB ( '',1.000000000000000000, 0.000000000000000000, 0.000000000000000000 ) ;
#267 =( NAMED_UNIT ( * ) PLANE_ANGLE_UNIT ( ) SI_UNIT ( $, .RADIAN. ) );
#268 = EDGE_LOOP ( 'NONE', ( #212, #227, #30, #164 ) ) ;
#269 = DIMENSIONAL_EXPONENTS ( 1.000000000000000000, 0.000000000000000000, 0.000000000000000000, 0.000000000000000000, 0.000000000000000000, 0.000000000000000000, 0.000000000000000000 ) ;
#270 = UNCERTAINTY_MEASURE_WITH_UNIT (LENGTH_MEASURE( 1.000000000000000082E-05 ), #134, 'distance_accuracy_value', 'NONE');
#271 =( NAMED_UNIT ( * ) PLANE_ANGLE_UNIT ( ) SI_UNIT ( $, .RADIAN. ) );
#272 = ADVANCED_FACE ( 'NONE', ( #119 ), #105, .F. ) ;
#273 = ORIENTED_EDGE ( 'NONE', *, *, #190, .T. ) ;
#274 = CARTESIAN_POINT ( 'NONE',  ( 1.878145495644180839E-16, 1.000000000000000000, 0.000000000000000000 ) ) ;
#275 = EDGE_CURVE ( 'NONE', #295, #244, #334, .T. ) ;
#276 = SURFACE_STYLE_USAGE ( .BOTH. , #67 ) ;
#277 = VECTOR ( 'NONE', #91, 39.37007874015748143 ) ;
#278 =( LENGTH_UNIT ( ) NAMED_UNIT ( * ) SI_UNIT ( $, .METRE. ) );
#279 = PRESENTATION_STYLE_ASSIGNMENT (( #276 ) ) ;
#280 = LENGTH_MEASURE_WITH_UNIT ( LENGTH_MEASURE( 0.02539999999999999897 ), #170 );
#281 = PRESENTATION_STYLE_ASSIGNMENT (( #340 ) ) ;
#282 = EDGE_CURVE ( 'NONE', #76, #163, #34, .T. ) ;
#283 = DIRECTION ( 'NONE',  ( -1.245234447608929030E-16, 1.000000000000000000, -0.000000000000000000 ) ) ;
#284 = CONICAL_SURFACE ( 'NONE', #308, 39.37007874015762354, 0.7853981633974500554 ) ;
#285 = ADVANCED_BREP_SHAPE_REPRESENTATION ( '83758', ( #10, #250, #338 ), #38 ) ;
#286 =( CONVERSION_BASED_UNIT ( 'INCH', #317 ) LENGTH_UNIT ( ) NAMED_UNIT ( #297 ) );
#287 = SURFACE_SIDE_STYLE ('',( #221 ) ) ;
#288 = ORIENTED_EDGE ( 'NONE', *, *, #331, .T. ) ;
#289 = CARTESIAN_POINT ( 'NONE',  ( 1.878145495644181332E-16, 1.000000000000000000, 0.000000000000000000 ) ) ;
#290 = ORIENTED_EDGE ( 'NONE', *, *, #203, .F. ) ;
#291 = EDGE_CURVE ( 'NONE', #62, #55, #196, .T. ) ;
#292 = AXIS2_PLACEMENT_3D ( 'NONE', #208, #312, #16 ) ;
#293 =( NAMED_UNIT ( * ) PLANE_ANGLE_UNIT ( ) SI_UNIT ( $, .RADIAN. ) );
#294 = CARTESIAN_POINT ( 'NONE',  ( 0.000000000000000000, 39.37007874015748143, 0.000000000000000000 ) ) ;
#295 = VERTEX_POINT ( 'NONE', #231 ) ;
#296 = STYLED_ITEM ( 'NONE', ( #225 ), #10 ) ;
#297 = DIMENSIONAL_EXPONENTS ( 1.000000000000000000, 0.000000000000000000, 0.000000000000000000, 0.000000000000000000, 0.000000000000000000, 0.000000000000000000, 0.000000000000000000 ) ;
#298 = DIRECTION ( 'NONE',  ( 8.659560562354947649E-17, 0.7071067811865462405, -0.7071067811865486830 ) ) ;
#299 = UNCERTAINTY_MEASURE_WITH_UNIT (LENGTH_MEASURE( 1.000000000000000082E-05 ), #310, 'distance_accuracy_value', 'NONE');
#300 = CIRCLE ( 'NONE', #303, 0.2500000000000000000 ) ;
#301 = DIRECTION ( 'NONE',  ( -1.245234447608929030E-16, 1.000000000000000000, -0.000000000000000000 ) ) ;
#302 =( NAMED_UNIT ( * ) PLANE_ANGLE_UNIT ( ) SI_UNIT ( $, .RADIAN. ) );
#303 = AXIS2_PLACEMENT_3D ( 'NONE', #211, #314, #127 ) ;
#304 = FACE_OUTER_BOUND ( 'NONE', #71, .T. ) ;
#305 = DIRECTION ( 'NONE',  ( 0.000000000000000000, -0.000000000000000000, 1.000000000000000000 ) ) ;
#306 =( GEOMETRIC_REPRESENTATION_CONTEXT ( 3 ) GLOBAL_UNCERTAINTY_ASSIGNED_CONTEXT ( ( #270 ) ) GLOBAL_UNIT_ASSIGNED_CONTEXT ( ( #134, #329, #29 ) ) REPRESENTATION_CONTEXT ( 'NONE', 'WORKASPACE' ) );
#307 = AXIS2_PLACEMENT_3D ( 'NONE', #294, #342, #103 ) ;
#308 = AXIS2_PLACEMENT_3D ( 'NONE', #191, #201, #64 ) ;
#309 = FACE_OUTER_BOUND ( 'NONE', #111, .T. ) ;
#310 =( CONVERSION_BASED_UNIT ( 'INCH', #46 ) LENGTH_UNIT ( ) NAMED_UNIT ( #192 ) );
#311 = SURFACE_SIDE_STYLE ('',( #12 ) ) ;
#312 = DIRECTION ( 'NONE',  ( -1.245234447608929030E-16, 1.000000000000000000, -0.000000000000000000 ) ) ;
#313 =( LENGTH_UNIT ( ) NAMED_UNIT ( * ) SI_UNIT ( $, .METRE. ) );
#314 = DIRECTION ( 'NONE',  ( -0.000000000000000000, -1.000000000000000000, -0.000000000000000000 ) ) ;
#315 = ADVANCED_FACE ( 'NONE', ( #304 ), #337, .F. ) ;
#316 = ORIENTED_EDGE ( 'NONE', *, *, #146, .F. ) ;
#317 = LENGTH_MEASURE_WITH_UNIT ( LENGTH_MEASURE( 0.02539999999999999897 ), #171 );
#318 = AXIS2_PLACEMENT_3D ( 'NONE', #126, #239, #99 ) ;
#319 = DIRECTION ( 'NONE',  ( -1.000000000000000000, 0.000000000000000000, 0.000000000000000000 ) ) ;
#320 = FILL_AREA_STYLE ('',( #214 ) ) ;
#321 = AXIS2_PLACEMENT_3D ( 'NONE', #88, #228, #245 ) ;
#322 = CIRCLE ( 'NONE', #48, 0.2499999999999999722 ) ;
#323 = ORIENTED_EDGE ( 'NONE', *, *, #85, .F. ) ;
#324 = PRESENTATION_STYLE_ASSIGNMENT (( #161 ) ) ;
#325 = FILL_AREA_STYLE ('',( #241 ) ) ;
#326 = DIRECTION ( 'NONE',  ( -1.245234447608929030E-16, 1.000000000000000000, -0.000000000000000000 ) ) ;
#327 = DIRECTION ( 'NONE',  ( 0.000000000000000000, 0.000000000000000000, -1.000000000000000000 ) ) ;
#328 = UNCERTAINTY_MEASURE_WITH_UNIT (LENGTH_MEASURE( 1.000000000000000082E-05 ), #144, 'distance_accuracy_value', 'NONE');
#329 =( NAMED_UNIT ( * ) PLANE_ANGLE_UNIT ( ) SI_UNIT ( $, .RADIAN. ) );
#330 = VECTOR ( 'NONE', #298, 39.37007874015748854 ) ;
#331 = EDGE_CURVE ( 'NONE', #106, #332, #65, .T. ) ;
#332 = VERTEX_POINT ( 'NONE', #199 ) ;
#333 =( NAMED_UNIT ( * ) SI_UNIT ( $, .STERADIAN. ) SOLID_ANGLE_UNIT ( ) );
#334 = LINE ( 'NONE', #166, #347 ) ;
#335 = AXIS2_PLACEMENT_3D ( 'NONE', #108, #223, #156 ) ;
#336 = PRODUCT_DEFINITION ( 'UNKNOWN', '', #177, #2 ) ;
#337 = PLANE ( 'NONE',  #321 ) ;
#338 = AXIS2_PLACEMENT_3D ( 'NONE', #60, #220, #1 ) ;
#339 = PRESENTATION_LAYER_ASSIGNMENT (  '', '', ( #209 ) ) ;
#340 = SURFACE_STYLE_USAGE ( .BOTH. , #311 ) ;
#341 =( NAMED_UNIT ( * ) PLANE_ANGLE_UNIT ( ) SI_UNIT ( $, .RADIAN. ) );
#342 = DIRECTION ( 'NONE',  ( 0.000000000000000000, 1.000000000000000000, 0.000000000000000000 ) ) ;
#343 = ORIENTED_EDGE ( 'NONE', *, *, #203, .T. ) ;
#344 = CIRCLE ( 'NONE', #197, 0.2499999999999998057 ) ;
#345 = LENGTH_MEASURE_WITH_UNIT ( LENGTH_MEASURE( 0.02539999999999999897 ), #74 );
#346 = SURFACE_STYLE_USAGE ( .BOTH. , #132 ) ;
#347 = VECTOR ( 'NONE', #248, 39.37007874015748143 ) ;
#348 = APPLICATION_PROTOCOL_DEFINITION ( 'draft international standard', 'automotive_design', 1998, #53 ) ;
#349 = ORIENTED_EDGE ( 'NONE', *, *, #28, .F. ) ;
#350 = MECHANICAL_DESIGN_GEOMETRIC_PRESENTATION_REPRESENTATION (  '', ( #222 ), #129 ) ;
#351 = PRODUCT ( '83758', '83758', '', ( #52 ) ) ;
ENDSEC;
END-ISO-10303-21;
