ISO-10303-21;
HEADER;
FILE_DESCRIPTION (( 'STEP AP214' ),
    '1' );
FILE_NAME ('44362.STEP',
    '2023-06-22T20:18:09',
    ( '' ),
    ( '' ),
    'SwSTEP 2.0',
    'SolidWorks 2023',
    '' );
FILE_SCHEMA (( 'AUTOMOTIVE_DESIGN' ));
ENDSEC;

DATA;
#1 = SURFACE_STYLE_USAGE ( .BOTH. , #6 ) ;
#2 = ORIENTED_EDGE ( 'NONE', *, *, #170, .T. ) ;
#3 =( GEOMETRIC_REPRESENTATION_CONTEXT ( 3 ) GLOBAL_UNCERTAINTY_ASSIGNED_CONTEXT ( ( #200 ) ) GLOBAL_UNIT_ASSIGNED_CONTEXT ( ( #40, #180, #107 ) ) REPRESENTATION_CONTEXT ( 'NONE', 'WORKASPACE' ) );
#4 = FILL_AREA_STYLE ('',( #95 ) ) ;
#5 = DIRECTION ( 'NONE',  ( -1.000000000000000000, 1.224646799147352961E-16, 0.000000000000000000 ) ) ;
#6 = SURFACE_SIDE_STYLE ('',( #119 ) ) ;
#7 = EDGE_LOOP ( 'NONE', ( #76, #28, #72, #29 ) ) ;
#8 = CARTESIAN_POINT ( 'NONE',  ( 0.000000000000000000, 0.000000000000000000, 0.000000000000000000 ) ) ;
#9 = AXIS2_PLACEMENT_3D ( 'NONE', #81, #253, #84 ) ;
#10 = COLOUR_RGB ( '',1.000000000000000000, 0.000000000000000000, 0.000000000000000000 ) ;
#11 = LENGTH_MEASURE_WITH_UNIT ( LENGTH_MEASURE( 0.02539999999999999897 ), #156 );
#12 = PRESENTATION_LAYER_ASSIGNMENT (  '', '', ( #160 ) ) ;
#13 =( CONVERSION_BASED_UNIT ( 'INCH', #273 ) LENGTH_UNIT ( ) NAMED_UNIT ( #63 ) );
#14 = UNCERTAINTY_MEASURE_WITH_UNIT (LENGTH_MEASURE( 1.000000000000000082E-05 ), #13, 'distance_accuracy_value', 'NONE');
#15 = CARTESIAN_POINT ( 'NONE',  ( 2.449293598294705921E-16, 3.000000000000000444, 0.000000000000000000 ) ) ;
#16 = DIRECTION ( 'NONE',  ( 1.000000000000000000, 0.000000000000000000, 0.000000000000000000 ) ) ;
#17 = SURFACE_STYLE_FILL_AREA ( #231 ) ;
#18 = DIMENSIONAL_EXPONENTS ( 1.000000000000000000, 0.000000000000000000, 0.000000000000000000, 0.000000000000000000, 0.000000000000000000, 0.000000000000000000, 0.000000000000000000 ) ;
#19 = SURFACE_SIDE_STYLE ('',( #17 ) ) ;
#20 = PRESENTATION_LAYER_ASSIGNMENT (  '', '', ( #44 ) ) ;
#21 = CIRCLE ( 'NONE', #65, 0.3750000000000000555 ) ;
#22 =( GEOMETRIC_REPRESENTATION_CONTEXT ( 3 ) GLOBAL_UNCERTAINTY_ASSIGNED_CONTEXT ( ( #171 ) ) GLOBAL_UNIT_ASSIGNED_CONTEXT ( ( #25, #114, #242 ) ) REPRESENTATION_CONTEXT ( 'NONE', 'WORKASPACE' ) );
#23 = EDGE_CURVE ( 'NONE', #290, #225, #78, .T. ) ;
#24 =( LENGTH_UNIT ( ) NAMED_UNIT ( * ) SI_UNIT ( $, .METRE. ) );
#25 =( CONVERSION_BASED_UNIT ( 'INCH', #168 ) LENGTH_UNIT ( ) NAMED_UNIT ( #278 ) );
#26 = AXIS2_PLACEMENT_3D ( 'NONE', #300, #274, #251 ) ;
#27 = CARTESIAN_POINT ( 'NONE',  ( 0.000000000000000000, 0.000000000000000000, -0.3750000000000000555 ) ) ;
#28 = ORIENTED_EDGE ( 'NONE', *, *, #128, .T. ) ;
#29 = ORIENTED_EDGE ( 'NONE', *, *, #50, .F. ) ;
#30 = ADVANCED_FACE ( 'NONE', ( #122 ), #146, .F. ) ;
#31 = CARTESIAN_POINT ( 'NONE',  ( 0.000000000000000000, 0.000000000000000000, 0.000000000000000000 ) ) ;
#32 = ORIENTED_EDGE ( 'NONE', *, *, #256, .T. ) ;
#33 = CARTESIAN_POINT ( 'NONE',  ( 0.000000000000000000, 0.000000000000000000, -0.3750000000000000555 ) ) ;
#34 = FACE_OUTER_BOUND ( 'NONE', #73, .T. ) ;
#35 = DIRECTION ( 'NONE',  ( -0.000000000000000000, -1.000000000000000000, -0.000000000000000000 ) ) ;
#36 = PRESENTATION_LAYER_ASSIGNMENT (  '', '', ( #164 ) ) ;
#37 = CARTESIAN_POINT ( 'NONE',  ( 0.000000000000000000, 0.000000000000000000, 0.000000000000000000 ) ) ;
#38 = SHAPE_DEFINITION_REPRESENTATION ( #299, #135 ) ;
#39 = CARTESIAN_POINT ( 'NONE',  ( -0.3749999999999995004, 3.000000000000000444, 0.000000000000000000 ) ) ;
#40 =( CONVERSION_BASED_UNIT ( 'INCH', #11 ) LENGTH_UNIT ( ) NAMED_UNIT ( #232 ) );
#41 =( CONVERSION_BASED_UNIT ( 'INCH', #258 ) LENGTH_UNIT ( ) NAMED_UNIT ( #18 ) );
#42 = DIRECTION ( 'NONE',  ( 1.224646799147352961E-16, 1.000000000000000000, -0.000000000000000000 ) ) ;
#43 = CARTESIAN_POINT ( 'NONE',  ( 0.3750000000000000555, 3.000000000000000444, 4.592425496802573602E-17 ) ) ;
#44 = STYLED_ITEM ( 'NONE', ( #221 ), #255 ) ;
#45 = DIRECTION ( 'NONE',  ( -0.000000000000000000, -1.000000000000000000, -0.000000000000000000 ) ) ;
#46 =( NAMED_UNIT ( * ) SI_UNIT ( $, .STERADIAN. ) SOLID_ANGLE_UNIT ( ) );
#47 = SURFACE_STYLE_USAGE ( .BOTH. , #94 ) ;
#48 = VERTEX_POINT ( 'NONE', #163 ) ;
#49 = AXIS2_PLACEMENT_3D ( 'NONE', #37, #102, #55 ) ;
#50 = EDGE_CURVE ( 'NONE', #225, #148, #173, .T. ) ;
#51 = VERTEX_POINT ( 'NONE', #197 ) ;
#52 = MECHANICAL_DESIGN_GEOMETRIC_PRESENTATION_REPRESENTATION (  '', ( #160 ), #195 ) ;
#53 = MECHANICAL_DESIGN_GEOMETRIC_PRESENTATION_REPRESENTATION (  '', ( #196 ), #106 ) ;
#54 = CARTESIAN_POINT ( 'NONE',  ( 0.3750000000000001665, 3.000000000000000444, 4.592425496802572986E-17 ) ) ;
#55 = DIRECTION ( 'NONE',  ( 0.000000000000000000, 0.000000000000000000, -1.000000000000000000 ) ) ;
#56 = DIMENSIONAL_EXPONENTS ( 1.000000000000000000, 0.000000000000000000, 0.000000000000000000, 0.000000000000000000, 0.000000000000000000, 0.000000000000000000, 0.000000000000000000 ) ;
#57 = PRESENTATION_STYLE_ASSIGNMENT (( #279 ) ) ;
#58 = COLOUR_RGB ( '',0.7921568627450980005, 0.8196078431372548767, 0.9333333333333333481 ) ;
#59 =( NAMED_UNIT ( * ) SI_UNIT ( $, .STERADIAN. ) SOLID_ANGLE_UNIT ( ) );
#60 = ADVANCED_FACE ( 'NONE', ( #77 ), #129, .T. ) ;
#61 = DIRECTION ( 'NONE',  ( -1.000000000000000000, 0.000000000000000000, 0.000000000000000000 ) ) ;
#62 = SURFACE_STYLE_FILL_AREA ( #182 ) ;
#63 = DIMENSIONAL_EXPONENTS ( 1.000000000000000000, 0.000000000000000000, 0.000000000000000000, 0.000000000000000000, 0.000000000000000000, 0.000000000000000000, 0.000000000000000000 ) ;
#64 = PRODUCT ( '44362', '44362', '', ( #206 ) ) ;
#65 = AXIS2_PLACEMENT_3D ( 'NONE', #89, #45, #305 ) ;
#66 = DIRECTION ( 'NONE',  ( 1.224646799147352961E-16, 1.000000000000000000, -0.000000000000000000 ) ) ;
#67 = LINE ( 'NONE', #134, #142 ) ;
#68 = PRODUCT_DEFINITION_CONTEXT ( 'detailed design', #70, 'design' ) ;
#69 = FILL_AREA_STYLE_COLOUR ( '', #79 ) ;
#70 = APPLICATION_CONTEXT ( 'automotive_design' ) ;
#71 = DIRECTION ( 'NONE',  ( 0.000000000000000000, -1.000000000000000000, -0.000000000000000000 ) ) ;
#72 = ORIENTED_EDGE ( 'NONE', *, *, #205, .T. ) ;
#73 = EDGE_LOOP ( 'NONE', ( #265, #223 ) ) ;
#74 = AXIS2_PLACEMENT_3D ( 'NONE', #250, #35, #226 ) ;
#75 = MECHANICAL_DESIGN_GEOMETRIC_PRESENTATION_REPRESENTATION (  '', ( #44 ), #22 ) ;
#76 = ORIENTED_EDGE ( 'NONE', *, *, #23, .F. ) ;
#77 = FACE_OUTER_BOUND ( 'NONE', #7, .T. ) ;
#78 = LINE ( 'NONE', #54, #270 ) ;
#79 = COLOUR_RGB ( '',1.000000000000000000, 0.000000000000000000, 0.000000000000000000 ) ;
#80 = DIRECTION ( 'NONE',  ( 0.000000000000000000, 0.000000000000000000, 1.000000000000000000 ) ) ;
#81 = CARTESIAN_POINT ( 'NONE',  ( 2.449293598294705921E-16, 3.000000000000000444, 0.000000000000000000 ) ) ;
#82 = CIRCLE ( 'NONE', #74, 0.3750000000000000555 ) ;
#83 = PRESENTATION_LAYER_ASSIGNMENT (  '', '', ( #196 ) ) ;
#84 = DIRECTION ( 'NONE',  ( -1.000000000000000000, 0.000000000000000000, 0.000000000000000000 ) ) ;
#85 = LENGTH_MEASURE_WITH_UNIT ( LENGTH_MEASURE( 0.02539999999999999897 ), #185 );
#86 = AXIS2_PLACEMENT_3D ( 'NONE', #15, #176, #61 ) ;
#87 = AXIS2_PLACEMENT_3D ( 'NONE', #108, #42, #111 ) ;
#88 = DIRECTION ( 'NONE',  ( 0.000000000000000000, 1.000000000000000000, 0.000000000000000000 ) ) ;
#89 = CARTESIAN_POINT ( 'NONE',  ( 0.000000000000000000, 1.000000000000000000, 0.000000000000000000 ) ) ;
#90 = UNCERTAINTY_MEASURE_WITH_UNIT (LENGTH_MEASURE( 1.000000000000000082E-05 ), #286, 'distance_accuracy_value', 'NONE');
#91 = CARTESIAN_POINT ( 'NONE',  ( 0.000000000000000000, 0.000000000000000000, 0.000000000000000000 ) ) ;
#92 = EDGE_LOOP ( 'NONE', ( #120, #2, #32, #143 ) ) ;
#93 = DIRECTION ( 'NONE',  ( 1.224646799147352961E-16, 1.000000000000000000, -0.000000000000000000 ) ) ;
#94 = SURFACE_SIDE_STYLE ('',( #193 ) ) ;
#95 = FILL_AREA_STYLE_COLOUR ( '', #191 ) ;
#96 = DIRECTION ( 'NONE',  ( 1.224646799147352961E-16, 1.000000000000000000, -0.000000000000000000 ) ) ;
#97 = ORIENTED_EDGE ( 'NONE', *, *, #211, .F. ) ;
#98 =( LENGTH_UNIT ( ) NAMED_UNIT ( * ) SI_UNIT ( $, .METRE. ) );
#99 = CARTESIAN_POINT ( 'NONE',  ( 4.592425496802575451E-17, 0.000000000000000000, 0.3750000000000000555 ) ) ;
#100 = PRODUCT_RELATED_PRODUCT_CATEGORY ( 'part', '', ( #64 ) ) ;
#101 = CARTESIAN_POINT ( 'NONE',  ( 0.000000000000000000, 0.000000000000000000, 0.000000000000000000 ) ) ;
#102 = DIRECTION ( 'NONE',  ( -0.000000000000000000, -1.000000000000000000, -0.000000000000000000 ) ) ;
#103 = EDGE_CURVE ( 'NONE', #148, #225, #227, .T. ) ;
#104 = APPLICATION_PROTOCOL_DEFINITION ( 'draft international standard', 'automotive_design', 1998, #127 ) ;
#105 = CARTESIAN_POINT ( 'NONE',  ( -3.032960542342103792E-32, 1.000000000000000000, 0.000000000000000000 ) ) ;
#106 =( GEOMETRIC_REPRESENTATION_CONTEXT ( 3 ) GLOBAL_UNCERTAINTY_ASSIGNED_CONTEXT ( ( #219 ) ) GLOBAL_UNIT_ASSIGNED_CONTEXT ( ( #41, #306, #190 ) ) REPRESENTATION_CONTEXT ( 'NONE', 'WORKASPACE' ) );
#107 =( NAMED_UNIT ( * ) SI_UNIT ( $, .STERADIAN. ) SOLID_ANGLE_UNIT ( ) );
#108 = CARTESIAN_POINT ( 'NONE',  ( -3.032960542342103792E-32, 1.000000000000000000, 0.000000000000000000 ) ) ;
#109 = FACE_OUTER_BOUND ( 'NONE', #309, .T. ) ;
#110 = SURFACE_STYLE_USAGE ( .BOTH. , #139 ) ;
#111 = DIRECTION ( 'NONE',  ( -1.000000000000000000, 0.000000000000000000, 0.000000000000000000 ) ) ;
#112 = ADVANCED_FACE ( 'NONE', ( #34 ), #130, .F. ) ;
#113 = EDGE_CURVE ( 'NONE', #272, #287, #183, .T. ) ;
#114 =( NAMED_UNIT ( * ) PLANE_ANGLE_UNIT ( ) SI_UNIT ( $, .RADIAN. ) );
#115 = CLOSED_SHELL ( 'NONE', ( #295, #30, #60, #112 ) ) ;
#116 = VECTOR ( 'NONE', #224, 39.37007874015748143 ) ;
#117 = FACE_OUTER_BOUND ( 'NONE', #145, .T. ) ;
#118 = ORIENTED_EDGE ( 'NONE', *, *, #187, .F. ) ;
#119 = SURFACE_STYLE_FILL_AREA ( #247 ) ;
#120 = ORIENTED_EDGE ( 'NONE', *, *, #147, .F. ) ;
#121 = UNCERTAINTY_MEASURE_WITH_UNIT (LENGTH_MEASURE( 1.000000000000000082E-05 ), #283, 'distance_accuracy_value', 'NONE');
#122 = FACE_OUTER_BOUND ( 'NONE', #169, .T. ) ;
#123 = AXIS2_PLACEMENT_3D ( 'NONE', #246, #93, #5 ) ;
#124 = PRODUCT_DEFINITION_FORMATION_WITH_SPECIFIED_SOURCE ( 'ANY', '', #64, .NOT_KNOWN. ) ;
#125 = ORIENTED_EDGE ( 'NONE', *, *, #103, .F. ) ;
#126 = CARTESIAN_POINT ( 'NONE',  ( 0.3750000000000000555, 1.000000000000000000, 4.592425496802573602E-17 ) ) ;
#127 = APPLICATION_CONTEXT ( 'automotive_design' ) ;
#128 = EDGE_CURVE ( 'NONE', #290, #267, #285, .T. ) ;
#129 = CYLINDRICAL_SURFACE ( 'NONE', #9, 0.3749999999999998890 ) ;
#130 = PLANE ( 'NONE',  #26 ) ;
#131 = EDGE_CURVE ( 'NONE', #287, #272, #82, .T. ) ;
#132 = CYLINDRICAL_SURFACE ( 'NONE', #301, 0.3750000000000000555 ) ;
#133 =( GEOMETRIC_REPRESENTATION_CONTEXT ( 3 ) GLOBAL_UNCERTAINTY_ASSIGNED_CONTEXT ( ( #90 ) ) GLOBAL_UNIT_ASSIGNED_CONTEXT ( ( #286, #261, #162 ) ) REPRESENTATION_CONTEXT ( 'NONE', 'WORKASPACE' ) );
#134 = CARTESIAN_POINT ( 'NONE',  ( -0.3749999999999996114, 3.000000000000000444, 0.000000000000000000 ) ) ;
#135 = ADVANCED_BREP_SHAPE_REPRESENTATION ( '44362', ( #255, #150, #237 ), #155 ) ;
#136 =( NAMED_UNIT ( * ) SI_UNIT ( $, .STERADIAN. ) SOLID_ANGLE_UNIT ( ) );
#137 = CIRCLE ( 'NONE', #87, 0.3750000000000000555 ) ;
#138 = ADVANCED_FACE ( 'NONE', ( #229 ), #132, .T. ) ;
#139 = SURFACE_SIDE_STYLE ('',( #210 ) ) ;
#140 = DIRECTION ( 'NONE',  ( -0.000000000000000000, -1.000000000000000000, -0.000000000000000000 ) ) ;
#141 = CLOSED_SHELL ( 'NONE', ( #260, #233, #138, #241 ) ) ;
#142 = VECTOR ( 'NONE', #66, 39.37007874015748143 ) ;
#143 = ORIENTED_EDGE ( 'NONE', *, *, #113, .F. ) ;
#144 = MECHANICAL_DESIGN_GEOMETRIC_PRESENTATION_REPRESENTATION (  '', ( #164 ), #3 ) ;
#145 = EDGE_LOOP ( 'NONE', ( #292, #293, #262, #220 ) ) ;
#146 = PLANE ( 'NONE',  #123 ) ;
#147 = EDGE_CURVE ( 'NONE', #48, #272, #177, .T. ) ;
#148 = VERTEX_POINT ( 'NONE', #39 ) ;
#149 = COLOUR_RGB ( '',1.000000000000000000, 0.000000000000000000, 0.000000000000000000 ) ;
#150 = MANIFOLD_SOLID_BREP ( 'Revolve - Tool Body (Straight Shanked)', #115 ) ;
#151 = CYLINDRICAL_SURFACE ( 'NONE', #294, 0.3749999999999998890 ) ;
#152 = SURFACE_STYLE_USAGE ( .BOTH. , #19 ) ;
#153 = DIRECTION ( 'NONE',  ( 1.224646799147352961E-16, 1.000000000000000000, -0.000000000000000000 ) ) ;
#154 = VECTOR ( 'NONE', #235, 39.37007874015748143 ) ;
#155 =( GEOMETRIC_REPRESENTATION_CONTEXT ( 3 ) GLOBAL_UNCERTAINTY_ASSIGNED_CONTEXT ( ( #14 ) ) GLOBAL_UNIT_ASSIGNED_CONTEXT ( ( #13, #275, #59 ) ) REPRESENTATION_CONTEXT ( 'NONE', 'WORKASPACE' ) );
#156 =( LENGTH_UNIT ( ) NAMED_UNIT ( * ) SI_UNIT ( $, .METRE. ) );
#157 = PRESENTATION_STYLE_ASSIGNMENT (( #110 ) ) ;
#158 = LENGTH_MEASURE_WITH_UNIT ( LENGTH_MEASURE( 0.02539999999999999897 ), #98 );
#159 = DIRECTION ( 'NONE',  ( 0.000000000000000000, -0.000000000000000000, 1.000000000000000000 ) ) ;
#160 = STYLED_ITEM ( 'NONE', ( #209 ), #150 ) ;
#161 = DIRECTION ( 'NONE',  ( 0.000000000000000000, 0.000000000000000000, -1.000000000000000000 ) ) ;
#162 =( NAMED_UNIT ( * ) SI_UNIT ( $, .STERADIAN. ) SOLID_ANGLE_UNIT ( ) );
#163 = CARTESIAN_POINT ( 'NONE',  ( 4.592425496802575451E-17, 1.000000000000000000, 0.3750000000000000555 ) ) ;
#164 = STYLED_ITEM ( 'NONE', ( #57 ), #138 ) ;
#165 = CARTESIAN_POINT ( 'NONE',  ( 2.449293598294705921E-16, 3.000000000000000444, 0.000000000000000000 ) ) ;
#166 = LENGTH_MEASURE_WITH_UNIT ( LENGTH_MEASURE( 0.02539999999999999897 ), #218 );
#167 = ORIENTED_EDGE ( 'NONE', *, *, #170, .F. ) ;
#168 = LENGTH_MEASURE_WITH_UNIT ( LENGTH_MEASURE( 0.02539999999999999897 ), #245 );
#169 = EDGE_LOOP ( 'NONE', ( #118, #268 ) ) ;
#170 = EDGE_CURVE ( 'NONE', #48, #51, #236, .T. ) ;
#171 = UNCERTAINTY_MEASURE_WITH_UNIT (LENGTH_MEASURE( 1.000000000000000082E-05 ), #25, 'distance_accuracy_value', 'NONE');
#172 = ORIENTED_EDGE ( 'NONE', *, *, #23, .T. ) ;
#173 = CIRCLE ( 'NONE', #222, 0.3749999999999997780 ) ;
#174 = STYLED_ITEM ( 'NONE', ( #239 ), #241 ) ;
#175 = CARTESIAN_POINT ( 'NONE',  ( 2.449293598294705921E-16, 3.000000000000000444, 0.000000000000000000 ) ) ;
#176 = DIRECTION ( 'NONE',  ( 1.224646799147352961E-16, 1.000000000000000000, -0.000000000000000000 ) ) ;
#177 = LINE ( 'NONE', #276, #154 ) ;
#178 = SURFACE_SIDE_STYLE ('',( #297 ) ) ;
#179 = MECHANICAL_DESIGN_GEOMETRIC_PRESENTATION_REPRESENTATION (  '', ( #264 ), #271 ) ;
#180 =( NAMED_UNIT ( * ) PLANE_ANGLE_UNIT ( ) SI_UNIT ( $, .RADIAN. ) );
#181 = DIMENSIONAL_EXPONENTS ( 1.000000000000000000, 0.000000000000000000, 0.000000000000000000, 0.000000000000000000, 0.000000000000000000, 0.000000000000000000, 0.000000000000000000 ) ;
#182 = FILL_AREA_STYLE ('',( #69 ) ) ;
#183 = CIRCLE ( 'NONE', #49, 0.3750000000000000555 ) ;
#184 = AXIS2_PLACEMENT_3D ( 'NONE', #188, #88, #159 ) ;
#185 =( LENGTH_UNIT ( ) NAMED_UNIT ( * ) SI_UNIT ( $, .METRE. ) );
#186 =( NAMED_UNIT ( * ) PLANE_ANGLE_UNIT ( ) SI_UNIT ( $, .RADIAN. ) );
#187 = EDGE_CURVE ( 'NONE', #267, #290, #137, .T. ) ;
#188 = CARTESIAN_POINT ( 'NONE',  ( 0.000000000000000000, 1.000000000000000000, 0.000000000000000000 ) ) ;
#189 = MECHANICAL_DESIGN_GEOMETRIC_PRESENTATION_REPRESENTATION (  '', ( #174 ), #133 ) ;
#190 =( NAMED_UNIT ( * ) SI_UNIT ( $, .STERADIAN. ) SOLID_ANGLE_UNIT ( ) );
#191 = COLOUR_RGB ( '',0.7921568627450980005, 0.8196078431372548767, 0.9333333333333333481 ) ;
#192 = DIRECTION ( 'NONE',  ( 0.000000000000000000, 0.000000000000000000, -1.000000000000000000 ) ) ;
#193 = SURFACE_STYLE_FILL_AREA ( #4 ) ;
#194 = EDGE_LOOP ( 'NONE', ( #288, #172, #125, #244 ) ) ;
#195 =( GEOMETRIC_REPRESENTATION_CONTEXT ( 3 ) GLOBAL_UNCERTAINTY_ASSIGNED_CONTEXT ( ( #121 ) ) GLOBAL_UNIT_ASSIGNED_CONTEXT ( ( #283, #186, #136 ) ) REPRESENTATION_CONTEXT ( 'NONE', 'WORKASPACE' ) );
#196 = STYLED_ITEM ( 'NONE', ( #157 ), #233 ) ;
#197 = CARTESIAN_POINT ( 'NONE',  ( 0.000000000000000000, 1.000000000000000000, -0.3750000000000000555 ) ) ;
#198 = APPLICATION_PROTOCOL_DEFINITION ( 'draft international standard', 'automotive_design', 1998, #70 ) ;
#199 = EDGE_LOOP ( 'NONE', ( #215, #248 ) ) ;
#200 = UNCERTAINTY_MEASURE_WITH_UNIT (LENGTH_MEASURE( 1.000000000000000082E-05 ), #40, 'distance_accuracy_value', 'NONE');
#201 = FILL_AREA_STYLE ('',( #202 ) ) ;
#202 = FILL_AREA_STYLE_COLOUR ( '', #304 ) ;
#203 = DIRECTION ( 'NONE',  ( -1.000000000000000000, 0.000000000000000000, 0.000000000000000000 ) ) ;
#204 = FILL_AREA_STYLE_COLOUR ( '', #58 ) ;
#205 = EDGE_CURVE ( 'NONE', #267, #148, #67, .T. ) ;
#206 = PRODUCT_CONTEXT ( 'NONE', #127, 'mechanical' ) ;
#207 = CARTESIAN_POINT ( 'NONE',  ( 0.000000000000000000, 1.000000000000000000, 0.000000000000000000 ) ) ;
#208 = AXIS2_PLACEMENT_3D ( 'NONE', #207, #302, #161 ) ;
#209 = PRESENTATION_STYLE_ASSIGNMENT (( #152 ) ) ;
#210 = SURFACE_STYLE_FILL_AREA ( #238 ) ;
#211 = EDGE_CURVE ( 'NONE', #51, #48, #21, .T. ) ;
#212 = SURFACE_SIDE_STYLE ('',( #62 ) ) ;
#213 = PLANE ( 'NONE',  #184 ) ;
#214 = AXIS2_PLACEMENT_3D ( 'NONE', #31, #140, #277 ) ;
#215 = ORIENTED_EDGE ( 'NONE', *, *, #131, .T. ) ;
#216 = FILL_AREA_STYLE_COLOUR ( '', #149 ) ;
#217 = DIRECTION ( 'NONE',  ( 1.224646799147352961E-16, 1.000000000000000000, -0.000000000000000000 ) ) ;
#218 =( LENGTH_UNIT ( ) NAMED_UNIT ( * ) SI_UNIT ( $, .METRE. ) );
#219 = UNCERTAINTY_MEASURE_WITH_UNIT (LENGTH_MEASURE( 1.000000000000000082E-05 ), #41, 'distance_accuracy_value', 'NONE');
#220 = ORIENTED_EDGE ( 'NONE', *, *, #256, .F. ) ;
#221 = PRESENTATION_STYLE_ASSIGNMENT (( #47 ) ) ;
#222 = AXIS2_PLACEMENT_3D ( 'NONE', #165, #96, #240 ) ;
#223 = ORIENTED_EDGE ( 'NONE', *, *, #50, .T. ) ;
#224 = DIRECTION ( 'NONE',  ( -0.000000000000000000, -1.000000000000000000, -0.000000000000000000 ) ) ;
#225 = VERTEX_POINT ( 'NONE', #43 ) ;
#226 = DIRECTION ( 'NONE',  ( 0.000000000000000000, 0.000000000000000000, -1.000000000000000000 ) ) ;
#227 = CIRCLE ( 'NONE', #86, 0.3749999999999997780 ) ;
#228 = AXIS2_PLACEMENT_3D ( 'NONE', #91, #71, #192 ) ;
#229 = FACE_OUTER_BOUND ( 'NONE', #92, .T. ) ;
#230 = DIMENSIONAL_EXPONENTS ( 1.000000000000000000, 0.000000000000000000, 0.000000000000000000, 0.000000000000000000, 0.000000000000000000, 0.000000000000000000, 0.000000000000000000 ) ;
#231 = FILL_AREA_STYLE ('',( #204 ) ) ;
#232 = DIMENSIONAL_EXPONENTS ( 1.000000000000000000, 0.000000000000000000, 0.000000000000000000, 0.000000000000000000, 0.000000000000000000, 0.000000000000000000, 0.000000000000000000 ) ;
#233 = ADVANCED_FACE ( 'NONE', ( #109 ), #213, .T. ) ;
#234 =( LENGTH_UNIT ( ) NAMED_UNIT ( * ) SI_UNIT ( $, .METRE. ) );
#235 = DIRECTION ( 'NONE',  ( -0.000000000000000000, -1.000000000000000000, -0.000000000000000000 ) ) ;
#236 = CIRCLE ( 'NONE', #208, 0.3750000000000000555 ) ;
#237 = AXIS2_PLACEMENT_3D ( 'NONE', #101, #80, #16 ) ;
#238 = FILL_AREA_STYLE ('',( #282 ) ) ;
#239 = PRESENTATION_STYLE_ASSIGNMENT (( #303 ) ) ;
#240 = DIRECTION ( 'NONE',  ( -1.000000000000000000, 0.000000000000000000, 0.000000000000000000 ) ) ;
#241 = ADVANCED_FACE ( 'NONE', ( #259 ), #284, .T. ) ;
#242 =( NAMED_UNIT ( * ) SI_UNIT ( $, .STERADIAN. ) SOLID_ANGLE_UNIT ( ) );
#243 = CYLINDRICAL_SURFACE ( 'NONE', #214, 0.3750000000000000555 ) ;
#244 = ORIENTED_EDGE ( 'NONE', *, *, #205, .F. ) ;
#245 =( LENGTH_UNIT ( ) NAMED_UNIT ( * ) SI_UNIT ( $, .METRE. ) );
#246 = CARTESIAN_POINT ( 'NONE',  ( 2.812049592490981988E-33, 1.000000000000000000, 0.000000000000000000 ) ) ;
#247 = FILL_AREA_STYLE ('',( #216 ) ) ;
#248 = ORIENTED_EDGE ( 'NONE', *, *, #113, .T. ) ;
#249 = UNCERTAINTY_MEASURE_WITH_UNIT (LENGTH_MEASURE( 1.000000000000000082E-05 ), #308, 'distance_accuracy_value', 'NONE');
#250 = CARTESIAN_POINT ( 'NONE',  ( 0.000000000000000000, 0.000000000000000000, 0.000000000000000000 ) ) ;
#251 = DIRECTION ( 'NONE',  ( 1.000000000000000000, -1.224646799147352961E-16, 0.000000000000000000 ) ) ;
#252 = DIRECTION ( 'NONE',  ( 1.224646799147352961E-16, 1.000000000000000000, -0.000000000000000000 ) ) ;
#253 = DIRECTION ( 'NONE',  ( 1.224646799147352961E-16, 1.000000000000000000, -0.000000000000000000 ) ) ;
#254 = DIRECTION ( 'NONE',  ( 0.000000000000000000, 0.000000000000000000, -1.000000000000000000 ) ) ;
#255 = MANIFOLD_SOLID_BREP ( 'Revolve - Cutting Edge', #141 ) ;
#256 = EDGE_CURVE ( 'NONE', #51, #287, #289, .T. ) ;
#257 = PRESENTATION_LAYER_ASSIGNMENT (  '', '', ( #174 ) ) ;
#258 = LENGTH_MEASURE_WITH_UNIT ( LENGTH_MEASURE( 0.02539999999999999897 ), #24 );
#259 = FACE_OUTER_BOUND ( 'NONE', #199, .T. ) ;
#260 = ADVANCED_FACE ( 'NONE', ( #117 ), #243, .T. ) ;
#261 =( NAMED_UNIT ( * ) PLANE_ANGLE_UNIT ( ) SI_UNIT ( $, .RADIAN. ) );
#262 = ORIENTED_EDGE ( 'NONE', *, *, #131, .F. ) ;
#263 = AXIS2_PLACEMENT_3D ( 'NONE', #105, #153, #281 ) ;
#264 = STYLED_ITEM ( 'NONE', ( #291 ), #260 ) ;
#265 = ORIENTED_EDGE ( 'NONE', *, *, #103, .T. ) ;
#266 =( NAMED_UNIT ( * ) PLANE_ANGLE_UNIT ( ) SI_UNIT ( $, .RADIAN. ) );
#267 = VERTEX_POINT ( 'NONE', #298 ) ;
#268 = ORIENTED_EDGE ( 'NONE', *, *, #128, .F. ) ;
#269 = PRODUCT_DEFINITION ( 'UNKNOWN', '', #124, #68 ) ;
#270 = VECTOR ( 'NONE', #217, 39.37007874015748143 ) ;
#271 =( GEOMETRIC_REPRESENTATION_CONTEXT ( 3 ) GLOBAL_UNCERTAINTY_ASSIGNED_CONTEXT ( ( #249 ) ) GLOBAL_UNIT_ASSIGNED_CONTEXT ( ( #308, #266, #46 ) ) REPRESENTATION_CONTEXT ( 'NONE', 'WORKASPACE' ) );
#272 = VERTEX_POINT ( 'NONE', #99 ) ;
#273 = LENGTH_MEASURE_WITH_UNIT ( LENGTH_MEASURE( 0.02539999999999999897 ), #234 );
#274 = DIRECTION ( 'NONE',  ( -1.224646799147352961E-16, -1.000000000000000000, 0.000000000000000000 ) ) ;
#275 =( NAMED_UNIT ( * ) PLANE_ANGLE_UNIT ( ) SI_UNIT ( $, .RADIAN. ) );
#276 = CARTESIAN_POINT ( 'NONE',  ( 4.592425496802575451E-17, 0.000000000000000000, 0.3750000000000000555 ) ) ;
#277 = DIRECTION ( 'NONE',  ( 0.000000000000000000, 0.000000000000000000, -1.000000000000000000 ) ) ;
#278 = DIMENSIONAL_EXPONENTS ( 1.000000000000000000, 0.000000000000000000, 0.000000000000000000, 0.000000000000000000, 0.000000000000000000, 0.000000000000000000, 0.000000000000000000 ) ;
#279 = SURFACE_STYLE_USAGE ( .BOTH. , #178 ) ;
#280 = DIRECTION ( 'NONE',  ( -0.000000000000000000, -1.000000000000000000, -0.000000000000000000 ) ) ;
#281 = DIRECTION ( 'NONE',  ( -1.000000000000000000, 0.000000000000000000, 0.000000000000000000 ) ) ;
#282 = FILL_AREA_STYLE_COLOUR ( '', #10 ) ;
#283 =( CONVERSION_BASED_UNIT ( 'INCH', #158 ) LENGTH_UNIT ( ) NAMED_UNIT ( #56 ) );
#284 = PLANE ( 'NONE',  #228 ) ;
#285 = CIRCLE ( 'NONE', #263, 0.3750000000000000555 ) ;
#286 =( CONVERSION_BASED_UNIT ( 'INCH', #85 ) LENGTH_UNIT ( ) NAMED_UNIT ( #230 ) );
#287 = VERTEX_POINT ( 'NONE', #33 ) ;
#288 = ORIENTED_EDGE ( 'NONE', *, *, #187, .T. ) ;
#289 = LINE ( 'NONE', #27, #116 ) ;
#290 = VERTEX_POINT ( 'NONE', #126 ) ;
#291 = PRESENTATION_STYLE_ASSIGNMENT (( #1 ) ) ;
#292 = ORIENTED_EDGE ( 'NONE', *, *, #211, .T. ) ;
#293 = ORIENTED_EDGE ( 'NONE', *, *, #147, .T. ) ;
#294 = AXIS2_PLACEMENT_3D ( 'NONE', #175, #252, #203 ) ;
#295 = ADVANCED_FACE ( 'NONE', ( #296 ), #151, .T. ) ;
#296 = FACE_OUTER_BOUND ( 'NONE', #194, .T. ) ;
#297 = SURFACE_STYLE_FILL_AREA ( #201 ) ;
#298 = CARTESIAN_POINT ( 'NONE',  ( -0.3750000000000000555, 1.000000000000000000, 0.000000000000000000 ) ) ;
#299 = PRODUCT_DEFINITION_SHAPE ( 'NONE', 'NONE',  #269 ) ;
#300 = CARTESIAN_POINT ( 'NONE',  ( 0.3750000000000000555, 3.000000000000000444, 0.000000000000000000 ) ) ;
#301 = AXIS2_PLACEMENT_3D ( 'NONE', #8, #280, #254 ) ;
#302 = DIRECTION ( 'NONE',  ( -0.000000000000000000, -1.000000000000000000, -0.000000000000000000 ) ) ;
#303 = SURFACE_STYLE_USAGE ( .BOTH. , #212 ) ;
#304 = COLOUR_RGB ( '',1.000000000000000000, 0.000000000000000000, 0.000000000000000000 ) ;
#305 = DIRECTION ( 'NONE',  ( 0.000000000000000000, 0.000000000000000000, -1.000000000000000000 ) ) ;
#306 =( NAMED_UNIT ( * ) PLANE_ANGLE_UNIT ( ) SI_UNIT ( $, .RADIAN. ) );
#307 = PRESENTATION_LAYER_ASSIGNMENT (  '', '', ( #264 ) ) ;
#308 =( CONVERSION_BASED_UNIT ( 'INCH', #166 ) LENGTH_UNIT ( ) NAMED_UNIT ( #181 ) );
#309 = EDGE_LOOP ( 'NONE', ( #97, #167 ) ) ;
ENDSEC;
END-ISO-10303-21;
