ISO-10303-21;
HEADER;
FILE_DESCRIPTION (( 'STEP AP214' ),
    '1' );
FILE_NAME ('Micro_RNC-125-13.STEP',
    '2021-09-03T17:33:15',
    ( '' ),
    ( '' ),
    'SwSTEP 2.0',
    'SolidWorks 2020',
    '' );
FILE_SCHEMA (( 'AUTOMOTIVE_DESIGN' ));
ENDSEC;

DATA;
#1 = CLOSED_SHELL ( 'NONE', ( #63, #164, #190, #129, #204, #37, #5, #92 ) ) ;
#2 = AXIS2_PLACEMENT_3D ( 'NONE', #147, #131, #148 ) ;
#3 = DIRECTION ( 'NONE',  ( -0.0000000000000000000, -0.0000000000000000000, -1.000000000000000000 ) ) ;
#4 = ORIENTED_EDGE ( 'NONE', *, *, #223, .T. ) ;
#5 = ADVANCED_FACE ( 'NONE', ( #116 ), #101, .T. ) ;
#6 = ORIENTED_EDGE ( 'NONE', *, *, #90, .F. ) ;
#7 = DIRECTION ( 'NONE',  ( -0.0000000000000000000, -0.0000000000000000000, -1.000000000000000000 ) ) ;
#8 = LINE ( 'NONE', #142, #52 ) ;
#9 = APPLICATION_CONTEXT ( 'automotive_design' ) ;
#10 = LINE ( 'NONE', #154, #96 ) ;
#11 = CIRCLE ( 'NONE', #173, 0.004000000000000000083 ) ;
#12 = CONICAL_SURFACE ( 'NONE', #60, 0.04750000000000187406, 0.7853981633974503884 ) ;
#13 = DIRECTION ( 'NONE',  ( -0.0000000000000000000, -0.0000000000000000000, -1.000000000000000000 ) ) ;
#14 = PRODUCT_RELATED_PRODUCT_CATEGORY ( 'part', '', ( #179 ) ) ;
#15 = PLANE ( 'NONE',  #225 ) ;
#16 =( NAMED_UNIT ( * ) PLANE_ANGLE_UNIT ( ) SI_UNIT ( $, .RADIAN. ) );
#17 = STYLED_ITEM ( 'NONE', ( #232 ), #66 ) ;
#18 = CARTESIAN_POINT ( 'NONE',  ( 0.0000000000000000000, 0.0000000000000000000, 0.05849999999999978134 ) ) ;
#19 = CARTESIAN_POINT ( 'NONE',  ( 0.0000000000000000000, 0.0000000000000000000, 0.05849999999999978134 ) ) ;
#20 = LINE ( 'NONE', #93, #94 ) ;
#21 = EDGE_CURVE ( 'NONE', #133, #191, #57, .T. ) ;
#22 = ORIENTED_EDGE ( 'NONE', *, *, #95, .F. ) ;
#23 = EDGE_CURVE ( 'NONE', #78, #135, #119, .T. ) ;
#24 = DIRECTION ( 'NONE',  ( 1.000000000000000000, 0.0000000000000000000, 0.0000000000000000000 ) ) ;
#25 = AXIS2_PLACEMENT_3D ( 'NONE', #218, #176, #30 ) ;
#26 = ORIENTED_EDGE ( 'NONE', *, *, #21, .F. ) ;
#27 = FILL_AREA_STYLE ('',( #211 ) ) ;
#28 = VECTOR ( 'NONE', #196, 39.37007874015748854 ) ;
#29 = AXIS2_PLACEMENT_3D ( 'NONE', #31, #171, #153 ) ;
#30 = DIRECTION ( 'NONE',  ( 1.000000000000000000, 0.0000000000000000000, 0.0000000000000000000 ) ) ;
#31 = CARTESIAN_POINT ( 'NONE',  ( 0.0000000000000000000, 0.0000000000000000000, 0.0000000000000000000 ) ) ;
#32 = FACE_OUTER_BOUND ( 'NONE', #198, .T. ) ;
#33 = FACE_OUTER_BOUND ( 'NONE', #242, .T. ) ;
#34 = DIRECTION ( 'NONE',  ( 0.0000000000000000000, 0.0000000000000000000, 1.000000000000000000 ) ) ;
#35 = PRESENTATION_LAYER_ASSIGNMENT (  '', '', ( #220 ) ) ;
#36 = ORIENTED_EDGE ( 'NONE', *, *, #170, .F. ) ;
#37 = ADVANCED_FACE ( 'NONE', ( #159 ), #208, .T. ) ;
#38 = ORIENTED_EDGE ( 'NONE', *, *, #125, .F. ) ;
#39 = CIRCLE ( 'NONE', #215, 0.04750000000000187406 ) ;
#40 = VERTEX_POINT ( 'NONE', #45 ) ;
#41 = DIRECTION ( 'NONE',  ( 0.0000000000000000000, 0.0000000000000000000, -1.000000000000000000 ) ) ;
#42 = CARTESIAN_POINT ( 'NONE',  ( 0.0000000000000000000, 0.0000000000000000000, 2.985000000000002096 ) ) ;
#43 = LENGTH_MEASURE_WITH_UNIT ( LENGTH_MEASURE( 0.02539999999999999897 ), #235 );
#44 = ORIENTED_EDGE ( 'NONE', *, *, #223, .F. ) ;
#45 = CARTESIAN_POINT ( 'NONE',  ( 0.06250000000000000000, 7.654042494670956004E-18, 0.05849999999999978134 ) ) ;
#46 = DIRECTION ( 'NONE',  ( 1.000000000000000000, 0.0000000000000000000, 0.0000000000000000000 ) ) ;
#47 = COLOUR_RGB ( '',0.7921568627450980005, 0.8196078431372548767, 0.9333333333333333481 ) ;
#48 = CARTESIAN_POINT ( 'NONE',  ( 0.04750000000000187406, 6.735557395310557148E-18, 3.000000000000000444 ) ) ;
#49 = UNCERTAINTY_MEASURE_WITH_UNIT (LENGTH_MEASURE( 1.000000000000000082E-05 ), #189, 'distance_accuracy_value', 'NONE');
#50 = DIRECTION ( 'NONE',  ( -0.0000000000000000000, -0.0000000000000000000, -1.000000000000000000 ) ) ;
#51 = FACE_OUTER_BOUND ( 'NONE', #122, .T. ) ;
#52 = VECTOR ( 'NONE', #168, 39.37007874015748143 ) ;
#53 = FILL_AREA_STYLE_COLOUR ( '', #202 ) ;
#54 = DIRECTION ( 'NONE',  ( 0.7071067811865489050, 8.659560562354951347E-17, -0.7071067811865460184 ) ) ;
#55 = EDGE_CURVE ( 'NONE', #124, #40, #10, .T. ) ;
#56 = DIMENSIONAL_EXPONENTS ( 1.000000000000000000, 0.0000000000000000000, 0.0000000000000000000, 0.0000000000000000000, 0.0000000000000000000, 0.0000000000000000000, 0.0000000000000000000 ) ;
#57 = CIRCLE ( 'NONE', #180, 0.06250000000000000000 ) ;
#58 = AXIS2_PLACEMENT_3D ( 'NONE', #175, #13, #219 ) ;
#59 = EDGE_LOOP ( 'NONE', ( #166, #140, #61, #158 ) ) ;
#60 = AXIS2_PLACEMENT_3D ( 'NONE', #127, #107, #89 ) ;
#61 = ORIENTED_EDGE ( 'NONE', *, *, #125, .T. ) ;
#62 = ORIENTED_EDGE ( 'NONE', *, *, #70, .T. ) ;
#63 = ADVANCED_FACE ( 'NONE', ( #32 ), #239, .T. ) ;
#64 = AXIS2_PLACEMENT_3D ( 'NONE', #194, #34, #169 ) ;
#65 = DIRECTION ( 'NONE',  ( 1.000000000000000000, 0.0000000000000000000, -0.0000000000000000000 ) ) ;
#66 = ADVANCED_BREP_SHAPE_REPRESENTATION ( 'Micro_RNC-125-13', ( #195, #29 ), #233 ) ;
#67 = DIRECTION ( 'NONE',  ( -1.000000000000000000, 0.0000000000000000000, 0.0000000000000000000 ) ) ;
#68 = DIRECTION ( 'NONE',  ( 0.0000000000000000000, 0.0000000000000000000, 1.000000000000000000 ) ) ;
#69 = EDGE_LOOP ( 'NONE', ( #151, #22, #209, #231 ) ) ;
#70 = EDGE_CURVE ( 'NONE', #78, #124, #130, .T. ) ;
#71 =( CONVERSION_BASED_UNIT ( 'INCH', #132 ) LENGTH_UNIT ( ) NAMED_UNIT ( #136 ) );
#72 = UNCERTAINTY_MEASURE_WITH_UNIT (LENGTH_MEASURE( 1.000000000000000082E-05 ), #210, 'distance_accuracy_value', 'NONE');
#73 =( NAMED_UNIT ( * ) SI_UNIT ( $, .STERADIAN. ) SOLID_ANGLE_UNIT ( ) );
#74 = CIRCLE ( 'NONE', #88, 0.06250000000000000000 ) ;
#75 = PRESENTATION_STYLE_ASSIGNMENT (( #199 ) ) ;
#76 = ORIENTED_EDGE ( 'NONE', *, *, #21, .T. ) ;
#77 = APPLICATION_PROTOCOL_DEFINITION ( 'draft international standard', 'automotive_design', 1998, #177 ) ;
#78 = VERTEX_POINT ( 'NONE', #217 ) ;
#79 = ORIENTED_EDGE ( 'NONE', *, *, #70, .F. ) ;
#80 = CARTESIAN_POINT ( 'NONE',  ( -0.004000000000000000083, 4.898587196589413537E-19, 0.0000000000000000000 ) ) ;
#81 =( LENGTH_UNIT ( ) NAMED_UNIT ( * ) SI_UNIT ( $, .METRE. ) );
#82 = FACE_OUTER_BOUND ( 'NONE', #228, .T. ) ;
#83 = AXIS2_PLACEMENT_3D ( 'NONE', #192, #41, #212 ) ;
#84 = DIRECTION ( 'NONE',  ( -1.000000000000000000, 0.0000000000000000000, 0.0000000000000000000 ) ) ;
#85 = DIRECTION ( 'NONE',  ( 0.0000000000000000000, 0.0000000000000000000, -1.000000000000000000 ) ) ;
#86 = CARTESIAN_POINT ( 'NONE',  ( 0.0000000000000000000, 0.0000000000000000000, 0.0000000000000000000 ) ) ;
#87 = CARTESIAN_POINT ( 'NONE',  ( -0.06250000000000000000, 0.0000000000000000000, 0.05849999999999978134 ) ) ;
#88 = AXIS2_PLACEMENT_3D ( 'NONE', #18, #97, #110 ) ;
#89 = DIRECTION ( 'NONE',  ( -1.000000000000000000, 0.0000000000000000000, 0.0000000000000000000 ) ) ;
#90 = EDGE_CURVE ( 'NONE', #191, #40, #8, .T. ) ;
#91 = CARTESIAN_POINT ( 'NONE',  ( 0.0000000000000000000, 0.0000000000000000000, 3.000000000000000444 ) ) ;
#92 = ADVANCED_FACE ( 'NONE', ( #82 ), #15, .F. ) ;
#93 = CARTESIAN_POINT ( 'NONE',  ( -0.06250000000000000000, 0.0000000000000000000, 3.000000000000000444 ) ) ;
#94 = VECTOR ( 'NONE', #50, 39.37007874015748143 ) ;
#95 = EDGE_CURVE ( 'NONE', #124, #78, #11, .T. ) ;
#96 = VECTOR ( 'NONE', #172, 39.37007874015748143 ) ;
#97 = DIRECTION ( 'NONE',  ( -0.0000000000000000000, -0.0000000000000000000, -1.000000000000000000 ) ) ;
#98 = LENGTH_MEASURE_WITH_UNIT ( LENGTH_MEASURE( 0.02539999999999999897 ), #81 );
#99 = SURFACE_STYLE_FILL_AREA ( #27 ) ;
#100 = PRODUCT_DEFINITION ( 'UNKNOWN', '', #118, #157 ) ;
#101 = CONICAL_SURFACE ( 'NONE', #64, 0.004000000000000000083, 0.7853981633974501664 ) ;
#102 = DIRECTION ( 'NONE',  ( -0.0000000000000000000, -0.0000000000000000000, -1.000000000000000000 ) ) ;
#103 = VERTEX_POINT ( 'NONE', #240 ) ;
#104 = CYLINDRICAL_SURFACE ( 'NONE', #58, 0.06250000000000000000 ) ;
#105 = DIRECTION ( 'NONE',  ( -0.7071067811865487940, 8.659560562354948882E-17, 0.7071067811865462405 ) ) ;
#106 = CARTESIAN_POINT ( 'NONE',  ( -0.06250000000000000000, 0.0000000000000000000, 2.985000000000002096 ) ) ;
#107 = DIRECTION ( 'NONE',  ( 0.0000000000000000000, 0.0000000000000000000, -1.000000000000000000 ) ) ;
#108 = CIRCLE ( 'NONE', #152, 0.06250000000000000000 ) ;
#109 = CIRCLE ( 'NONE', #2, 0.04750000000000187406 ) ;
#110 = DIRECTION ( 'NONE',  ( -1.000000000000000000, 0.0000000000000000000, 0.0000000000000000000 ) ) ;
#111 = CARTESIAN_POINT ( 'NONE',  ( 0.0000000000000000000, 0.0000000000000000000, 3.000000000000000444 ) ) ;
#112 = FILL_AREA_STYLE ('',( #53 ) ) ;
#113 = ORIENTED_EDGE ( 'NONE', *, *, #145, .F. ) ;
#114 = ORIENTED_EDGE ( 'NONE', *, *, #246, .T. ) ;
#115 =( NAMED_UNIT ( * ) PLANE_ANGLE_UNIT ( ) SI_UNIT ( $, .RADIAN. ) );
#116 = FACE_OUTER_BOUND ( 'NONE', #69, .T. ) ;
#117 = PRODUCT_CONTEXT ( 'NONE', #9, 'mechanical' ) ;
#118 = PRODUCT_DEFINITION_FORMATION_WITH_SPECIFIED_SOURCE ( 'ANY', '', #179, .NOT_KNOWN. ) ;
#119 = LINE ( 'NONE', #80, #201 ) ;
#120 =( NAMED_UNIT ( * ) PLANE_ANGLE_UNIT ( ) SI_UNIT ( $, .RADIAN. ) );
#121 = ORIENTED_EDGE ( 'NONE', *, *, #162, .T. ) ;
#122 = EDGE_LOOP ( 'NONE', ( #113, #121, #26, #38 ) ) ;
#123 = MECHANICAL_DESIGN_GEOMETRIC_PRESENTATION_REPRESENTATION (  '', ( #220 ), #197 ) ;
#124 = VERTEX_POINT ( 'NONE', #143 ) ;
#125 = EDGE_CURVE ( 'NONE', #103, #133, #241, .T. ) ;
#126 = UNCERTAINTY_MEASURE_WITH_UNIT (LENGTH_MEASURE( 1.000000000000000082E-05 ), #71, 'distance_accuracy_value', 'NONE');
#127 = CARTESIAN_POINT ( 'NONE',  ( 0.0000000000000000000, 0.0000000000000000000, 3.000000000000000444 ) ) ;
#128 = SURFACE_SIDE_STYLE ('',( #221 ) ) ;
#129 = ADVANCED_FACE ( 'NONE', ( #33 ), #104, .T. ) ;
#130 = CIRCLE ( 'NONE', #243, 0.004000000000000000083 ) ;
#131 = DIRECTION ( 'NONE',  ( 0.0000000000000000000, 0.0000000000000000000, 1.000000000000000000 ) ) ;
#132 = LENGTH_MEASURE_WITH_UNIT ( LENGTH_MEASURE( 0.02539999999999999897 ), #178 );
#133 = VERTEX_POINT ( 'NONE', #106 ) ;
#134 = EDGE_CURVE ( 'NONE', #40, #135, #74, .T. ) ;
#135 = VERTEX_POINT ( 'NONE', #87 ) ;
#136 = DIMENSIONAL_EXPONENTS ( 1.000000000000000000, 0.0000000000000000000, 0.0000000000000000000, 0.0000000000000000000, 0.0000000000000000000, 0.0000000000000000000, 0.0000000000000000000 ) ;
#137 = ORIENTED_EDGE ( 'NONE', *, *, #95, .T. ) ;
#138 = AXIS2_PLACEMENT_3D ( 'NONE', #19, #146, #161 ) ;
#139 = PRESENTATION_LAYER_ASSIGNMENT (  '', '', ( #17 ) ) ;
#140 = ORIENTED_EDGE ( 'NONE', *, *, #184, .F. ) ;
#141 = VERTEX_POINT ( 'NONE', #48 ) ;
#142 = CARTESIAN_POINT ( 'NONE',  ( 0.06250000000000000000, 7.654042494670956004E-18, 3.000000000000000444 ) ) ;
#143 = CARTESIAN_POINT ( 'NONE',  ( 0.004000000000000000083, 0.0000000000000000000, 0.0000000000000000000 ) ) ;
#144 = CARTESIAN_POINT ( 'NONE',  ( -0.04750000000000187406, 0.0000000000000000000, 3.000000000000000444 ) ) ;
#145 = EDGE_CURVE ( 'NONE', #141, #103, #109, .T. ) ;
#146 = DIRECTION ( 'NONE',  ( -0.0000000000000000000, -0.0000000000000000000, -1.000000000000000000 ) ) ;
#147 = CARTESIAN_POINT ( 'NONE',  ( 0.0000000000000000000, 0.0000000000000000000, 3.000000000000000444 ) ) ;
#148 = DIRECTION ( 'NONE',  ( 1.000000000000000000, 0.0000000000000000000, 0.0000000000000000000 ) ) ;
#149 = CYLINDRICAL_SURFACE ( 'NONE', #227, 0.06250000000000000000 ) ;
#150 =( NAMED_UNIT ( * ) SI_UNIT ( $, .STERADIAN. ) SOLID_ANGLE_UNIT ( ) );
#151 = ORIENTED_EDGE ( 'NONE', *, *, #23, .F. ) ;
#152 = AXIS2_PLACEMENT_3D ( 'NONE', #163, #248, #24 ) ;
#153 = DIRECTION ( 'NONE',  ( 1.000000000000000000, 0.0000000000000000000, 0.0000000000000000000 ) ) ;
#154 = CARTESIAN_POINT ( 'NONE',  ( 0.004000000000000000083, 0.0000000000000000000, 0.0000000000000000000 ) ) ;
#155 = CARTESIAN_POINT ( 'NONE',  ( 0.0000000000000000000, 0.0000000000000000000, 0.0000000000000000000 ) ) ;
#156 = AXIS2_PLACEMENT_3D ( 'NONE', #111, #183, #185 ) ;
#157 = PRODUCT_DEFINITION_CONTEXT ( 'detailed design', #177, 'design' ) ;
#158 = ORIENTED_EDGE ( 'NONE', *, *, #246, .F. ) ;
#159 = FACE_OUTER_BOUND ( 'NONE', #59, .T. ) ;
#160 = ORIENTED_EDGE ( 'NONE', *, *, #90, .T. ) ;
#161 = DIRECTION ( 'NONE',  ( -1.000000000000000000, 0.0000000000000000000, 0.0000000000000000000 ) ) ;
#162 = EDGE_CURVE ( 'NONE', #141, #191, #182, .T. ) ;
#163 = CARTESIAN_POINT ( 'NONE',  ( 0.0000000000000000000, 0.0000000000000000000, 2.985000000000002096 ) ) ;
#164 = ADVANCED_FACE ( 'NONE', ( #51 ), #12, .T. ) ;
#165 = DIRECTION ( 'NONE',  ( 1.000000000000000000, 0.0000000000000000000, 0.0000000000000000000 ) ) ;
#166 = ORIENTED_EDGE ( 'NONE', *, *, #162, .F. ) ;
#167 = VECTOR ( 'NONE', #54, 39.37007874015748854 ) ;
#168 = DIRECTION ( 'NONE',  ( -0.0000000000000000000, -0.0000000000000000000, -1.000000000000000000 ) ) ;
#169 = DIRECTION ( 'NONE',  ( 1.000000000000000000, 0.0000000000000000000, 0.0000000000000000000 ) ) ;
#170 = EDGE_CURVE ( 'NONE', #135, #40, #226, .T. ) ;
#171 = DIRECTION ( 'NONE',  ( 0.0000000000000000000, 0.0000000000000000000, 1.000000000000000000 ) ) ;
#172 = DIRECTION ( 'NONE',  ( 0.7071067811865487940, 0.0000000000000000000, 0.7071067811865462405 ) ) ;
#173 = AXIS2_PLACEMENT_3D ( 'NONE', #86, #7, #67 ) ;
#174 =( GEOMETRIC_REPRESENTATION_CONTEXT ( 3 ) GLOBAL_UNCERTAINTY_ASSIGNED_CONTEXT ( ( #49 ) ) GLOBAL_UNIT_ASSIGNED_CONTEXT ( ( #189, #120, #193 ) ) REPRESENTATION_CONTEXT ( 'NONE', 'WORKASPACE' ) );
#175 = CARTESIAN_POINT ( 'NONE',  ( 0.0000000000000000000, 0.0000000000000000000, 3.000000000000000444 ) ) ;
#176 = DIRECTION ( 'NONE',  ( 0.0000000000000000000, 0.0000000000000000000, 1.000000000000000000 ) ) ;
#177 = APPLICATION_CONTEXT ( 'automotive_design' ) ;
#178 =( LENGTH_UNIT ( ) NAMED_UNIT ( * ) SI_UNIT ( $, .METRE. ) );
#179 = PRODUCT ( 'Micro_RNC-125-13', 'Micro_RNC-125-13', '', ( #117 ) ) ;
#180 = AXIS2_PLACEMENT_3D ( 'NONE', #42, #85, #46 ) ;
#181 = FACE_OUTER_BOUND ( 'NONE', #186, .T. ) ;
#182 = LINE ( 'NONE', #224, #167 ) ;
#183 = DIRECTION ( 'NONE',  ( 0.0000000000000000000, 0.0000000000000000000, 1.000000000000000000 ) ) ;
#184 = EDGE_CURVE ( 'NONE', #103, #141, #39, .T. ) ;
#185 = DIRECTION ( 'NONE',  ( 1.000000000000000000, 0.0000000000000000000, -0.0000000000000000000 ) ) ;
#186 = EDGE_LOOP ( 'NONE', ( #76, #160, #36, #44 ) ) ;
#187 = ORIENTED_EDGE ( 'NONE', *, *, #184, .T. ) ;
#188 = ORIENTED_EDGE ( 'NONE', *, *, #145, .T. ) ;
#189 =( CONVERSION_BASED_UNIT ( 'INCH', #43 ) LENGTH_UNIT ( ) NAMED_UNIT ( #56 ) );
#190 = ADVANCED_FACE ( 'NONE', ( #181 ), #149, .T. ) ;
#191 = VERTEX_POINT ( 'NONE', #247 ) ;
#192 = CARTESIAN_POINT ( 'NONE',  ( 0.0000000000000000000, 0.0000000000000000000, 3.000000000000000444 ) ) ;
#193 =( NAMED_UNIT ( * ) SI_UNIT ( $, .STERADIAN. ) SOLID_ANGLE_UNIT ( ) );
#194 = CARTESIAN_POINT ( 'NONE',  ( 0.0000000000000000000, 0.0000000000000000000, 0.0000000000000000000 ) ) ;
#195 = MANIFOLD_SOLID_BREP ( 'Cut-Revolve1', #1 ) ;
#196 = DIRECTION ( 'NONE',  ( -0.7071067811865489050, 0.0000000000000000000, -0.7071067811865460184 ) ) ;
#197 =( GEOMETRIC_REPRESENTATION_CONTEXT ( 3 ) GLOBAL_UNCERTAINTY_ASSIGNED_CONTEXT ( ( #126 ) ) GLOBAL_UNIT_ASSIGNED_CONTEXT ( ( #71, #16, #73 ) ) REPRESENTATION_CONTEXT ( 'NONE', 'WORKASPACE' ) );
#198 = EDGE_LOOP ( 'NONE', ( #79, #213, #236, #206 ) ) ;
#199 = SURFACE_STYLE_USAGE ( .BOTH. , #128 ) ;
#200 = DIRECTION ( 'NONE',  ( -1.000000000000000000, 0.0000000000000000000, 0.0000000000000000000 ) ) ;
#201 = VECTOR ( 'NONE', #105, 39.37007874015748143 ) ;
#202 = COLOUR_RGB ( '',0.7921568627450980005, 0.8196078431372548767, 0.9333333333333333481 ) ;
#203 = PLANE ( 'NONE',  #156 ) ;
#204 = ADVANCED_FACE ( 'NONE', ( #222 ), #203, .T. ) ;
#205 = DIRECTION ( 'NONE',  ( 0.0000000000000000000, 0.0000000000000000000, 1.000000000000000000 ) ) ;
#206 = ORIENTED_EDGE ( 'NONE', *, *, #55, .F. ) ;
#207 = SURFACE_STYLE_USAGE ( .BOTH. , #216 ) ;
#208 = CONICAL_SURFACE ( 'NONE', #83, 0.04750000000000187406, 0.7853981633974503884 ) ;
#209 = ORIENTED_EDGE ( 'NONE', *, *, #55, .T. ) ;
#210 =( CONVERSION_BASED_UNIT ( 'INCH', #98 ) LENGTH_UNIT ( ) NAMED_UNIT ( #249 ) );
#211 = FILL_AREA_STYLE_COLOUR ( '', #47 ) ;
#212 = DIRECTION ( 'NONE',  ( -1.000000000000000000, 0.0000000000000000000, 0.0000000000000000000 ) ) ;
#213 = ORIENTED_EDGE ( 'NONE', *, *, #23, .T. ) ;
#214 = PRODUCT_DEFINITION_SHAPE ( 'NONE', 'NONE',  #100 ) ;
#215 = AXIS2_PLACEMENT_3D ( 'NONE', #245, #205, #165 ) ;
#216 = SURFACE_SIDE_STYLE ('',( #99 ) ) ;
#217 = CARTESIAN_POINT ( 'NONE',  ( -0.004000000000000000083, 4.071950607164948872E-18, 0.0000000000000000000 ) ) ;
#218 = CARTESIAN_POINT ( 'NONE',  ( 0.0000000000000000000, 0.0000000000000000000, 0.0000000000000000000 ) ) ;
#219 = DIRECTION ( 'NONE',  ( -1.000000000000000000, 0.0000000000000000000, 0.0000000000000000000 ) ) ;
#220 = STYLED_ITEM ( 'NONE', ( #75 ), #195 ) ;
#221 = SURFACE_STYLE_FILL_AREA ( #112 ) ;
#222 = FACE_OUTER_BOUND ( 'NONE', #229, .T. ) ;
#223 = EDGE_CURVE ( 'NONE', #133, #135, #20, .T. ) ;
#224 = CARTESIAN_POINT ( 'NONE',  ( 0.04750000000000187406, 5.817072295950157521E-18, 3.000000000000000444 ) ) ;
#225 = AXIS2_PLACEMENT_3D ( 'NONE', #238, #68, #65 ) ;
#226 = CIRCLE ( 'NONE', #138, 0.06250000000000000000 ) ;
#227 = AXIS2_PLACEMENT_3D ( 'NONE', #91, #3, #200 ) ;
#228 = EDGE_LOOP ( 'NONE', ( #137, #62 ) ) ;
#229 = EDGE_LOOP ( 'NONE', ( #187, #188 ) ) ;
#230 = SHAPE_DEFINITION_REPRESENTATION ( #214, #66 ) ;
#231 = ORIENTED_EDGE ( 'NONE', *, *, #134, .T. ) ;
#232 = PRESENTATION_STYLE_ASSIGNMENT (( #207 ) ) ;
#233 =( GEOMETRIC_REPRESENTATION_CONTEXT ( 3 ) GLOBAL_UNCERTAINTY_ASSIGNED_CONTEXT ( ( #72 ) ) GLOBAL_UNIT_ASSIGNED_CONTEXT ( ( #210, #115, #150 ) ) REPRESENTATION_CONTEXT ( 'NONE', 'WORKASPACE' ) );
#234 = ORIENTED_EDGE ( 'NONE', *, *, #134, .F. ) ;
#235 =( LENGTH_UNIT ( ) NAMED_UNIT ( * ) SI_UNIT ( $, .METRE. ) );
#236 = ORIENTED_EDGE ( 'NONE', *, *, #170, .T. ) ;
#237 = APPLICATION_PROTOCOL_DEFINITION ( 'draft international standard', 'automotive_design', 1998, #9 ) ;
#238 = CARTESIAN_POINT ( 'NONE',  ( 0.0000000000000000000, 0.0000000000000000000, 0.0000000000000000000 ) ) ;
#239 = CONICAL_SURFACE ( 'NONE', #25, 0.004000000000000000083, 0.7853981633974501664 ) ;
#240 = CARTESIAN_POINT ( 'NONE',  ( -0.04750000000000187406, 0.0000000000000000000, 3.000000000000000444 ) ) ;
#241 = LINE ( 'NONE', #144, #28 ) ;
#242 = EDGE_LOOP ( 'NONE', ( #6, #114, #4, #234 ) ) ;
#243 = AXIS2_PLACEMENT_3D ( 'NONE', #155, #102, #84 ) ;
#244 = MECHANICAL_DESIGN_GEOMETRIC_PRESENTATION_REPRESENTATION (  '', ( #17 ), #174 ) ;
#245 = CARTESIAN_POINT ( 'NONE',  ( 0.0000000000000000000, 0.0000000000000000000, 3.000000000000000444 ) ) ;
#246 = EDGE_CURVE ( 'NONE', #191, #133, #108, .T. ) ;
#247 = CARTESIAN_POINT ( 'NONE',  ( 0.06250000000000000000, 7.654042494670956004E-18, 2.985000000000002096 ) ) ;
#248 = DIRECTION ( 'NONE',  ( 0.0000000000000000000, 0.0000000000000000000, -1.000000000000000000 ) ) ;
#249 = DIMENSIONAL_EXPONENTS ( 1.000000000000000000, 0.0000000000000000000, 0.0000000000000000000, 0.0000000000000000000, 0.0000000000000000000, 0.0000000000000000000, 0.0000000000000000000 ) ;
ENDSEC;
END-ISO-10303-21;
